  0
SECTION
  2
HEADER
  9
$ACADVER
  1
AC1015
  9
$ACADMAINTVER
 70
     6
  9
$DWGCODEPAGE
  3
DOS932
  9
$INSBASE
 10
0.0
 20
0.0
 30
0.0
  9
$EXTMIN
 10
0.0
 20
0.0
 30
0.0
  9
$EXTMAX
 10
5250.0
 20
7425.0
 30
0.0
  9
$LIMMIN
 10
0.0
 20
0.0
  9
$LIMMAX
 10
5250.0
 20
7425.0
  9
$ORTHOMODE
 70
     0
  9
$REGENMODE
 70
     1
  9
$FILLMODE
 70
     1
  9
$QTEXTMODE
 70
     0
  9
$MIRRTEXT
 70
     1
  9
$LTSCALE
 40
25.0
  9
$ATTMODE
 70
     1
  9
$TEXTSIZE
 40
70.5555555556
  9
$TRACEWID
 40
1.0
  9
$TEXTSTYLE
  7
Standard
  9
$CLAYER
  8
0
  9
$CELTYPE
  6
ByLayer
  9
$CECOLOR
 62
   256
  9
$CELTSCALE
 40
1.0
  9
$DISPSILH
 70
     0
  9
$DIMSCALE
 40
1.0
  9
$DIMASZ
 40
37.5
  9
$DIMEXO
 40
25.0
  9
$DIMDLI
 40
3.75
  9
$DIMRND
 40
0.0
  9
$DIMDLE
 40
0.0
  9
$DIMEXE
 40
25.0
  9
$DIMTP
 40
0.0
  9
$DIMTM
 40
0.0
  9
$DIMTXT
 40
70.5555555556
  9
$DIMCEN
 40
2.5
  9
$DIMTSZ
 40
0.0
  9
$DIMTOL
 70
     0
  9
$DIMLIM
 70
     0
  9
$DIMTIH
 70
     1
  9
$DIMTOH
 70
     1
  9
$DIMSE1
 70
     0
  9
$DIMSE2
 70
     0
  9
$DIMTAD
 70
     1
  9
$DIMZIN
 70
     0
  9
$DIMBLK
  1

  9
$DIMASO
 70
     1
  9
$DIMSHO
 70
     1
  9
$DIMPOST
  1

  9
$DIMAPOST
  1

  9
$DIMALT
 70
     0
  9
$DIMALTD
 70
     3
  9
$DIMALTF
 40
0.0393700787
  9
$DIMLFAC
 40
1.0
  9
$DIMTOFL
 70
     1
  9
$DIMTVP
 40
0.0
  9
$DIMTIX
 70
     0
  9
$DIMSOXD
 70
     0
  9
$DIMSAH
 70
     0
  9
$DIMBLK1
  1

  9
$DIMBLK2
  1

  9
$DIMSTYLE
  2
ISO-25
  9
$DIMCLRD
 70
     0
  9
$DIMCLRE
 70
     0
  9
$DIMCLRT
 70
     0
  9
$DIMTFAC
 40
1.0
  9
$DIMGAP
 40
38.1
  9
$DIMJUST
 70
     0
  9
$DIMSD1
 70
     0
  9
$DIMSD2
 70
     0
  9
$DIMTOLJ
 70
     0
  9
$DIMTZIN
 70
     0
  9
$DIMALTZ
 70
     0
  9
$DIMALTTZ
 70
     0
  9
$DIMUPT
 70
     0
  9
$DIMDEC
 70
     0
  9
$DIMTDEC
 70
     0
  9
$DIMALTU
 70
     2
  9
$DIMALTTD
 70
     3
  9
$DIMTXSTY
  7
Standard
  9
$DIMAUNIT
 70
     0
  9
$DIMADEC
 70
     2
  9
$DIMALTRND
 40
0.0
  9
$DIMAZIN
 70
     0
  9
$DIMDSEP
 70
    44
  9
$DIMATFIT
 70
     3
  9
$DIMFRAC
 70
     0
  9
$DIMLDRBLK
  1

  9
$DIMLUNIT
 70
     2
  9
$DIMLWD
 70
    -2
  9
$DIMLWE
 70
    -2
  9
$DIMTMOVE
 70
     0
  9
$LUNITS
 70
     2
  9
$LUPREC
 70
     2
  9
$SKETCHINC
 40
1.0
  9
$FILLETRAD
 40
0.0
  9
$AUNITS
 70
     0
  9
$AUPREC
 70
     2
  9
$MENU
  1
.
  9
$ELEVATION
 40
0.0
  9
$PELEVATION
 40
0.0
  9
$THICKNESS
 40
0.0
  9
$LIMCHECK
 70
     0
  9
$CHAMFERA
 40
0.0
  9
$CHAMFERB
 40
0.0
  9
$CHAMFERC
 40
0.0
  9
$CHAMFERD
 40
0.0
  9
$SKPOLY
 70
     0
  9
$TDCREATE
 40
2460174.792534259
  9
$TDUCREATE
 40
2460174.417534259
  9
$TDUPDATE
 40
2460174.79253728
  9
$TDUUPDATE
 40
2460174.41753728
  9
$TDINDWG
 40
0.0000000116
  9
$TDUSRTIMER
 40
0.0000000116
  9
$USRTIMER
 70
     1
  9
$ANGBASE
 50
0.0
  9
$ANGDIR
 70
     0
  9
$PDMODE
 70
     0
  9
$PDSIZE
 40
-1.0
  9
$PLINEWID
 40
0.0
  9
$SPLFRAME
 70
     0
  9
$SPLINETYPE
 70
     6
  9
$SPLINESEGS
 70
     8
  9
$HANDSEED
  5
230
  9
$SURFTAB1
 70
     6
  9
$SURFTAB2
 70
     6
  9
$SURFTYPE
 70
     6
  9
$SURFU
 70
     6
  9
$SURFV
 70
     6
  9
$UCSBASE
  2

  9
$UCSNAME
  2

  9
$UCSORG
 10
0.0
 20
0.0
 30
0.0
  9
$UCSXDIR
 10
1.0
 20
0.0
 30
0.0
  9
$UCSYDIR
 10
0.0
 20
1.0
 30
0.0
  9
$UCSORTHOREF
  2

  9
$UCSORTHOVIEW
 70
     0
  9
$UCSORGTOP
 10
0.0
 20
0.0
 30
0.0
  9
$UCSORGBOTTOM
 10
0.0
 20
0.0
 30
0.0
  9
$UCSORGLEFT
 10
0.0
 20
0.0
 30
0.0
  9
$UCSORGRIGHT
 10
0.0
 20
0.0
 30
0.0
  9
$UCSORGFRONT
 10
0.0
 20
0.0
 30
0.0
  9
$UCSORGBACK
 10
0.0
 20
0.0
 30
0.0
  9
$PUCSBASE
  2

  9
$PUCSNAME
  2

  9
$PUCSORG
 10
0.0
 20
0.0
 30
0.0
  9
$PUCSXDIR
 10
1.0
 20
0.0
 30
0.0
  9
$PUCSYDIR
 10
0.0
 20
1.0
 30
0.0
  9
$PUCSORTHOREF
  2

  9
$PUCSORTHOVIEW
 70
     0
  9
$PUCSORGTOP
 10
0.0
 20
0.0
 30
0.0
  9
$PUCSORGBOTTOM
 10
0.0
 20
0.0
 30
0.0
  9
$PUCSORGLEFT
 10
0.0
 20
0.0
 30
0.0
  9
$PUCSORGRIGHT
 10
0.0
 20
0.0
 30
0.0
  9
$PUCSORGFRONT
 10
0.0
 20
0.0
 30
0.0
  9
$PUCSORGBACK
 10
0.0
 20
0.0
 30
0.0
  9
$USERI1
 70
     0
  9
$USERI2
 70
     0
  9
$USERI3
 70
     0
  9
$USERI4
 70
     0
  9
$USERI5
 70
     0
  9
$USERR1
 40
0.0
  9
$USERR2
 40
0.0
  9
$USERR3
 40
0.0
  9
$USERR4
 40
0.0
  9
$USERR5
 40
0.0
  9
$WORLDVIEW
 70
     1
  9
$SHADEDGE
 70
     3
  9
$SHADEDIF
 70
    70
  9
$TILEMODE
 70
     1
  9
$MAXACTVP
 70
    64
  9
$PINSBASE
 10
0.0
 20
0.0
 30
0.0
  9
$PLIMCHECK
 70
     0
  9
$PEXTMIN
 10
1.0000000000E+20
 20
1.0000000000E+20
 30
1.0000000000E+20
  9
$PEXTMAX
 10
-1.0000000000E+20
 20
-1.0000000000E+20
 30
-1.0000000000E+20
  9
$PLIMMIN
 10
0.0
 20
0.0
  9
$PLIMMAX
 10
420.0
 20
297.0
  9
$UNITMODE
 70
     0
  9
$VISRETAIN
 70
     1
  9
$PLINEGEN
 70
     0
  9
$PSLTSCALE
 70
     1
  9
$TREEDEPTH
 70
  3020
  9
$CMLSTYLE
  2
Standard
  9
$CMLJUST
 70
     0
  9
$CMLSCALE
 40
20.0
  9
$PROXYGRAPHICS
 70
     1
  9
$MEASUREMENT
 70
     1
  9
$CELWEIGHT
370
    -1
  9
$ENDCAPS
280
     0
  9
$JOINSTYLE
280
     0
  9
$LWDISPLAY
290
     1
  9
$INSUNITS
 70
     4
  9
$HYPERLINKBASE
  1

  9
$STYLESHEET
  1

  9
$XEDIT
290
     1
  9
$CEPSNTYPE
380
     0
  9
$PSTYLEMODE
290
     1
  9
$FINGERPRINTGUID
  2
{efbf4232-a11a-437b-9012-132aba13cfd0}
  9
$VERSIONGUID
  2
{FAEB1C32-E019-11D5-929B-00C0DF256EC4}
  9
$EXTNAMES
290
     1
  9
$PSVPSCALE
 40
0.0
  9
$OLESTARTUP
290
     0
  0
ENDSEC
  0
SECTION
  2
CLASSES
  0
CLASS
  1
ACDBDICTIONARYWDFLT
  2
AcDbDictionaryWithDefault
  3
ObjectDBX Classes
 90
        0
280
     0
281
     0
  0
CLASS
  1
VISUALSTYLE
  2
AcDbVisualStyle
  3
ObjectDBX Classes
 90
     4095
280
     0
281
     0
  0
CLASS
  1
MATERIAL
  2
AcDbMaterial
  3
ObjectDBX Classes
 90
     1153
280
     0
281
     0
  0
CLASS
  1
SCALE
  2
AcDbScale
  3
ObjectDBX Classes
 90
     1153
280
     0
281
     0
  0
CLASS
  1
TABLESTYLE
  2
AcDbTableStyle
  3
ObjectDBX Classes
 90
     4095
280
     0
281
     0
  0
CLASS
  1
MLEADERSTYLE
  2
AcDbMLeaderStyle
  3
ACDB_MLEADERSTYLE_CLASS
 90
     4095
280
     0
281
     0
  0
CLASS
  1
SUN
  2
AcDbSun
  3
SCENEOE
 90
     1153
280
     0
281
     0
  0
CLASS
  1
ACDBPLACEHOLDER
  2
AcDbPlaceHolder
  3
ObjectDBX Classes
 90
        0
280
     0
281
     0
  0
CLASS
  1
LAYOUT
  2
AcDbLayout
  3
ObjectDBX Classes
 90
        0
280
     0
281
     0
  0
ENDSEC
  0
SECTION
  2
TABLES
  0
TABLE
  2
VPORT
  5
8
330
0
100
AcDbSymbolTable
 70
     1
  0
VPORT
  5
29
330
8
100
AcDbSymbolTableRecord
100
AcDbViewportTableRecord
  2
*Active
 70
     0
 10
0.0
 20
0.0
 11
1.0
 21
1.0
 12
2625.0
 22
3712.5
 13
0.0
 23
0.0
 14
10.0
 24
10.0
 15
10.0
 25
10.0
 16
0.0
 26
0.0
 36
1.0
 17
0.0
 27
0.0
 37
0.0
 40
7425.0
 41
0.7070707071
 42
50.0
 43
0.0
 44
0.0
 50
0.0
 51
0.0
 71
     0
 72
  2000
 73
     1
 74
     3
 75
     0
 76
     0
 77
     0
 78
     0
281
     0
 65
     1
110
0.0
120
0.0
130
0.0
111
1.0
121
0.0
131
0.0
112
0.0
122
1.0
132
0.0
 79
     0
146
0.0
  0
ENDTAB
  0
TABLE
  2
LTYPE
  5
5
330
0
100
AcDbSymbolTable
 70
     6
  0
LTYPE
  5
14
330
5
100
AcDbSymbolTableRecord
100
AcDbLinetypeTableRecord
  2
ByBlock
 70
     0
  3

 72
    65
 73
     0
 40
0.0
  0
LTYPE
  5
15
330
5
100
AcDbSymbolTableRecord
100
AcDbLinetypeTableRecord
  2
ByLayer
 70
     0
  3

 72
    65
 73
     0
 40
0.0
  0
LTYPE
  5
16
330
5
100
AcDbSymbolTableRecord
100
AcDbLinetypeTableRecord
  2
Continuous
 70
     0
  3
Solid line
 72
    65
 73
     0
 40
0.0
  0
LTYPE
  5
5E
330
5
100
AcDbSymbolTableRecord
100
AcDbLinetypeTableRecord
  2
HIDDEN
 70
     0
  3
Hidden __ __ __ __ __ __ __ __ __ __ __ __ __ __
 72
    65
 73
     2
 40
1.905
 49
1.27
 74
     0
 49
-0.635
 74
     0
  0
LTYPE
  5
5F
330
5
100
AcDbSymbolTableRecord
100
AcDbLinetypeTableRecord
  2
PHANTOM
 70
     0
  3
Phantom ______  __  __  ______  __  __  ______
 72
    65
 73
     6
 40
12.7
 49
6.35
 74
     0
 49
-1.27
 74
     0
 49
1.27
 74
     0
 49
-1.27
 74
     0
 49
1.27
 74
     0
 49
-1.27
 74
     0
  0
LTYPE
  5
60
330
5
100
AcDbSymbolTableRecord
100
AcDbLinetypeTableRecord
  2
CENTER
 70
     0
  3
Center ____ _ ____ _ ____ _ ____ _ ____ _ ____
 72
    65
 73
     4
 40
10.16
 49
6.35
 74
     0
 49
-1.27
 74
     0
 49
1.27
 74
     0
 49
-1.27
 74
     0
  0
LTYPE
  5
61
330
5
100
AcDbSymbolTableRecord
100
AcDbLinetypeTableRecord
  2
CENTERX2
 70
     0
  3
Center (2x) ________  __  ________  __  _____
 72
    65
 73
     4
 40
20.32
 49
12.7
 74
     0
 49
-2.54
 74
     0
 49
2.54
 74
     0
 49
-2.54
 74
     0
  0
LTYPE
  5
62
330
5
100
AcDbSymbolTableRecord
100
AcDbLinetypeTableRecord
  2
DOT2
 70
     0
  3
Dot (.5x) ........................................
 72
    65
 73
     2
 40
0.635
 49
0.0
 74
     0
 49
-0.635
 74
     0
  0
ENDTAB
  0
TABLE
  2
LAYER
  5
2
330
0
100
AcDbSymbolTable
 70
     6
  0
LAYER
  5
10
330
2
100
AcDbSymbolTableRecord
100
AcDbLayerTableRecord
  2
0
 70
     0
 62
     7
  6
Continuous
370
    -3
390
F
  0
LAYER
  5
63
330
2
100
AcDbSymbolTableRecord
100
AcDbLayerTableRecord
  2
1
 70
     0
 62
     4
  6
Continuous
370
    25
390
F
  0
LAYER
  5
64
330
2
100
AcDbSymbolTableRecord
100
AcDbLayerTableRecord
  2
2
 70
     0
 62
     3
  6
CENTERX2
370
    -3
390
F
  0
LAYER
  5
65
330
2
100
AcDbSymbolTableRecord
100
AcDbLayerTableRecord
  2
3
 70
     0
 62
     2
  6
Continuous
370
    -3
390
F
  0
LAYER
  5
66
330
2
100
AcDbSymbolTableRecord
100
AcDbLayerTableRecord
  2
4
 70
     0
 62
     7
  6
Continuous
370
    -3
390
F
  0
LAYER
  5
67
330
2
100
AcDbSymbolTableRecord
100
AcDbLayerTableRecord
  2
基礎穴
 70
     0
 62
     1
  6
PHANTOM
370
    35
390
F
  0
ENDTAB
  0
TABLE
  2
STYLE
  5
3
330
0
100
AcDbSymbolTable
 70
     2
  0
STYLE
  5
11
330
3
100
AcDbSymbolTableRecord
100
AcDbTextStyleTableRecord
  2
Standard
 70
     0
 40
0.0
 41
1.0
 50
0.0
 71
     0
 42
70.5555555556
  3
txt
  4
bigfont
  0
STYLE
  5
68
330
3
100
AcDbSymbolTableRecord
100
AcDbTextStyleTableRecord
  2
SLDTEXTSTYLE0
 70
     0
 40
0.0
 41
0.7
 50
0.0
 71
     0
 42
70.5555555556
  3
TXT
  4
bigfont
  0
ENDTAB
  0
TABLE
  2
VIEW
  5
6
330
0
100
AcDbSymbolTable
 70
     0
  0
ENDTAB
  0
TABLE
  2
UCS
  5
7
330
0
100
AcDbSymbolTable
 70
     0
  0
ENDTAB
  0
TABLE
  2
APPID
  5
9
330
0
100
AcDbSymbolTable
 70
     1
  0
APPID
  5
12
330
9
100
AcDbSymbolTableRecord
100
AcDbRegAppTableRecord
  2
ACAD
 70
     0
  0
ENDTAB
  0
TABLE
  2
DIMSTYLE
  5
A
330
0
100
AcDbSymbolTable
 70
     1
100
AcDbDimStyleTable
  0
DIMSTYLE
105
27
330
A
100
AcDbSymbolTableRecord
100
AcDbDimStyleTableRecord
  2
ISO-25
 70
     0
 41
2.5
 42
0.625
 43
3.75
 44
1.25
 73
     0
 74
     0
 77
     1
 78
     8
140
2.5
141
2.5
143
0.0393700787
147
0.625
171
     3
172
     1
178
     0
271
     2
272
     2
274
     3
278
    44
283
     0
284
     8
340
11
  0
ENDTAB
  0
TABLE
  2
BLOCK_RECORD
  5
1
330
0
100
AcDbSymbolTable
 70
     2
  0
BLOCK_RECORD
  5
1F
330
1
100
AcDbSymbolTableRecord
100
AcDbBlockTableRecord
  2
*Model_Space
340
22
  0
BLOCK_RECORD
  5
1B
330
1
100
AcDbSymbolTableRecord
100
AcDbBlockTableRecord
  2
*Paper_Space
340
1E
  0
BLOCK_RECORD
  5
23
330
1
100
AcDbSymbolTableRecord
100
AcDbBlockTableRecord
  2
*Paper_Space0
340
26
  0
BLOCK_RECORD
  5
DD
330
1
100
AcDbSymbolTableRecord
100
AcDbBlockTableRecord
  2
SW_CENTERMARKSYMBOL_0
340
0
102
{BLKREFS
331
E8
102
}
  0
ENDTAB
  0
ENDSEC
  0
SECTION
  2
BLOCKS
  0
BLOCK
  5
20
330
1F
100
AcDbEntity
  8
0
100
AcDbBlockBegin
  2
*Model_Space
 70
     0
 10
0.0
 20
0.0
 30
0.0
  3
*Model_Space
  1

  0
ENDBLK
  5
21
330
1F
100
AcDbEntity
  8
0
100
AcDbBlockEnd
  0
BLOCK
  5
1C
330
1B
100
AcDbEntity
 67
     1
  8
0
100
AcDbBlockBegin
  2
*Paper_Space
 70
     0
 10
0.0
 20
0.0
 30
0.0
  3
*Paper_Space
  1

  0
ENDBLK
  5
1D
330
1B
100
AcDbEntity
 67
     1
  8
0
100
AcDbBlockEnd
  0
BLOCK
  5
24
330
23
100
AcDbEntity
  8
0
100
AcDbBlockBegin
  2
*Paper_Space0
 70
     0
 10
0.0
 20
0.0
 30
0.0
  3
*Paper_Space0
  1

  0
ENDBLK
  5
25
330
23
100
AcDbEntity
  8
0
100
AcDbBlockEnd
  0
BLOCK
  5
DE
330
DD
100
AcDbEntity
  8
0
100
AcDbBlockBegin
  2
SW_CENTERMARKSYMBOL_0
 70
     0
 10
0.0
 20
0.0
 30
0.0
  3
SW_CENTERMARKSYMBOL_0
  1

  0
LINE
  5
E0
330
DD
100
AcDbEntity
  8
2
 62
     0
100
AcDbLine
 10
0.0
 20
0.0
 30
0.0
 11
0.0
 21
2.5
 31
0.0
  0
LINE
  5
E1
330
DD
100
AcDbEntity
  8
2
 62
     0
100
AcDbLine
 10
0.0
 20
0.0
 30
0.0
 11
-2.5
 21
0.0
 31
0.0
  0
LINE
  5
E2
330
DD
100
AcDbEntity
  8
2
 62
     0
100
AcDbLine
 10
0.0
 20
0.0
 30
0.0
 11
0.0
 21
-2.5
 31
0.0
  0
LINE
  5
E3
330
DD
100
AcDbEntity
  8
2
 62
     0
100
AcDbLine
 10
0.0
 20
0.0
 30
0.0
 11
2.5
 21
0.0
 31
0.0
  0
LINE
  5
E4
330
DD
100
AcDbEntity
  8
2
 62
     0
100
AcDbLine
 10
0.0
 20
5.0
 30
0.0
 11
0.0
 21
677.5
 31
0.0
  0
LINE
  5
E5
330
DD
100
AcDbEntity
  8
2
 62
     0
100
AcDbLine
 10
-5.0
 20
0.0
 30
0.0
 11
-677.5
 21
0.0
 31
0.0
  0
LINE
  5
E6
330
DD
100
AcDbEntity
  8
2
 62
     0
100
AcDbLine
 10
0.0
 20
-5.0
 30
0.0
 11
0.0
 21
-677.5
 31
0.0
  0
LINE
  5
E7
330
DD
100
AcDbEntity
  8
2
 62
     0
100
AcDbLine
 10
5.0
 20
0.0
 30
0.0
 11
677.5
 21
0.0
 31
0.0
  0
ENDBLK
  5
DF
330
DD
100
AcDbEntity
  8
0
100
AcDbBlockEnd
  0
ENDSEC
  0
SECTION
  2
ENTITIES
  0
MTEXT
  5
69
330
1F
100
AcDbEntity
  8
0
  6
Continuous
 62
     7
370
     0
100
AcDbMText
 10
3949.0028354986
 20
1548.1246352716
 30
0.0
 40
70.5555555556
 41
0.0
 71
     1
 72
     1
  1
LL08040YS01K-R3
  7
SLDTEXTSTYLE0
 73
     1
 44
1.0
  0
LINE
  5
6A
330
1F
100
AcDbEntity
  8
1
100
AcDbLine
 10
393.6855484025
 20
1947.4746851832
 30
0.0
 11
393.6855484025
 21
1842.4746851832
 31
0.0
  0
LINE
  5
6B
330
1F
100
AcDbEntity
  8
1
100
AcDbLine
 10
428.6855484025
 20
1842.4746851832
 30
0.0
 11
428.6855484025
 21
1947.4746851832
 31
0.0
  0
LINE
  5
6C
330
1F
100
AcDbEntity
  8
1
100
AcDbLine
 10
2793.6855484025
 20
1947.4746851832
 30
0.0
 11
2793.6855484025
 21
1842.4746851832
 31
0.0
  0
LINE
  5
6D
330
1F
100
AcDbEntity
  8
1
100
AcDbLine
 10
2828.6855484025
 20
1842.4746851832
 30
0.0
 11
2828.6855484025
 21
1947.4746851832
 31
0.0
  0
LINE
  5
6E
330
1F
100
AcDbEntity
  8
1
100
AcDbLine
 10
2679.0569075602
 20
2489.7770206155
 30
0.0
 11
1304.6946859378
 21
3738.054727609
 31
0.0
  0
ARC
  5
6F
330
1F
100
AcDbEntity
  8
1
100
AcDbCircle
 10
2536.1855484025
 20
2332.4746851832
 30
0.0
 40
212.5
100
AcDbArc
 50
234.6874479598
 51
47.7523994473
  0
LINE
  5
70
330
1F
100
AcDbEntity
  8
1
100
AcDbLine
 10
898.3237166503
 20
3232.2711177662
 30
0.0
 11
2413.3528122568
 21
2159.0723526413
 31
0.0
  0
ARC
  5
71
330
1F
100
AcDbEntity
  8
1
100
AcDbCircle
 10
1086.1855484025
 20
3497.4746851832
 30
0.0
 40
325.0000000000024
100
AcDbArc
 50
47.7523994473
 51
234.6874479598
  0
LINE
  5
72
330
1F
100
AcDbEntity
  8
1
100
AcDbLine
 10
2761.1855484025
 20
2097.4746851832
 30
0.0
 11
2761.1855484025
 21
2152.4746851832
 31
0.0
  0
LINE
  5
73
330
1F
100
AcDbEntity
  8
1
100
AcDbLine
 10
2311.1855484025
 20
2097.4746851832
 30
0.0
 11
2311.1855484025
 21
2152.4746851832
 31
0.0
  0
LINE
  5
74
330
1F
100
AcDbEntity
  8
1
100
AcDbLine
 10
2761.1855484025
 20
2152.4746851832
 30
0.0
 11
2649.1291183833
 21
2152.4746851832
 31
0.0
  0
LINE
  5
75
330
1F
100
AcDbEntity
  8
1
100
AcDbLine
 10
2423.2419784218
 20
2152.4746851832
 30
0.0
 11
2311.1855484025
 21
2152.4746851832
 31
0.0
  0
LINE
  5
76
330
1F
100
AcDbEntity
  8
1
100
AcDbLine
 10
2397.2561989173
 20
2170.4746851832
 30
0.0
 11
2393.1855484025
 21
2170.4746851832
 31
0.0
  0
LINE
  5
77
330
1F
100
AcDbEntity
  8
1
100
AcDbLine
 10
2393.1855484025
 20
2170.4746851832
 30
0.0
 11
2393.1855484025
 21
2152.4746851832
 31
0.0
  0
LINE
  5
78
330
1F
100
AcDbEntity
  8
1
100
AcDbLine
 10
2679.1855484025
 20
2152.4746851832
 30
0.0
 11
2679.1855484025
 21
2170.4746851832
 31
0.0
  0
LINE
  5
79
330
1F
100
AcDbEntity
  8
1
100
AcDbLine
 10
2679.1855484025
 20
2170.4746851832
 30
0.0
 11
2673.7073648536
 21
2170.4746851832
 31
0.0
  0
LINE
  5
7A
330
1F
100
AcDbEntity
  8
1
100
AcDbLine
 10
336.1855484025
 20
1773.4746851832
 30
0.0
 11
2886.1855484026
 21
1773.4746851832
 31
0.0
  0
LINE
  5
7B
330
1F
100
AcDbEntity
  8
1
100
AcDbLine
 10
2886.1855484026
 20
1767.4746851832
 30
0.0
 11
2886.1855484026
 21
1773.4746851832
 31
0.0
  0
LINE
  5
7C
330
1F
100
AcDbEntity
  8
1
100
AcDbLine
 10
336.1855484025
 20
1767.4746851832
 30
0.0
 11
2886.1855484026
 21
1767.4746851832
 31
0.0
  0
LINE
  5
7D
330
1F
100
AcDbEntity
  8
1
100
AcDbLine
 10
336.1855484025
 20
1767.4746851832
 30
0.0
 11
336.1855484025
 21
1773.4746851832
 31
0.0
  0
LINE
  5
7E
330
1F
100
AcDbEntity
  8
1
100
AcDbLine
 10
2886.1855484026
 20
1836.4746851832
 30
0.0
 11
336.1855484025
 21
1836.4746851832
 31
0.0
  0
LINE
  5
7F
330
1F
100
AcDbEntity
  8
1
100
AcDbLine
 10
336.1855484025
 20
1836.4746851832
 30
0.0
 11
336.1855484025
 21
1842.4746851832
 31
0.0
  0
LINE
  5
80
330
1F
100
AcDbEntity
  8
1
100
AcDbLine
 10
2886.1855484026
 20
1842.4746851832
 30
0.0
 11
336.1855484025
 21
1842.4746851832
 31
0.0
  0
LINE
  5
81
330
1F
100
AcDbEntity
  8
1
100
AcDbLine
 10
2886.1855484026
 20
1836.4746851832
 30
0.0
 11
2886.1855484026
 21
1842.4746851832
 31
0.0
  0
LINE
  5
82
330
1F
100
AcDbEntity
  8
1
100
AcDbLine
 10
2817.1855484026
 20
1773.4746851832
 30
0.0
 11
2817.1855484026
 21
1836.4746851832
 31
0.0
  0
LINE
  5
83
330
1F
100
AcDbEntity
  8
1
100
AcDbLine
 10
405.1855484025
 20
1773.4746851832
 30
0.0
 11
405.1855484025
 21
1836.4746851832
 31
0.0
  0
LINE
  5
84
330
1F
100
AcDbEntity
  8
1
100
AcDbLine
 10
2886.1855484025
 20
2090.9746851832
 30
0.0
 11
336.1855484025
 21
2090.9746851832
 31
0.0
  0
LINE
  5
85
330
1F
100
AcDbEntity
  8
1
100
AcDbLine
 10
336.1855484025
 20
2097.4746851832
 30
0.0
 11
336.1855484025
 21
2090.9746851832
 31
0.0
  0
LINE
  5
86
330
1F
100
AcDbEntity
  8
1
100
AcDbLine
 10
2886.1855484025
 20
2097.4746851832
 30
0.0
 11
336.1855484025
 21
2097.4746851832
 31
0.0
  0
LINE
  5
87
330
1F
100
AcDbEntity
  8
1
100
AcDbLine
 10
2886.1855484025
 20
2097.4746851832
 30
0.0
 11
2886.1855484025
 21
2090.9746851832
 31
0.0
  0
LINE
  5
88
330
1F
100
AcDbEntity
  8
1
100
AcDbLine
 10
2886.1855484025
 20
1953.9746851832
 30
0.0
 11
2886.1855484025
 21
1947.4746851832
 31
0.0
  0
LINE
  5
89
330
1F
100
AcDbEntity
  8
1
100
AcDbLine
 10
2886.1855484025
 20
1947.4746851832
 30
0.0
 11
336.1855484025
 21
1947.4746851832
 31
0.0
  0
LINE
  5
8A
330
1F
100
AcDbEntity
  8
1
100
AcDbLine
 10
336.1855484025
 20
1953.9746851832
 30
0.0
 11
336.1855484025
 21
1947.4746851832
 31
0.0
  0
LINE
  5
8B
330
1F
100
AcDbEntity
  8
1
100
AcDbLine
 10
2886.1855484025
 20
1953.9746851832
 30
0.0
 11
336.1855484025
 21
1953.9746851832
 31
0.0
  0
LINE
  5
8C
330
1F
100
AcDbEntity
  8
1
100
AcDbLine
 10
2817.6855484025
 20
2090.9746851832
 30
0.0
 11
2817.6855484025
 21
1953.9746851832
 31
0.0
  0
LINE
  5
8D
330
1F
100
AcDbEntity
  8
1
100
AcDbLine
 10
404.6855484025
 20
2090.9746851832
 30
0.0
 11
404.6855484025
 21
1953.9746851832
 31
0.0
  0
LINE
  5
8E
330
1F
100
AcDbEntity
  8
1
100
AcDbLine
 10
265.1855484025
 20
3496.4746851832
 30
0.0
 11
261.1855484025
 21
3496.4746851832
 31
0.0
  0
LINE
  5
8F
330
1F
100
AcDbEntity
  8
1
100
AcDbLine
 10
265.1855484025
 20
2110.4746851832
 30
0.0
 11
265.1855484025
 21
3496.4746851832
 31
0.0
  0
LINE
  5
90
330
1F
100
AcDbEntity
  8
1
100
AcDbLine
 10
265.1855484025
 20
2110.4746851832
 30
0.0
 11
261.1855484025
 21
2110.4746851832
 31
0.0
  0
LINE
  5
91
330
1F
100
AcDbEntity
  8
1
100
AcDbLine
 10
261.1855484025
 20
2110.4746851832
 30
0.0
 11
261.1855484025
 21
3496.4746851832
 31
0.0
  0
LINE
  5
92
330
1F
100
AcDbEntity
  8
1
100
AcDbLine
 10
340.8855484025
 20
3445.7746851832
 30
0.0
 11
265.1855484025
 21
3445.7746851832
 31
0.0
  0
LINE
  5
93
330
1F
100
AcDbEntity
  8
1
100
AcDbLine
 10
340.8855484025
 20
3574.4746851832
 30
0.0
 11
340.8855484025
 21
3445.7746851832
 31
0.0
  0
ARC
  5
94
330
1F
100
AcDbEntity
  8
1
100
AcDbCircle
 10
1163.1855484025
 20
3574.4746851832
 30
0.0
 40
822.3000000000002
100
AcDbArc
 50
90.0
 51
180.0
  0
LINE
  5
95
330
1F
100
AcDbEntity
  8
1
100
AcDbLine
 10
1177.1855484025
 20
4396.7746851832
 30
0.0
 11
1163.1855484025
 21
4396.7746851832
 31
0.0
  0
ARC
  5
96
330
1F
100
AcDbEntity
  8
1
100
AcDbCircle
 10
995.1855484025
 20
3406.4746851832
 30
0.0
 40
1172.3
100
AcDbArc
 50
275.2922613159
 51
314.9566259759
  0
ARC
  5
97
330
1F
100
AcDbEntity
  8
1
100
AcDbCircle
 10
995.1855484025
 20
3406.4746851832
 30
0.0
 40
1172.3
100
AcDbArc
 50
340.5131960703
 51
0.0
  0
LINE
  5
98
330
1F
100
AcDbEntity
  8
1
100
AcDbLine
 10
265.1855484025
 20
2161.5353625654
 30
0.0
 11
1103.3139267124
 21
2239.1720064387
 31
0.0
  0
ARC
  5
99
330
1F
100
AcDbEntity
  8
1
100
AcDbCircle
 10
1177.1855484025
 20
3406.4746851832
 30
0.0
 40
990.3000000000002
100
AcDbArc
 50
0.0
 51
90.0
  0
CIRCLE
  5
9A
330
1F
100
AcDbEntity
  8
0
  6
HIDDEN
 62
     7
370
    18
100
AcDbCircle
 10
2536.1855484025
 20
2332.4746851832
 30
0.0
 40
23.99999999999955
  0
ARC
  5
9B
330
1F
100
AcDbEntity
  8
0
  6
HIDDEN
 62
     7
370
    18
100
AcDbCircle
 10
2536.1855484025
 20
2332.4746851832
 30
0.0
 40
195.5
100
AcDbArc
 50
298.9928373896
 51
241.0071626104
  0
LINE
  5
9C
330
1F
100
AcDbEntity
  8
0
  6
HIDDEN
 62
     7
370
    18
100
AcDbLine
 10
2630.9444529973
 20
2161.4746851832
 30
0.0
 11
2441.4266438078
 21
2161.4746851832
 31
0.0
  0
LINE
  5
9D
330
1F
100
AcDbEntity
  8
0
  6
HIDDEN
 62
     7
370
    18
100
AcDbLine
 10
2649.1291183833
 20
2152.4746851832
 30
0.0
 11
2423.2419784218
 21
2152.4746851832
 31
0.0
  0
LINE
  5
9E
330
1F
100
AcDbEntity
  8
0
  6
HIDDEN
 62
     7
370
    18
100
AcDbLine
 10
2426.7494940146
 20
2170.4746851832
 30
0.0
 11
2397.2561989173
 21
2170.4746851832
 31
0.0
  0
LINE
  5
9F
330
1F
100
AcDbEntity
  8
0
  6
HIDDEN
 62
     7
370
    18
100
AcDbLine
 10
2673.7073648536
 20
2170.4746851832
 30
0.0
 11
2645.6216027905
 21
2170.4746851832
 31
0.0
  0
CIRCLE
  5
A0
330
1F
100
AcDbEntity
  8
0
  6
HIDDEN
 62
     7
370
    18
100
AcDbCircle
 10
2536.1855484025
 20
2332.4746851832
 30
0.0
 40
112.4999999999997
  0
CIRCLE
  5
A1
330
1F
100
AcDbEntity
  8
0
  6
HIDDEN
 62
     7
370
    18
100
AcDbCircle
 10
1086.1855484025
 20
3497.4746851832
 30
0.0
 40
225.0000000000007
  0
LINE
  5
A2
330
1F
100
AcDbEntity
  8
0
  6
HIDDEN
 62
     7
370
    18
100
AcDbLine
 10
411.1855484025
 20
1767.4746851832
 30
0.0
 11
411.1855484025
 21
1842.4746851832
 31
0.0
  0
LINE
  5
A3
330
1F
100
AcDbEntity
  8
0
  6
HIDDEN
 62
     7
370
    18
100
AcDbLine
 10
2811.1855484026
 20
1767.4746851832
 30
0.0
 11
2811.1855484026
 21
1842.4746851832
 31
0.0
  0
LINE
  5
A4
330
1F
100
AcDbEntity
  8
0
  6
HIDDEN
 62
     7
370
    18
100
AcDbLine
 10
411.1855484025
 20
2097.4746851832
 30
0.0
 11
411.1855484025
 21
1947.4746851832
 31
0.0
  0
LINE
  5
A5
330
1F
100
AcDbEntity
  8
0
  6
HIDDEN
 62
     7
370
    18
100
AcDbLine
 10
2811.1855484025
 20
2097.4746851832
 30
0.0
 11
2811.1855484025
 21
1947.4746851832
 31
0.0
  0
ARC
  5
A6
330
1F
100
AcDbEntity
  8
0
  6
HIDDEN
 62
     7
370
    18
100
AcDbCircle
 10
995.1855484025
 20
3406.4746851832
 30
0.0
 40
1172.3
100
AcDbArc
 50
314.9566259759
 51
340.5131960703
  0
ARC
  5
A7
330
1F
100
AcDbEntity
  8
0
  6
HIDDEN
 62
     7
370
    18
100
AcDbCircle
 10
1163.1855484025
 20
3574.4746851832
 30
0.0
 40
820.0000000000001
100
AcDbArc
 50
90.0
 51
180.0
  0
LINE
  5
A8
330
1F
100
AcDbEntity
  8
0
  6
HIDDEN
 62
     7
370
    18
100
AcDbLine
 10
343.1855484025
 20
3574.4746851832
 30
0.0
 11
343.1855484025
 21
3443.4746851832
 31
0.0
  0
ARC
  5
A9
330
1F
100
AcDbEntity
  8
0
  6
HIDDEN
 62
     7
370
    18
100
AcDbCircle
 10
995.1855484025
 20
3406.4746851832
 30
0.0
 40
1170.0
100
AcDbArc
 50
275.2922613159
 51
0.0
  0
LINE
  5
AA
330
1F
100
AcDbEntity
  8
0
  6
HIDDEN
 62
     7
370
    18
100
AcDbLine
 10
261.1855484025
 20
2163.4746851832
 30
0.0
 11
1103.1017836857
 21
2241.4622019186
 31
0.0
  0
LINE
  5
AB
330
1F
100
AcDbEntity
  8
0
  6
HIDDEN
 62
     7
370
    18
100
AcDbLine
 10
343.1855484025
 20
3443.4746851832
 30
0.0
 11
261.1855484025
 21
3443.4746851832
 31
0.0
  0
ARC
  5
AC
330
1F
100
AcDbEntity
  8
0
  6
HIDDEN
 62
     7
370
    18
100
AcDbCircle
 10
1177.1855484025
 20
3406.4746851832
 30
0.0
 40
988.0
100
AcDbArc
 50
0.0
 51
90.0
  0
LINE
  5
AD
330
1F
100
AcDbEntity
  8
0
  6
HIDDEN
 62
     7
370
    18
100
AcDbLine
 10
1177.1855484025
 20
4394.4746851832
 30
0.0
 11
1163.1855484025
 21
4394.4746851832
 31
0.0
  0
CIRCLE
  5
AE
330
1F
100
AcDbEntity
  8
0
  6
HIDDEN
 62
     7
370
    18
100
AcDbCircle
 10
1086.1855484025
 20
3497.4746851832
 30
0.0
 40
624.9999999999998
  0
CIRCLE
  5
AF
330
1F
100
AcDbEntity
  8
0
  6
HIDDEN
 62
     7
370
    18
100
AcDbCircle
 10
1086.1855484025
 20
3497.4746851832
 30
0.0
 40
675.0000000000001
  0
CIRCLE
  5
B0
330
1F
100
AcDbEntity
  8
0
  6
HIDDEN
 62
     7
370
    18
100
AcDbCircle
 10
1086.1855484025
 20
3497.4746851832
 30
0.0
 40
627.3
  0
CIRCLE
  5
B1
330
1F
100
AcDbEntity
  8
0
  6
HIDDEN
 62
     7
370
    18
100
AcDbCircle
 10
787.6867948238
 20
2911.6378955294
 30
0.0
 40
5.999999999999886
  0
CIRCLE
  5
B2
330
1F
100
AcDbEntity
  8
0
  6
HIDDEN
 62
     7
370
    18
100
AcDbCircle
 10
621.2628397724
 20
3032.551976553
 30
0.0
 40
6.0
  0
CIRCLE
  5
B3
330
1F
100
AcDbEntity
  8
0
  6
HIDDEN
 62
     7
370
    18
100
AcDbCircle
 10
500.3487587487
 20
3198.9759316045
 30
0.0
 40
6.000000000000114
  0
CIRCLE
  5
B4
330
1F
100
AcDbEntity
  8
0
  6
HIDDEN
 62
     7
370
    18
100
AcDbCircle
 10
436.7804644612
 20
3394.6190244193
 30
0.0
 40
6.000000000000114
  0
CIRCLE
  5
B5
330
1F
100
AcDbEntity
  8
0
  6
HIDDEN
 62
     7
370
    18
100
AcDbCircle
 10
500.3487587487
 20
3795.973438762
 30
0.0
 40
6.000000000000114
  0
CIRCLE
  5
B6
330
1F
100
AcDbEntity
  8
0
  6
HIDDEN
 62
     7
370
    18
100
AcDbCircle
 10
621.2628397724
 20
3962.3973938134
 30
0.0
 40
5.999999999999886
  0
CIRCLE
  5
B7
330
1F
100
AcDbEntity
  8
0
  6
HIDDEN
 62
     7
370
    18
100
AcDbCircle
 10
787.6867948238
 20
4083.3114748371
 30
0.0
 40
6.0
  0
CIRCLE
  5
B8
330
1F
100
AcDbEntity
  8
0
  6
HIDDEN
 62
     7
370
    18
100
AcDbCircle
 10
983.3298876386
 20
4146.8797691245
 30
0.0
 40
6.000000000000114
  0
CIRCLE
  5
B9
330
1F
100
AcDbEntity
  8
0
  6
HIDDEN
 62
     7
370
    18
100
AcDbCircle
 10
1189.0412091665
 20
4146.8797691245
 30
0.0
 40
6.0
  0
CIRCLE
  5
BA
330
1F
100
AcDbEntity
  8
0
  6
HIDDEN
 62
     7
370
    18
100
AcDbCircle
 10
1384.6843019813
 20
4083.3114748371
 30
0.0
 40
6.000000000000227
  0
CIRCLE
  5
BB
330
1F
100
AcDbEntity
  8
0
  6
HIDDEN
 62
     7
370
    18
100
AcDbCircle
 10
1551.1082570327
 20
3962.3973938134
 30
0.0
 40
6.0
  0
CIRCLE
  5
BC
330
1F
100
AcDbEntity
  8
0
  6
HIDDEN
 62
     7
370
    18
100
AcDbCircle
 10
1672.0223380564
 20
3795.973438762
 30
0.0
 40
6.000000000000227
  0
CIRCLE
  5
BD
330
1F
100
AcDbEntity
  8
0
  6
HIDDEN
 62
     7
370
    18
100
AcDbCircle
 10
1735.5906323438
 20
3600.3303459472
 30
0.0
 40
6.0
  0
CIRCLE
  5
BE
330
1F
100
AcDbEntity
  8
0
  6
HIDDEN
 62
     7
370
    18
100
AcDbCircle
 10
1735.5906323438
 20
3394.6190244193
 30
0.0
 40
6.0
  0
CIRCLE
  5
BF
330
1F
100
AcDbEntity
  8
0
  6
HIDDEN
 62
     7
370
    18
100
AcDbCircle
 10
1672.0223380564
 20
3198.9759316045
 30
0.0
 40
5.999999999999773
  0
CIRCLE
  5
C0
330
1F
100
AcDbEntity
  8
0
  6
HIDDEN
 62
     7
370
    18
100
AcDbCircle
 10
1551.1082570327
 20
3032.551976553
 30
0.0
 40
5.999999999999773
  0
CIRCLE
  5
C1
330
1F
100
AcDbEntity
  8
0
  6
HIDDEN
 62
     7
370
    18
100
AcDbCircle
 10
1384.6843019813
 20
2911.6378955294
 30
0.0
 40
6.0
  0
CIRCLE
  5
C2
330
1F
100
AcDbEntity
  8
0
  6
HIDDEN
 62
     7
370
    18
100
AcDbCircle
 10
1189.0412091665
 20
2848.0696012419
 30
0.0
 40
6.0
  0
CIRCLE
  5
C3
330
1F
100
AcDbEntity
  8
0
  6
HIDDEN
 62
     7
370
    18
100
AcDbCircle
 10
983.3298876386
 20
2848.0696012419
 30
0.0
 40
5.999999999999886
  0
CIRCLE
  5
C4
330
1F
100
AcDbEntity
  8
0
  6
HIDDEN
 62
     7
370
    18
100
AcDbCircle
 10
436.7804644612
 20
3600.3303459472
 30
0.0
 40
6.000000000000114
  0
LINE
  5
C5
330
1F
100
AcDbEntity
  8
0
  6
HIDDEN
 62
     7
370
    18
100
AcDbLine
 10
2778.1855484025
 20
1767.4746851832
 30
0.0
 11
2778.1855484025
 21
1773.4746851832
 31
0.0
  0
LINE
  5
C6
330
1F
100
AcDbEntity
  8
0
  6
HIDDEN
 62
     7
370
    18
100
AcDbLine
 10
2754.1855484025
 20
1773.4746851832
 30
0.0
 11
2754.1855484025
 21
1767.4746851832
 31
0.0
  0
LINE
  5
C7
330
1F
100
AcDbEntity
  8
0
  6
HIDDEN
 62
     7
370
    18
100
AcDbLine
 10
2008.1855484025
 20
1767.4746851832
 30
0.0
 11
2008.1855484025
 21
1773.4746851832
 31
0.0
  0
LINE
  5
C8
330
1F
100
AcDbEntity
  8
0
  6
HIDDEN
 62
     7
370
    18
100
AcDbLine
 10
1984.1855484025
 20
1773.4746851832
 30
0.0
 11
1984.1855484025
 21
1767.4746851832
 31
0.0
  0
LINE
  5
C9
330
1F
100
AcDbEntity
  8
0
  6
HIDDEN
 62
     7
370
    18
100
AcDbLine
 10
1238.1855484025
 20
1767.4746851832
 30
0.0
 11
1238.1855484025
 21
1773.4746851832
 31
0.0
  0
LINE
  5
CA
330
1F
100
AcDbEntity
  8
0
  6
HIDDEN
 62
     7
370
    18
100
AcDbLine
 10
1214.1855484025
 20
1773.4746851832
 30
0.0
 11
1214.1855484025
 21
1767.4746851832
 31
0.0
  0
LINE
  5
CB
330
1F
100
AcDbEntity
  8
0
  6
HIDDEN
 62
     7
370
    18
100
AcDbLine
 10
468.1855484025
 20
1767.4746851832
 30
0.0
 11
468.1855484025
 21
1773.4746851832
 31
0.0
  0
LINE
  5
CC
330
1F
100
AcDbEntity
  8
0
  6
HIDDEN
 62
     7
370
    18
100
AcDbLine
 10
444.1855484025
 20
1773.4746851832
 30
0.0
 11
444.1855484025
 21
1767.4746851832
 31
0.0
  0
LINE
  5
CD
330
1F
100
AcDbEntity
  8
0
  6
HIDDEN
 62
     7
370
    18
100
AcDbLine
 10
261.1855484025
 20
2697.4746851832
 30
0.0
 11
265.1855484025
 21
2697.4746851832
 31
0.0
  0
LINE
  5
CE
330
1F
100
AcDbEntity
  8
0
  6
HIDDEN
 62
     7
370
    18
100
AcDbLine
 10
265.1855484025
 20
2709.4746851832
 30
0.0
 11
261.1855484025
 21
2709.4746851832
 31
0.0
  0
LINE
  5
CF
330
1F
100
AcDbEntity
  8
0
  6
HIDDEN
 62
     7
370
    18
100
AcDbLine
 10
261.1855484025
 20
2897.4746851832
 30
0.0
 11
265.1855484025
 21
2897.4746851832
 31
0.0
  0
LINE
  5
D0
330
1F
100
AcDbEntity
  8
0
  6
HIDDEN
 62
     7
370
    18
100
AcDbLine
 10
265.1855484025
 20
2909.4746851832
 30
0.0
 11
261.1855484025
 21
2909.4746851832
 31
0.0
  0
LINE
  5
D1
330
1F
100
AcDbEntity
  8
0
  6
HIDDEN
 62
     7
370
    18
100
AcDbLine
 10
261.1855484025
 20
3297.4746851832
 30
0.0
 11
265.1855484025
 21
3297.4746851832
 31
0.0
  0
LINE
  5
D2
330
1F
100
AcDbEntity
  8
0
  6
HIDDEN
 62
     7
370
    18
100
AcDbLine
 10
265.1855484025
 20
3309.4746851832
 30
0.0
 11
261.1855484025
 21
3309.4746851832
 31
0.0
  0
LINE
  5
D3
330
1F
100
AcDbEntity
  8
0
  6
HIDDEN
 62
     7
370
    18
100
AcDbLine
 10
261.1855484025
 20
2124.4746851832
 30
0.0
 11
265.1855484025
 21
2124.4746851832
 31
0.0
  0
LINE
  5
D4
330
1F
100
AcDbEntity
  8
0
  6
HIDDEN
 62
     7
370
    18
100
AcDbLine
 10
265.1855484025
 20
2136.4746851832
 30
0.0
 11
261.1855484025
 21
2136.4746851832
 31
0.0
  0
LINE
  5
D5
330
1F
100
AcDbEntity
  8
0
  6
HIDDEN
 62
     7
370
    18
100
AcDbLine
 10
261.1855484025
 20
3470.4746851832
 30
0.0
 11
265.1855484025
 21
3470.4746851832
 31
0.0
  0
LINE
  5
D6
330
1F
100
AcDbEntity
  8
0
  6
HIDDEN
 62
     7
370
    18
100
AcDbLine
 10
265.1855484025
 20
3482.4746851832
 30
0.0
 11
261.1855484025
 21
3482.4746851832
 31
0.0
  0
LINE
  5
D7
330
1F
100
AcDbEntity
  8
0
  6
HIDDEN
 62
     7
370
    18
100
AcDbLine
 10
261.1855484025
 20
2297.4746851832
 30
0.0
 11
265.1855484025
 21
2297.4746851832
 31
0.0
  0
LINE
  5
D8
330
1F
100
AcDbEntity
  8
0
  6
HIDDEN
 62
     7
370
    18
100
AcDbLine
 10
265.1855484025
 20
2309.4746851832
 30
0.0
 11
261.1855484025
 21
2309.4746851832
 31
0.0
  0
LINE
  5
D9
330
1F
100
AcDbEntity
  8
0
  6
HIDDEN
 62
     7
370
    18
100
AcDbLine
 10
261.1855484025
 20
2497.4746851832
 30
0.0
 11
265.1855484025
 21
2497.4746851832
 31
0.0
  0
LINE
  5
DA
330
1F
100
AcDbEntity
  8
0
  6
HIDDEN
 62
     7
370
    18
100
AcDbLine
 10
265.1855484025
 20
2509.4746851832
 30
0.0
 11
261.1855484025
 21
2509.4746851832
 31
0.0
  0
LINE
  5
DB
330
1F
100
AcDbEntity
  8
0
  6
HIDDEN
 62
     7
370
    18
100
AcDbLine
 10
261.1855484025
 20
3097.4746851832
 30
0.0
 11
265.1855484025
 21
3097.4746851832
 31
0.0
  0
LINE
  5
DC
330
1F
100
AcDbEntity
  8
0
  6
HIDDEN
 62
     7
370
    18
100
AcDbLine
 10
265.1855484025
 20
3109.4746851832
 30
0.0
 11
261.1855484025
 21
3109.4746851832
 31
0.0
  0
INSERT
  5
E8
330
1F
100
AcDbEntity
  8
2
100
AcDbBlockReference
  2
SW_CENTERMARKSYMBOL_0
 10
1086.1855484025
 20
3497.4746851832
 30
0.0
  0
LINE
  5
E9
330
1F
100
AcDbEntity
  8
1
100
AcDbLine
 10
3210.7613006087
 20
2119.9746851832
 30
0.0
 11
3370.7613006087
 21
2119.9746851832
 31
0.0
  0
LINE
  5
EA
330
1F
100
AcDbEntity
  8
1
100
AcDbLine
 10
3370.7613006087
 20
3822.4746851832
 30
0.0
 11
3210.7613006087
 21
3822.4746851832
 31
0.0
  0
LINE
  5
EB
330
1F
100
AcDbEntity
  8
1
100
AcDbLine
 10
3993.2613006087
 20
2527.9746851832
 30
0.0
 11
3438.2613006087
 21
2527.9746851832
 31
0.0
  0
LINE
  5
EC
330
1F
100
AcDbEntity
  8
1
100
AcDbLine
 10
3370.7613006087
 20
2308.4746851832
 30
0.0
 11
3438.2613006087
 21
2308.4746851832
 31
0.0
  0
LINE
  5
ED
330
1F
100
AcDbEntity
  8
1
100
AcDbLine
 10
3438.2613006087
 20
2356.4746851832
 30
0.0
 11
3370.7613006087
 21
2356.4746851832
 31
0.0
  0
LINE
  5
EE
330
1F
100
AcDbEntity
  8
1
100
AcDbLine
 10
4628.7613006087
 20
1947.4746851832
 30
0.0
 11
4628.7613006087
 21
1842.4746851832
 31
0.0
  0
LINE
  5
EF
330
1F
100
AcDbEntity
  8
1
100
AcDbLine
 10
4663.7613006087
 20
1842.4746851832
 30
0.0
 11
4663.7613006087
 21
1947.4746851832
 31
0.0
  0
LINE
  5
F0
330
1F
100
AcDbEntity
  8
1
100
AcDbLine
 10
3423.7613006087
 20
1947.4746851832
 30
0.0
 11
3423.7613006087
 21
1842.4746851832
 31
0.0
  0
LINE
  5
F1
330
1F
100
AcDbEntity
  8
1
100
AcDbLine
 10
3458.7613006087
 20
1842.4746851832
 30
0.0
 11
3458.7613006087
 21
1947.4746851832
 31
0.0
  0
LINE
  5
F2
330
1F
100
AcDbEntity
  8
1
100
AcDbLine
 10
4708.7613006087
 20
4172.4746851832
 30
0.0
 11
4706.4613006087
 21
4172.4746851832
 31
0.0
  0
LINE
  5
F3
330
1F
100
AcDbEntity
  8
1
100
AcDbLine
 10
4706.4613006087
 20
2822.4746851832
 30
0.0
 11
4708.7613006087
 21
2822.4746851832
 31
0.0
  0
LINE
  5
F4
330
1F
100
AcDbEntity
  8
1
100
AcDbLine
 10
4608.9613006087
 20
2822.4746851832
 30
0.0
 11
4615.7613006087
 21
2822.4746851832
 31
0.0
  0
LINE
  5
F5
330
1F
100
AcDbEntity
  8
1
100
AcDbLine
 10
4615.7613006087
 20
4172.4746851832
 30
0.0
 11
4608.9613006087
 21
4172.4746851832
 31
0.0
  0
LINE
  5
F6
330
1F
100
AcDbEntity
  8
1
100
AcDbLine
 10
4706.4613006087
 20
4124.7746851832
 30
0.0
 11
4615.7613006087
 21
4124.7746851832
 31
0.0
  0
LINE
  5
F7
330
1F
100
AcDbEntity
  8
1
100
AcDbLine
 10
4615.7613006087
 20
2870.1746851832
 30
0.0
 11
4706.4613006087
 21
2870.1746851832
 31
0.0
  0
LINE
  5
F8
330
1F
100
AcDbEntity
  8
1
100
AcDbLine
 10
3210.7613006087
 20
2119.9746851832
 30
0.0
 11
3210.7613006087
 21
2489.7770206155
 31
0.0
  0
LINE
  5
F9
330
1F
100
AcDbEntity
  8
1
100
AcDbLine
 10
3370.7613006087
 20
2119.9746851832
 30
0.0
 11
3370.7613006087
 21
2489.7770206155
 31
0.0
  0
LINE
  5
FA
330
1F
100
AcDbEntity
  8
1
100
AcDbLine
 10
3210.7613006087
 20
2489.7770206155
 30
0.0
 11
3210.7613006087
 21
3738.054727609
 31
0.0
  0
LINE
  5
FB
330
1F
100
AcDbEntity
  8
1
100
AcDbLine
 10
3370.7613006087
 20
2489.7770206155
 30
0.0
 11
3370.7613006087
 21
3738.054727609
 31
0.0
  0
LINE
  5
FC
330
1F
100
AcDbEntity
  8
1
100
AcDbLine
 10
3210.7613006087
 20
3738.054727609
 30
0.0
 11
3210.7613006087
 21
3822.4746851832
 31
0.0
  0
LINE
  5
FD
330
1F
100
AcDbEntity
  8
1
100
AcDbLine
 10
3370.7613006087
 20
3738.054727609
 30
0.0
 11
3370.7613006087
 21
3822.4746851832
 31
0.0
  0
LINE
  5
FE
330
1F
100
AcDbEntity
  8
1
100
AcDbLine
 10
3474.7613006087
 20
2097.4746851832
 30
0.0
 11
3474.7613006087
 21
2152.4746851832
 31
0.0
  0
LINE
  5
FF
330
1F
100
AcDbEntity
  8
1
100
AcDbLine
 10
3884.7613006087
 20
2152.4746851832
 30
0.0
 11
3474.7613006087
 21
2152.4746851832
 31
0.0
  0
LINE
  5
100
330
1F
100
AcDbEntity
  8
1
100
AcDbLine
 10
3884.7613006087
 20
2097.4746851832
 30
0.0
 11
3884.7613006087
 21
2152.4746851832
 31
0.0
  0
LINE
  5
101
330
1F
100
AcDbEntity
  8
1
100
AcDbLine
 10
3993.2613006087
 20
2161.4746851832
 30
0.0
 11
3993.2613006087
 21
2527.9746851832
 31
0.0
  0
LINE
  5
102
330
1F
100
AcDbEntity
  8
1
100
AcDbLine
 10
3993.2613006087
 20
2161.4746851832
 30
0.0
 11
3841.7613006087
 21
2161.4746851832
 31
0.0
  0
LINE
  5
103
330
1F
100
AcDbEntity
  8
1
100
AcDbLine
 10
3517.7613006087
 20
2161.4746851832
 30
0.0
 11
3438.2613006087
 21
2161.4746851832
 31
0.0
  0
LINE
  5
104
330
1F
100
AcDbEntity
  8
1
100
AcDbLine
 10
3438.2613006087
 20
2527.9746851832
 30
0.0
 11
3438.2613006087
 21
2161.4746851832
 31
0.0
  0
LINE
  5
105
330
1F
100
AcDbEntity
  8
1
100
AcDbLine
 10
3517.7613006087
 20
2152.4746851832
 30
0.0
 11
3517.7613006087
 21
2170.4746851832
 31
0.0
  0
LINE
  5
106
330
1F
100
AcDbEntity
  8
1
100
AcDbLine
 10
3517.7613006087
 20
2170.4746851832
 30
0.0
 11
3841.7613006087
 21
2170.4746851832
 31
0.0
  0
LINE
  5
107
330
1F
100
AcDbEntity
  8
1
100
AcDbLine
 10
3841.7613006087
 20
2152.4746851832
 30
0.0
 11
3841.7613006087
 21
2170.4746851832
 31
0.0
  0
LINE
  5
108
330
1F
100
AcDbEntity
  8
1
100
AcDbLine
 10
3403.7613006087
 20
1773.4746851832
 30
0.0
 11
4683.7613006087
 21
1773.4746851832
 31
0.0
  0
LINE
  5
109
330
1F
100
AcDbEntity
  8
1
100
AcDbLine
 10
4683.7613006087
 20
1767.4746851832
 30
0.0
 11
4683.7613006087
 21
1773.4746851832
 31
0.0
  0
LINE
  5
10A
330
1F
100
AcDbEntity
  8
1
100
AcDbLine
 10
3403.7613006087
 20
1767.4746851832
 30
0.0
 11
3403.7613006087
 21
1773.4746851832
 31
0.0
  0
LINE
  5
10B
330
1F
100
AcDbEntity
  8
1
100
AcDbLine
 10
3403.7613006087
 20
1767.4746851832
 30
0.0
 11
4683.7613006087
 21
1767.4746851832
 31
0.0
  0
LINE
  5
10C
330
1F
100
AcDbEntity
  8
1
100
AcDbLine
 10
4683.7613006087
 20
1836.4746851832
 30
0.0
 11
3403.7613006087
 21
1836.4746851832
 31
0.0
  0
LINE
  5
10D
330
1F
100
AcDbEntity
  8
1
100
AcDbLine
 10
3403.7613006087
 20
1836.4746851832
 30
0.0
 11
3403.7613006087
 21
1842.4746851832
 31
0.0
  0
LINE
  5
10E
330
1F
100
AcDbEntity
  8
1
100
AcDbLine
 10
4683.7613006087
 20
1836.4746851832
 30
0.0
 11
4683.7613006087
 21
1842.4746851832
 31
0.0
  0
LINE
  5
10F
330
1F
100
AcDbEntity
  8
1
100
AcDbLine
 10
4683.7613006087
 20
1842.4746851832
 30
0.0
 11
3403.7613006087
 21
1842.4746851832
 31
0.0
  0
LINE
  5
110
330
1F
100
AcDbEntity
  8
1
100
AcDbLine
 10
3472.7613006087
 20
1773.4746851832
 30
0.0
 11
3472.7613006087
 21
1836.4746851832
 31
0.0
  0
LINE
  5
111
330
1F
100
AcDbEntity
  8
1
100
AcDbLine
 10
4614.7613006087
 20
1773.4746851832
 30
0.0
 11
4614.7613006087
 21
1836.4746851832
 31
0.0
  0
LINE
  5
112
330
1F
100
AcDbEntity
  8
1
100
AcDbLine
 10
3403.7613006087
 20
2097.4746851832
 30
0.0
 11
3403.7613006087
 21
2090.9746851832
 31
0.0
  0
LINE
  5
113
330
1F
100
AcDbEntity
  8
1
100
AcDbLine
 10
4683.7613006087
 20
2097.4746851832
 30
0.0
 11
3403.7613006087
 21
2097.4746851832
 31
0.0
  0
LINE
  5
114
330
1F
100
AcDbEntity
  8
1
100
AcDbLine
 10
4683.7613006087
 20
2097.4746851832
 30
0.0
 11
4683.7613006087
 21
2090.9746851832
 31
0.0
  0
LINE
  5
115
330
1F
100
AcDbEntity
  8
1
100
AcDbLine
 10
4683.7613006087
 20
2090.9746851832
 30
0.0
 11
3403.7613006087
 21
2090.9746851832
 31
0.0
  0
LINE
  5
116
330
1F
100
AcDbEntity
  8
1
100
AcDbLine
 10
4683.7613006087
 20
1953.9746851832
 30
0.0
 11
4683.7613006087
 21
1947.4746851832
 31
0.0
  0
LINE
  5
117
330
1F
100
AcDbEntity
  8
1
100
AcDbLine
 10
3403.7613006087
 20
1953.9746851832
 30
0.0
 11
3403.7613006087
 21
1947.4746851832
 31
0.0
  0
LINE
  5
118
330
1F
100
AcDbEntity
  8
1
100
AcDbLine
 10
4683.7613006087
 20
1953.9746851832
 30
0.0
 11
3403.7613006087
 21
1953.9746851832
 31
0.0
  0
LINE
  5
119
330
1F
100
AcDbEntity
  8
1
100
AcDbLine
 10
4683.7613006087
 20
1947.4746851832
 30
0.0
 11
3403.7613006087
 21
1947.4746851832
 31
0.0
  0
LINE
  5
11A
330
1F
100
AcDbEntity
  8
1
100
AcDbLine
 10
3472.2613006087
 20
2090.9746851832
 30
0.0
 11
3472.2613006087
 21
1953.9746851832
 31
0.0
  0
LINE
  5
11B
330
1F
100
AcDbEntity
  8
1
100
AcDbLine
 10
4615.2613006087
 20
2090.9746851832
 30
0.0
 11
4615.2613006087
 21
1953.9746851832
 31
0.0
  0
LINE
  5
11C
330
1F
100
AcDbEntity
  8
1
100
AcDbLine
 10
3652.5613006087
 20
2527.9746851832
 30
0.0
 11
3652.5613006087
 21
3406.4746851832
 31
0.0
  0
LINE
  5
11D
330
1F
100
AcDbEntity
  8
1
100
AcDbLine
 10
4608.9613006087
 20
2239.1720064387
 30
0.0
 11
4608.9613006087
 21
3406.4746851832
 31
0.0
  0
LINE
  5
11E
330
1F
100
AcDbEntity
  8
1
100
AcDbLine
 10
3652.5613006087
 20
3406.4746851832
 30
0.0
 11
3652.5613006087
 21
4396.7746851832
 31
0.0
  0
LINE
  5
11F
330
1F
100
AcDbEntity
  8
1
100
AcDbLine
 10
3652.5613006087
 20
4396.7746851832
 30
0.0
 11
4608.9613006087
 21
4396.7746851832
 31
0.0
  0
LINE
  5
120
330
1F
100
AcDbEntity
  8
1
100
AcDbLine
 10
4608.9613006087
 20
3406.4746851832
 30
0.0
 11
4608.9613006087
 21
4396.7746851832
 31
0.0
  0
LINE
  5
121
330
1F
100
AcDbEntity
  8
1
100
AcDbLine
 10
4706.4613006087
 20
3497.4746851832
 30
0.0
 11
4706.4613006087
 21
2822.4746851832
 31
0.0
  0
LINE
  5
122
330
1F
100
AcDbEntity
  8
1
100
AcDbLine
 10
4706.4613006087
 20
4172.4746851832
 30
0.0
 11
4706.4613006087
 21
3497.4746851832
 31
0.0
  0
LINE
  5
123
330
1F
100
AcDbEntity
  8
1
100
AcDbLine
 10
4708.7613006087
 20
3497.4746851832
 30
0.0
 11
4708.7613006087
 21
2822.4746851832
 31
0.0
  0
LINE
  5
124
330
1F
100
AcDbEntity
  8
1
100
AcDbLine
 10
4708.7613006087
 20
4172.4746851832
 30
0.0
 11
4708.7613006087
 21
3497.4746851832
 31
0.0
  0
LINE
  5
125
330
1F
100
AcDbEntity
  8
1
100
AcDbLine
 10
4615.7613006087
 20
2822.4746851832
 30
0.0
 11
4615.7613006087
 21
4172.4746851832
 31
0.0
  0
LINE
  5
126
330
1F
100
AcDbEntity
  8
1
100
AcDbLine
 10
4608.9613006087
 20
2161.5353625654
 30
0.0
 11
3993.2613006087
 21
2161.5353625654
 31
0.0
  0
LINE
  5
127
330
1F
100
AcDbEntity
  8
1
100
AcDbLine
 10
4608.9613006087
 20
2161.5353625654
 30
0.0
 11
4608.9613006087
 21
2239.1720064387
 31
0.0
  0
LINE
  5
128
330
1F
100
AcDbEntity
  8
1
100
AcDbLine
 10
4658.7613006087
 20
2110.4746851832
 30
0.0
 11
3884.7613006087
 21
2110.4746851832
 31
0.0
  0
LINE
  5
129
330
1F
100
AcDbEntity
  8
1
100
AcDbLine
 10
3602.7613006087
 20
2527.9746851832
 30
0.0
 11
3602.7613006087
 21
3496.4746851832
 31
0.0
  0
CIRCLE
  5
12A
330
1F
100
AcDbEntity
  8
1
100
AcDbCircle
 10
3622.7613006087
 20
3476.4746851832
 30
0.0
 40
6.000000000000455
  0
CIRCLE
  5
12B
330
1F
100
AcDbEntity
  8
1
100
AcDbCircle
 10
3622.7613006087
 20
3303.4746851832
 30
0.0
 40
6.000000000000455
  0
CIRCLE
  5
12C
330
1F
100
AcDbEntity
  8
1
100
AcDbCircle
 10
3622.7613006087
 20
3103.4746851832
 30
0.0
 40
6.000000000000455
  0
CIRCLE
  5
12D
330
1F
100
AcDbEntity
  8
1
100
AcDbCircle
 10
3622.7613006087
 20
2903.4746851832
 30
0.0
 40
6.000000000000455
  0
CIRCLE
  5
12E
330
1F
100
AcDbEntity
  8
1
100
AcDbCircle
 10
4638.7613006087
 20
2130.4746851832
 30
0.0
 40
6.000000000000909
  0
CIRCLE
  5
12F
330
1F
100
AcDbEntity
  8
1
100
AcDbCircle
 10
4530.7613006087
 20
2130.4746851832
 30
0.0
 40
6.0
  0
CIRCLE
  5
130
330
1F
100
AcDbEntity
  8
1
100
AcDbCircle
 10
4330.7613006087
 20
2130.4746851832
 30
0.0
 40
6.0
  0
CIRCLE
  5
131
330
1F
100
AcDbEntity
  8
1
100
AcDbCircle
 10
4638.7613006087
 20
2303.4746851832
 30
0.0
 40
6.000000000000909
  0
CIRCLE
  5
132
330
1F
100
AcDbEntity
  8
1
100
AcDbCircle
 10
4638.7613006087
 20
2503.4746851832
 30
0.0
 40
6.000000000000909
  0
CIRCLE
  5
133
330
1F
100
AcDbEntity
  8
1
100
AcDbCircle
 10
4638.7613006087
 20
2703.4746851832
 30
0.0
 40
6.000000000000909
  0
CIRCLE
  5
134
330
1F
100
AcDbEntity
  8
1
100
AcDbCircle
 10
3622.7613006087
 20
2703.4746851832
 30
0.0
 40
6.000000000000455
  0
CIRCLE
  5
135
330
1F
100
AcDbEntity
  8
1
100
AcDbCircle
 10
4130.7613006087
 20
2130.4746851832
 30
0.0
 40
6.000000000000909
  0
CIRCLE
  5
136
330
1F
100
AcDbEntity
  8
1
100
AcDbCircle
 10
3930.7613006087
 20
2130.4746851832
 30
0.0
 40
6.000000000000455
  0
LINE
  5
137
330
1F
100
AcDbEntity
  8
1
100
AcDbLine
 10
4658.7613006087
 20
2870.1746851832
 30
0.0
 11
4658.7613006087
 21
2110.4746851832
 31
0.0
  0
LINE
  5
138
330
1F
100
AcDbEntity
  8
1
100
AcDbLine
 10
3602.7613006087
 20
3496.4746851832
 30
0.0
 11
3652.5613006087
 21
3496.4746851832
 31
0.0
  0
LINE
  5
139
330
1F
100
AcDbEntity
  8
0
  6
HIDDEN
 62
     7
370
    18
100
AcDbLine
 10
3253.2613006087
 20
2227.6283410684
 30
0.0
 11
3253.2613006087
 21
2219.9746851832
 31
0.0
  0
LINE
  5
13A
330
1F
100
AcDbEntity
  8
0
  6
HIDDEN
 62
     7
370
    18
100
AcDbLine
 10
3253.2613006087
 20
2444.9746851832
 30
0.0
 11
3253.2613006087
 21
2227.6283410684
 31
0.0
  0
LINE
  5
13B
330
1F
100
AcDbEntity
  8
0
  6
HIDDEN
 62
     7
370
    18
100
AcDbLine
 10
3328.2613006087
 20
2227.6283410684
 30
0.0
 11
3328.2613006087
 21
2219.9746851832
 31
0.0
  0
LINE
  5
13C
330
1F
100
AcDbEntity
  8
0
  6
HIDDEN
 62
     7
370
    18
100
AcDbLine
 10
3328.2613006087
 20
2444.9746851832
 30
0.0
 11
3328.2613006087
 21
2227.6283410684
 31
0.0
  0
LINE
  5
13D
330
1F
100
AcDbEntity
  8
0
  6
HIDDEN
 62
     7
370
    18
100
AcDbLine
 10
3253.2613006087
 20
3720.883296419
 30
0.0
 11
3253.2613006087
 21
3272.4746851832
 31
0.0
  0
LINE
  5
13E
330
1F
100
AcDbEntity
  8
0
  6
HIDDEN
 62
     7
370
    18
100
AcDbLine
 10
3253.2613006087
 20
3722.4746851832
 30
0.0
 11
3253.2613006087
 21
3720.883296419
 31
0.0
  0
LINE
  5
13F
330
1F
100
AcDbEntity
  8
0
  6
HIDDEN
 62
     7
370
    18
100
AcDbLine
 10
3328.2613006087
 20
3720.883296419
 30
0.0
 11
3328.2613006087
 21
3272.4746851832
 31
0.0
  0
LINE
  5
140
330
1F
100
AcDbEntity
  8
0
  6
HIDDEN
 62
     7
370
    18
100
AcDbLine
 10
3328.2613006087
 20
3722.4746851832
 30
0.0
 11
3328.2613006087
 21
3720.883296419
 31
0.0
  0
LINE
  5
141
330
1F
100
AcDbEntity
  8
0
  6
HIDDEN
 62
     7
370
    18
100
AcDbLine
 10
4608.7613006087
 20
1767.4746851832
 30
0.0
 11
4608.7613006087
 21
1842.4746851832
 31
0.0
  0
LINE
  5
142
330
1F
100
AcDbEntity
  8
0
  6
HIDDEN
 62
     7
370
    18
100
AcDbLine
 10
3478.7613006087
 20
1767.4746851832
 30
0.0
 11
3478.7613006087
 21
1842.4746851832
 31
0.0
  0
LINE
  5
143
330
1F
100
AcDbEntity
  8
0
  6
HIDDEN
 62
     7
370
    18
100
AcDbLine
 10
4608.7613006087
 20
2097.4746851832
 30
0.0
 11
4608.7613006087
 21
1947.4746851832
 31
0.0
  0
LINE
  5
144
330
1F
100
AcDbEntity
  8
0
  6
HIDDEN
 62
     7
370
    18
100
AcDbLine
 10
3478.7613006087
 20
2097.4746851832
 30
0.0
 11
3478.7613006087
 21
1947.4746851832
 31
0.0
  0
LINE
  5
145
330
1F
100
AcDbEntity
  8
0
  6
HIDDEN
 62
     7
370
    18
100
AcDbLine
 10
3652.5613006087
 20
2239.1720064387
 30
0.0
 11
3652.5613006087
 21
2527.9746851832
 31
0.0
  0
LINE
  5
146
330
1F
100
AcDbEntity
  8
0
  6
HIDDEN
 62
     7
370
    18
100
AcDbLine
 10
4605.7613006087
 20
2241.4622019186
 30
0.0
 11
4605.7613006087
 21
3406.4746851832
 31
0.0
  0
LINE
  5
147
330
1F
100
AcDbEntity
  8
0
  6
HIDDEN
 62
     7
370
    18
100
AcDbLine
 10
3655.7613006087
 20
4394.4746851832
 30
0.0
 11
4605.7613006087
 21
4394.4746851832
 31
0.0
  0
LINE
  5
148
330
1F
100
AcDbEntity
  8
0
  6
HIDDEN
 62
     7
370
    18
100
AcDbLine
 10
3655.7613006087
 20
3406.4746851832
 30
0.0
 11
3655.7613006087
 21
4394.4746851832
 31
0.0
  0
LINE
  5
149
330
1F
100
AcDbEntity
  8
0
  6
HIDDEN
 62
     7
370
    18
100
AcDbLine
 10
4605.7613006087
 20
3406.4746851832
 30
0.0
 11
4605.7613006087
 21
4394.4746851832
 31
0.0
  0
LINE
  5
14A
330
1F
100
AcDbEntity
  8
0
  6
HIDDEN
 62
     7
370
    18
100
AcDbLine
 10
3655.7613006087
 20
2241.4622019186
 30
0.0
 11
3655.7613006087
 21
3406.4746851832
 31
0.0
  0
LINE
  5
14B
330
1F
100
AcDbEntity
  8
0
  6
HIDDEN
 62
     7
370
    18
100
AcDbLine
 10
3993.2613006087
 20
2161.5353625654
 30
0.0
 11
3652.5613006087
 21
2161.5353625654
 31
0.0
  0
LINE
  5
14C
330
1F
100
AcDbEntity
  8
0
  6
HIDDEN
 62
     7
370
    18
100
AcDbLine
 10
3652.5613006087
 20
2161.5353625654
 30
0.0
 11
3652.5613006087
 21
2239.1720064387
 31
0.0
  0
LINE
  5
14D
330
1F
100
AcDbEntity
  8
0
  6
HIDDEN
 62
     7
370
    18
100
AcDbLine
 10
3655.7613006087
 20
2163.4746851832
 30
0.0
 11
3655.7613006087
 21
2241.4622019186
 31
0.0
  0
LINE
  5
14E
330
1F
100
AcDbEntity
  8
0
  6
HIDDEN
 62
     7
370
    18
100
AcDbLine
 10
4605.7613006087
 20
2163.4746851832
 30
0.0
 11
4605.7613006087
 21
2241.4622019186
 31
0.0
  0
LINE
  5
14F
330
1F
100
AcDbEntity
  8
0
  6
HIDDEN
 62
     7
370
    18
100
AcDbLine
 10
3655.7613006087
 20
3443.4746851832
 30
0.0
 11
4605.7613006087
 21
3443.4746851832
 31
0.0
  0
LINE
  5
150
330
1F
100
AcDbEntity
  8
0
  6
HIDDEN
 62
     7
370
    18
100
AcDbLine
 10
3652.5613006087
 20
3445.7746851832
 30
0.0
 11
4608.9613006087
 21
3445.7746851832
 31
0.0
  0
LINE
  5
151
330
1F
100
AcDbEntity
  8
0
  6
HIDDEN
 62
     7
370
    18
100
AcDbLine
 10
3884.7613006087
 20
2110.4746851832
 30
0.0
 11
3602.7613006087
 21
2110.4746851832
 31
0.0
  0
LINE
  5
152
330
1F
100
AcDbEntity
  8
0
  6
HIDDEN
 62
     7
370
    18
100
AcDbLine
 10
3602.7613006087
 20
2110.4746851832
 30
0.0
 11
3602.7613006087
 21
2527.9746851832
 31
0.0
  0
CIRCLE
  5
153
330
1F
100
AcDbEntity
  8
0
  6
HIDDEN
 62
     7
370
    18
100
AcDbCircle
 10
3730.7613006087
 20
3476.4746851832
 30
0.0
 40
5.999999999999545
  0
CIRCLE
  5
154
330
1F
100
AcDbEntity
  8
0
  6
HIDDEN
 62
     7
370
    18
100
AcDbCircle
 10
3930.7613006087
 20
3476.4746851832
 30
0.0
 40
6.000000000000455
  0
CIRCLE
  5
155
330
1F
100
AcDbEntity
  8
0
  6
HIDDEN
 62
     7
370
    18
100
AcDbCircle
 10
4130.7613006087
 20
3476.4746851832
 30
0.0
 40
6.000000000000909
  0
CIRCLE
  5
156
330
1F
100
AcDbEntity
  8
0
  6
HIDDEN
 62
     7
370
    18
100
AcDbCircle
 10
4638.7613006087
 20
2903.4746851832
 30
0.0
 40
6.000000000000909
  0
CIRCLE
  5
157
330
1F
100
AcDbEntity
  8
0
  6
HIDDEN
 62
     7
370
    18
100
AcDbCircle
 10
4638.7613006087
 20
3103.4746851832
 30
0.0
 40
6.000000000000909
  0
CIRCLE
  5
158
330
1F
100
AcDbEntity
  8
0
  6
HIDDEN
 62
     7
370
    18
100
AcDbCircle
 10
4638.7613006087
 20
3303.4746851832
 30
0.0
 40
6.000000000000909
  0
CIRCLE
  5
159
330
1F
100
AcDbEntity
  8
0
  6
HIDDEN
 62
     7
370
    18
100
AcDbCircle
 10
4330.7613006087
 20
3476.4746851832
 30
0.0
 40
6.0
  0
CIRCLE
  5
15A
330
1F
100
AcDbEntity
  8
0
  6
HIDDEN
 62
     7
370
    18
100
AcDbCircle
 10
4530.7613006087
 20
3476.4746851832
 30
0.0
 40
6.0
  0
CIRCLE
  5
15B
330
1F
100
AcDbEntity
  8
0
  6
HIDDEN
 62
     7
370
    18
100
AcDbCircle
 10
4638.7613006087
 20
3476.4746851832
 30
0.0
 40
6.000000000000909
  0
CIRCLE
  5
15C
330
1F
100
AcDbEntity
  8
0
  6
HIDDEN
 62
     7
370
    18
100
AcDbCircle
 10
3622.7613006087
 20
2503.4746851832
 30
0.0
 40
6.000000000000455
  0
CIRCLE
  5
15D
330
1F
100
AcDbEntity
  8
0
  6
HIDDEN
 62
     7
370
    18
100
AcDbCircle
 10
3622.7613006087
 20
2303.4746851832
 30
0.0
 40
6.000000000000455
  0
CIRCLE
  5
15E
330
1F
100
AcDbEntity
  8
0
  6
HIDDEN
 62
     7
370
    18
100
AcDbCircle
 10
3730.7613006087
 20
2130.4746851832
 30
0.0
 40
5.999999999999545
  0
CIRCLE
  5
15F
330
1F
100
AcDbEntity
  8
0
  6
HIDDEN
 62
     7
370
    18
100
AcDbCircle
 10
3622.7613006087
 20
2130.4746851832
 30
0.0
 40
6.000000000000455
  0
LINE
  5
160
330
1F
100
AcDbEntity
  8
0
  6
HIDDEN
 62
     7
370
    18
100
AcDbLine
 10
4658.7613006087
 20
3496.4746851832
 30
0.0
 11
4658.7613006087
 21
2870.1746851832
 31
0.0
  0
LINE
  5
161
330
1F
100
AcDbEntity
  8
0
  6
HIDDEN
 62
     7
370
    18
100
AcDbLine
 10
3652.5613006087
 20
3496.4746851832
 30
0.0
 11
4658.7613006087
 21
3496.4746851832
 31
0.0
  0
LINE
  5
162
330
1F
100
AcDbEntity
  8
0
  6
HIDDEN
 62
     7
370
    18
100
AcDbLine
 10
3655.7613006087
 20
2163.4746851832
 30
0.0
 11
4605.7613006087
 21
2163.4746851832
 31
0.0
  0
LINE
  5
163
330
1F
100
AcDbEntity
  8
0
  6
HIDDEN
 62
     7
370
    18
100
AcDbLine
 10
3328.2613006087
 20
2308.4746851832
 30
0.0
 11
3370.7613006087
 21
2308.4746851832
 31
0.0
  0
LINE
  5
164
330
1F
100
AcDbEntity
  8
0
  6
HIDDEN
 62
     7
370
    18
100
AcDbLine
 10
3370.7613006087
 20
2356.4746851832
 30
0.0
 11
3328.2613006087
 21
2356.4746851832
 31
0.0
  0
LINE
  5
165
330
1F
100
AcDbEntity
  8
0
  6
HIDDEN
 62
     7
370
    18
100
AcDbLine
 10
3253.2613006087
 20
2219.9746851832
 30
0.0
 11
3328.2613006087
 21
2219.9746851832
 31
0.0
  0
LINE
  5
166
330
1F
100
AcDbEntity
  8
0
  6
HIDDEN
 62
     7
370
    18
100
AcDbLine
 10
3328.2613006087
 20
2444.9746851832
 30
0.0
 11
3253.2613006087
 21
2444.9746851832
 31
0.0
  0
LINE
  5
167
330
1F
100
AcDbEntity
  8
0
  6
HIDDEN
 62
     7
370
    18
100
AcDbLine
 10
3253.2613006087
 20
3272.4746851832
 30
0.0
 11
3328.2613006087
 21
3272.4746851832
 31
0.0
  0
LINE
  5
168
330
1F
100
AcDbEntity
  8
0
  6
HIDDEN
 62
     7
370
    18
100
AcDbLine
 10
3328.2613006087
 20
3722.4746851832
 30
0.0
 11
3253.2613006087
 21
3722.4746851832
 31
0.0
  0
LINE
  5
169
330
1F
100
AcDbEntity
  8
0
  6
HIDDEN
 62
     7
370
    18
100
AcDbLine
 10
4660.7613006087
 20
1767.4746851832
 30
0.0
 11
4660.7613006087
 21
1773.4746851832
 31
0.0
  0
LINE
  5
16A
330
1F
100
AcDbEntity
  8
0
  6
HIDDEN
 62
     7
370
    18
100
AcDbLine
 10
4636.7613006087
 20
1773.4746851832
 30
0.0
 11
4636.7613006087
 21
1767.4746851832
 31
0.0
  0
LINE
  5
16B
330
1F
100
AcDbEntity
  8
0
  6
HIDDEN
 62
     7
370
    18
100
AcDbLine
 10
3450.7613006087
 20
1767.4746851832
 30
0.0
 11
3450.7613006087
 21
1773.4746851832
 31
0.0
  0
LINE
  5
16C
330
1F
100
AcDbEntity
  8
0
  6
HIDDEN
 62
     7
370
    18
100
AcDbLine
 10
3426.7613006087
 20
1773.4746851832
 30
0.0
 11
3426.7613006087
 21
1767.4746851832
 31
0.0
  0
LINE
  5
16D
330
1F
100
AcDbEntity
  8
0
  6
HIDDEN
 62
     7
370
    18
100
AcDbLine
 10
4708.7613006087
 20
3400.6190244193
 30
0.0
 11
4706.4613006087
 21
3400.6190244193
 31
0.0
  0
LINE
  5
16E
330
1F
100
AcDbEntity
  8
0
  6
HIDDEN
 62
     7
370
    18
100
AcDbLine
 10
4706.4613006087
 20
3388.6190244193
 30
0.0
 11
4708.7613006087
 21
3388.6190244193
 31
0.0
  0
LINE
  5
16F
330
1F
100
AcDbEntity
  8
0
  6
HIDDEN
 62
     7
370
    18
100
AcDbLine
 10
4708.7613006087
 20
3606.3303459472
 30
0.0
 11
4706.4613006087
 21
3606.3303459472
 31
0.0
  0
LINE
  5
170
330
1F
100
AcDbEntity
  8
0
  6
HIDDEN
 62
     7
370
    18
100
AcDbLine
 10
4706.4613006087
 20
3594.3303459472
 30
0.0
 11
4708.7613006087
 21
3594.3303459472
 31
0.0
  0
LINE
  5
171
330
1F
100
AcDbEntity
  8
0
  6
HIDDEN
 62
     7
370
    18
100
AcDbLine
 10
4605.7613006087
 20
2872.4746851832
 30
0.0
 11
4708.7613006087
 21
2872.4746851832
 31
0.0
  0
LINE
  5
172
330
1F
100
AcDbEntity
  8
0
  6
HIDDEN
 62
     7
370
    18
100
AcDbLine
 10
4708.7613006087
 20
4122.4746851832
 30
0.0
 11
4605.7613006087
 21
4122.4746851832
 31
0.0
  0
LINE
  5
173
330
1F
100
AcDbEntity
  8
0
  6
HIDDEN
 62
     7
370
    18
100
AcDbLine
 10
4708.7613006087
 20
3204.9759316045
 30
0.0
 11
4706.4613006087
 21
3204.9759316045
 31
0.0
  0
LINE
  5
174
330
1F
100
AcDbEntity
  8
0
  6
HIDDEN
 62
     7
370
    18
100
AcDbLine
 10
4706.4613006087
 20
3192.9759316045
 30
0.0
 11
4708.7613006087
 21
3192.9759316045
 31
0.0
  0
LINE
  5
175
330
1F
100
AcDbEntity
  8
0
  6
HIDDEN
 62
     7
370
    18
100
AcDbLine
 10
4708.7613006087
 20
3801.973438762
 30
0.0
 11
4706.4613006087
 21
3801.973438762
 31
0.0
  0
LINE
  5
176
330
1F
100
AcDbEntity
  8
0
  6
HIDDEN
 62
     7
370
    18
100
AcDbLine
 10
4706.4613006087
 20
3789.973438762
 30
0.0
 11
4708.7613006087
 21
3789.973438762
 31
0.0
  0
LINE
  5
177
330
1F
100
AcDbEntity
  8
0
  6
HIDDEN
 62
     7
370
    18
100
AcDbLine
 10
4708.7613006087
 20
3038.551976553
 30
0.0
 11
4706.4613006087
 21
3038.551976553
 31
0.0
  0
LINE
  5
178
330
1F
100
AcDbEntity
  8
0
  6
HIDDEN
 62
     7
370
    18
100
AcDbLine
 10
4706.4613006087
 20
3026.551976553
 30
0.0
 11
4708.7613006087
 21
3026.551976553
 31
0.0
  0
LINE
  5
179
330
1F
100
AcDbEntity
  8
0
  6
HIDDEN
 62
     7
370
    18
100
AcDbLine
 10
4708.7613006087
 20
3968.3973938134
 30
0.0
 11
4706.4613006087
 21
3968.3973938134
 31
0.0
  0
LINE
  5
17A
330
1F
100
AcDbEntity
  8
0
  6
HIDDEN
 62
     7
370
    18
100
AcDbLine
 10
4706.4613006087
 20
3956.3973938134
 30
0.0
 11
4708.7613006087
 21
3956.3973938134
 31
0.0
  0
LINE
  5
17B
330
1F
100
AcDbEntity
  8
0
  6
HIDDEN
 62
     7
370
    18
100
AcDbLine
 10
4708.7613006087
 20
2917.6378955294
 30
0.0
 11
4706.4613006087
 21
2917.6378955294
 31
0.0
  0
LINE
  5
17C
330
1F
100
AcDbEntity
  8
0
  6
HIDDEN
 62
     7
370
    18
100
AcDbLine
 10
4706.4613006087
 20
2905.6378955294
 30
0.0
 11
4708.7613006087
 21
2905.6378955294
 31
0.0
  0
LINE
  5
17D
330
1F
100
AcDbEntity
  8
0
  6
HIDDEN
 62
     7
370
    18
100
AcDbLine
 10
4708.7613006087
 20
4089.3114748371
 30
0.0
 11
4706.4613006087
 21
4089.3114748371
 31
0.0
  0
LINE
  5
17E
330
1F
100
AcDbEntity
  8
0
  6
HIDDEN
 62
     7
370
    18
100
AcDbLine
 10
4706.4613006087
 20
4077.3114748371
 30
0.0
 11
4708.7613006087
 21
4077.3114748371
 31
0.0
  0
LINE
  5
17F
330
1F
100
AcDbEntity
  8
0
  6
HIDDEN
 62
     7
370
    18
100
AcDbLine
 10
4708.7613006087
 20
2854.0696012419
 30
0.0
 11
4706.4613006087
 21
2854.0696012419
 31
0.0
  0
LINE
  5
180
330
1F
100
AcDbEntity
  8
0
  6
HIDDEN
 62
     7
370
    18
100
AcDbLine
 10
4706.4613006087
 20
2842.0696012419
 30
0.0
 11
4708.7613006087
 21
2842.0696012419
 31
0.0
  0
LINE
  5
181
330
1F
100
AcDbEntity
  8
0
  6
HIDDEN
 62
     7
370
    18
100
AcDbLine
 10
4708.7613006087
 20
4152.8797691245
 30
0.0
 11
4706.4613006087
 21
4152.8797691245
 31
0.0
  0
LINE
  5
182
330
1F
100
AcDbEntity
  8
0
  6
HIDDEN
 62
     7
370
    18
100
AcDbLine
 10
4706.4613006087
 20
4140.8797691245
 30
0.0
 11
4708.7613006087
 21
4140.8797691245
 31
0.0
  0
LINE
  5
183
330
1F
100
AcDbEntity
  8
2
100
AcDbLine
 10
3575.1219665816
 20
3497.4746851832
 30
0.0
 11
4345.6782065253
 21
3497.4746851832
 31
0.0
  0
LINE
  5
184
330
1F
100
AcDbEntity
  8
2
100
AcDbLine
 10
4130.7613006087
 20
3708.0264508891
 30
0.0
 11
4130.7613006087
 21
2631.3414331431
 31
0.0
  0
LINE
  5
185
330
1F
100
AcDbEntity
  8
2
100
AcDbLine
 10
4587.8210181248
 20
2803.4746851832
 30
0.0
 11
3664.0913051009
 21
2803.4746851832
 31
0.0
  0
LINE
  5
186
330
1F
100
AcDbEntity
  8
1
100
AcDbLine
 10
761.1855484025
 20
5425.1579896578
 30
0.0
 11
761.1855484025
 21
5265.1579896578
 31
0.0
  0
LINE
  5
187
330
1F
100
AcDbEntity
  8
1
100
AcDbLine
 10
2748.6855484025
 20
5265.1579896578
 30
0.0
 11
2748.6855484025
 21
5425.1579896578
 31
0.0
  0
LINE
  5
188
330
1F
100
AcDbEntity
  8
1
100
AcDbLine
 10
2731.6855484025
 20
5492.6579896578
 30
0.0
 11
2731.6855484025
 21
6047.6579896578
 31
0.0
  0
LINE
  5
189
330
1F
100
AcDbEntity
  8
1
100
AcDbLine
 10
2340.6855484025
 20
6047.6579896578
 30
0.0
 11
2340.6855484025
 21
5492.6579896578
 31
0.0
  0
LINE
  5
18A
330
1F
100
AcDbEntity
  8
1
100
AcDbLine
 10
2560.1855484025
 20
5425.1579896578
 30
0.0
 11
2560.1855484025
 21
5492.6579896578
 31
0.0
  0
LINE
  5
18B
330
1F
100
AcDbEntity
  8
1
100
AcDbLine
 10
2512.1855484025
 20
5492.6579896578
 30
0.0
 11
2512.1855484025
 21
5425.1579896578
 31
0.0
  0
LINE
  5
18C
330
1F
100
AcDbEntity
  8
1
100
AcDbLine
 10
411.1855484025
 20
6763.1579896578
 30
0.0
 11
411.1855484025
 21
6760.8579896578
 31
0.0
  0
LINE
  5
18D
330
1F
100
AcDbEntity
  8
1
100
AcDbLine
 10
1761.1855484025
 20
6760.8579896578
 30
0.0
 11
1761.1855484025
 21
6763.1579896578
 31
0.0
  0
LINE
  5
18E
330
1F
100
AcDbEntity
  8
1
100
AcDbLine
 10
1761.1855484025
 20
6663.3579896578
 30
0.0
 11
1761.1855484025
 21
6670.1579896578
 31
0.0
  0
LINE
  5
18F
330
1F
100
AcDbEntity
  8
1
100
AcDbLine
 10
411.1855484025
 20
6670.1579896578
 30
0.0
 11
411.1855484025
 21
6663.3579896578
 31
0.0
  0
LINE
  5
190
330
1F
100
AcDbEntity
  8
1
100
AcDbLine
 10
458.8855484025
 20
6760.8579896578
 30
0.0
 11
458.8855484025
 21
6670.1579896578
 31
0.0
  0
LINE
  5
191
330
1F
100
AcDbEntity
  8
1
100
AcDbLine
 10
1713.4855484025
 20
6670.1579896578
 30
0.0
 11
1713.4855484025
 21
6760.8579896578
 31
0.0
  0
LINE
  5
192
330
1F
100
AcDbEntity
  8
1
100
AcDbLine
 10
1304.6946859378
 20
5265.1579896578
 30
0.0
 11
761.1855484025
 21
5265.1579896578
 31
0.0
  0
LINE
  5
193
330
1F
100
AcDbEntity
  8
1
100
AcDbLine
 10
1304.6946859378
 20
5425.1579896578
 30
0.0
 11
761.1855484025
 21
5425.1579896578
 31
0.0
  0
LINE
  5
194
330
1F
100
AcDbEntity
  8
1
100
AcDbLine
 10
2679.0569075602
 20
5265.1579896578
 30
0.0
 11
1304.6946859378
 21
5265.1579896578
 31
0.0
  0
LINE
  5
195
330
1F
100
AcDbEntity
  8
1
100
AcDbLine
 10
2679.0569075602
 20
5425.1579896578
 30
0.0
 11
1304.6946859378
 21
5425.1579896578
 31
0.0
  0
LINE
  5
196
330
1F
100
AcDbEntity
  8
1
100
AcDbLine
 10
2748.6855484025
 20
5265.1579896578
 30
0.0
 11
2679.0569075602
 21
5265.1579896578
 31
0.0
  0
LINE
  5
197
330
1F
100
AcDbEntity
  8
1
100
AcDbLine
 10
2748.6855484025
 20
5425.1579896578
 30
0.0
 11
2679.0569075602
 21
5425.1579896578
 31
0.0
  0
LINE
  5
198
330
1F
100
AcDbEntity
  8
1
100
AcDbLine
 10
2340.6855484025
 20
5492.6579896578
 30
0.0
 11
2731.6855484025
 21
5492.6579896578
 31
0.0
  0
LINE
  5
199
330
1F
100
AcDbEntity
  8
1
100
AcDbLine
 10
2731.6855484025
 20
6047.6579896578
 30
0.0
 11
2340.6855484025
 21
6047.6579896578
 31
0.0
  0
LINE
  5
19A
330
1F
100
AcDbEntity
  8
1
100
AcDbLine
 10
2761.1855484025
 20
5529.1579896578
 30
0.0
 11
2731.6855484025
 21
5529.1579896578
 31
0.0
  0
LINE
  5
19B
330
1F
100
AcDbEntity
  8
1
100
AcDbLine
 10
2340.6855484025
 20
5529.1579896578
 30
0.0
 11
2311.1855484025
 21
5529.1579896578
 31
0.0
  0
LINE
  5
19C
330
1F
100
AcDbEntity
  8
1
100
AcDbLine
 10
2311.1855484025
 20
5529.1579896578
 30
0.0
 11
2311.1855484025
 21
5939.1579896578
 31
0.0
  0
LINE
  5
19D
330
1F
100
AcDbEntity
  8
1
100
AcDbLine
 10
2311.1855484025
 20
5939.1579896578
 30
0.0
 11
2340.6855484025
 21
5939.1579896578
 31
0.0
  0
LINE
  5
19E
330
1F
100
AcDbEntity
  8
1
100
AcDbLine
 10
2731.6855484025
 20
5939.1579896578
 30
0.0
 11
2761.1855484025
 21
5939.1579896578
 31
0.0
  0
LINE
  5
19F
330
1F
100
AcDbEntity
  8
1
100
AcDbLine
 10
2761.1855484025
 20
5939.1579896578
 30
0.0
 11
2761.1855484025
 21
5529.1579896578
 31
0.0
  0
LINE
  5
1A0
330
1F
100
AcDbEntity
  8
1
100
AcDbLine
 10
2886.1855484025
 20
6738.1579896578
 30
0.0
 11
2886.1855484025
 21
5458.1579896578
 31
0.0
  0
LINE
  5
1A1
330
1F
100
AcDbEntity
  8
1
100
AcDbLine
 10
2886.1855484025
 20
5458.1579896578
 30
0.0
 11
2560.1855484025
 21
5458.1579896578
 31
0.0
  0
LINE
  5
1A2
330
1F
100
AcDbEntity
  8
1
100
AcDbLine
 10
2512.1855484025
 20
5458.1579896578
 30
0.0
 11
336.1855484025
 21
5458.1579896578
 31
0.0
  0
LINE
  5
1A3
330
1F
100
AcDbEntity
  8
1
100
AcDbLine
 10
336.1855484025
 20
6738.1579896578
 30
0.0
 11
458.8855484025
 21
6738.1579896578
 31
0.0
  0
LINE
  5
1A4
330
1F
100
AcDbEntity
  8
1
100
AcDbLine
 10
1713.4855484025
 20
6738.1579896578
 30
0.0
 11
2886.1855484025
 21
6738.1579896578
 31
0.0
  0
LINE
  5
1A5
330
1F
100
AcDbEntity
  8
1
100
AcDbLine
 10
2167.4855484025
 20
6663.1579896578
 30
0.0
 11
2811.1855484025
 21
6663.1579896578
 31
0.0
  0
LINE
  5
1A6
330
1F
100
AcDbEntity
  8
1
100
AcDbLine
 10
411.1855484025
 20
5533.1579896578
 30
0.0
 11
411.1855484025
 21
5706.9579896578
 31
0.0
  0
LINE
  5
1A7
330
1F
100
AcDbEntity
  8
1
100
AcDbLine
 10
2811.1855484025
 20
5533.1579896578
 30
0.0
 11
2761.1855484025
 21
5533.1579896578
 31
0.0
  0
LINE
  5
1A8
330
1F
100
AcDbEntity
  8
1
100
AcDbLine
 10
2311.1855484025
 20
5533.1579896578
 30
0.0
 11
411.1855484025
 21
5533.1579896578
 31
0.0
  0
LINE
  5
1A9
330
1F
100
AcDbEntity
  8
1
100
AcDbLine
 10
2811.1855484025
 20
6663.1579896578
 30
0.0
 11
2811.1855484025
 21
5533.1579896578
 31
0.0
  0
LINE
  5
1AA
330
1F
100
AcDbEntity
  8
1
100
AcDbLine
 10
336.1855484025
 20
5458.1579896578
 30
0.0
 11
336.1855484025
 21
5706.9579896578
 31
0.0
  0
LINE
  5
1AB
330
1F
100
AcDbEntity
  8
1
100
AcDbLine
 10
336.1855484025
 20
6663.3579896578
 30
0.0
 11
336.1855484025
 21
6738.1579896578
 31
0.0
  0
LINE
  5
1AC
330
1F
100
AcDbEntity
  8
1
100
AcDbLine
 10
2167.4855484025
 20
5706.9579896578
 30
0.0
 11
2167.4855484025
 21
6663.3579896578
 31
0.0
  0
LINE
  5
1AD
330
1F
100
AcDbEntity
  8
1
100
AcDbLine
 10
2167.4855484025
 20
5706.9579896578
 30
0.0
 11
1177.1855484025
 21
5706.9579896578
 31
0.0
  0
LINE
  5
1AE
330
1F
100
AcDbEntity
  8
1
100
AcDbLine
 10
2167.4855484025
 20
6663.3579896578
 30
0.0
 11
1177.1855484025
 21
6663.3579896578
 31
0.0
  0
LINE
  5
1AF
330
1F
100
AcDbEntity
  8
1
100
AcDbLine
 10
1163.1855484025
 20
5706.9579896578
 30
0.0
 11
340.8855484025
 21
5706.9579896578
 31
0.0
  0
LINE
  5
1B0
330
1F
100
AcDbEntity
  8
1
100
AcDbLine
 10
340.8855484025
 20
5706.9579896578
 30
0.0
 11
340.8855484025
 21
6663.3579896578
 31
0.0
  0
LINE
  5
1B1
330
1F
100
AcDbEntity
  8
1
100
AcDbLine
 10
1163.1855484025
 20
6663.3579896578
 30
0.0
 11
340.8855484025
 21
6663.3579896578
 31
0.0
  0
LINE
  5
1B2
330
1F
100
AcDbEntity
  8
1
100
AcDbLine
 10
1177.1855484025
 20
5706.9579896578
 30
0.0
 11
1163.1855484025
 21
5706.9579896578
 31
0.0
  0
LINE
  5
1B3
330
1F
100
AcDbEntity
  8
1
100
AcDbLine
 10
1177.1855484025
 20
6663.3579896578
 30
0.0
 11
1163.1855484025
 21
6663.3579896578
 31
0.0
  0
LINE
  5
1B4
330
1F
100
AcDbEntity
  8
1
100
AcDbLine
 10
411.1855484025
 20
6763.1579896578
 30
0.0
 11
1761.1855484025
 21
6763.1579896578
 31
0.0
  0
LINE
  5
1B5
330
1F
100
AcDbEntity
  8
1
100
AcDbLine
 10
411.1855484025
 20
6760.8579896578
 30
0.0
 11
1761.1855484025
 21
6760.8579896578
 31
0.0
  0
LINE
  5
1B6
330
1F
100
AcDbEntity
  8
1
100
AcDbLine
 10
1761.1855484025
 20
6670.1579896578
 30
0.0
 11
411.1855484025
 21
6670.1579896578
 31
0.0
  0
LINE
  5
1B7
330
1F
100
AcDbEntity
  8
1
100
AcDbLine
 10
265.1855484025
 20
6713.1579896578
 30
0.0
 11
261.1855484025
 21
6713.1579896578
 31
0.0
  0
LINE
  5
1B8
330
1F
100
AcDbEntity
  8
1
100
AcDbLine
 10
265.1855484025
 20
5657.1579896578
 30
0.0
 11
261.1855484025
 21
5657.1579896578
 31
0.0
  0
LINE
  5
1B9
330
1F
100
AcDbEntity
  8
1
100
AcDbLine
 10
261.1855484025
 20
5657.1579896578
 30
0.0
 11
261.1855484025
 21
6713.1579896578
 31
0.0
  0
LINE
  5
1BA
330
1F
100
AcDbEntity
  8
1
100
AcDbLine
 10
265.1855484025
 20
5657.1579896578
 30
0.0
 11
265.1855484025
 21
6713.1579896578
 31
0.0
  0
LINE
  5
1BB
330
1F
100
AcDbEntity
  8
1
100
AcDbLine
 10
340.8855484025
 20
5706.9579896578
 30
0.0
 11
265.1855484025
 21
5706.9579896578
 31
0.0
  0
LINE
  5
1BC
330
1F
100
AcDbEntity
  8
1
100
AcDbLine
 10
340.8855484025
 20
6663.3579896578
 30
0.0
 11
265.1855484025
 21
6663.3579896578
 31
0.0
  0
LINE
  5
1BD
330
1F
100
AcDbEntity
  8
0
  6
HIDDEN
 62
     7
370
    18
100
AcDbLine
 10
2426.7494940146
 20
5572.1579896578
 30
0.0
 11
2441.4266438078
 21
5572.1579896578
 31
0.0
  0
LINE
  5
1BE
330
1F
100
AcDbEntity
  8
0
  6
HIDDEN
 62
     7
370
    18
100
AcDbLine
 10
2426.7494940146
 20
5572.1579896578
 30
0.0
 11
2426.7494940146
 21
5896.1579896578
 31
0.0
  0
LINE
  5
1BF
330
1F
100
AcDbEntity
  8
0
  6
HIDDEN
 62
     7
370
    18
100
AcDbLine
 10
2426.7494940146
 20
5896.1579896578
 30
0.0
 11
2441.4266438078
 21
5896.1579896578
 31
0.0
  0
LINE
  5
1C0
330
1F
100
AcDbEntity
  8
0
  6
HIDDEN
 62
     7
370
    18
100
AcDbLine
 10
2441.4266438078
 20
6047.6579896578
 30
0.0
 11
2441.4266438078
 21
5896.1579896578
 31
0.0
  0
LINE
  5
1C1
330
1F
100
AcDbEntity
  8
0
  6
HIDDEN
 62
     7
370
    18
100
AcDbLine
 10
2630.9444529973
 20
6047.6579896578
 30
0.0
 11
2630.9444529973
 21
5896.1579896578
 31
0.0
  0
LINE
  5
1C2
330
1F
100
AcDbEntity
  8
0
  6
HIDDEN
 62
     7
370
    18
100
AcDbLine
 10
2630.9444529973
 20
5896.1579896578
 30
0.0
 11
2645.6216027905
 21
5896.1579896578
 31
0.0
  0
LINE
  5
1C3
330
1F
100
AcDbEntity
  8
0
  6
HIDDEN
 62
     7
370
    18
100
AcDbLine
 10
2645.6216027905
 20
5896.1579896578
 30
0.0
 11
2645.6216027905
 21
5572.1579896578
 31
0.0
  0
LINE
  5
1C4
330
1F
100
AcDbEntity
  8
0
  6
HIDDEN
 62
     7
370
    18
100
AcDbLine
 10
2630.9444529973
 20
5572.1579896578
 30
0.0
 11
2645.6216027905
 21
5572.1579896578
 31
0.0
  0
LINE
  5
1C5
330
1F
100
AcDbEntity
  8
0
  6
HIDDEN
 62
     7
370
    18
100
AcDbLine
 10
2630.9444529973
 20
5572.1579896578
 30
0.0
 11
2630.9444529973
 21
5492.6579896578
 31
0.0
  0
LINE
  5
1C6
330
1F
100
AcDbEntity
  8
0
  6
HIDDEN
 62
     7
370
    18
100
AcDbLine
 10
2441.4266438078
 20
5572.1579896578
 30
0.0
 11
2441.4266438078
 21
5492.6579896578
 31
0.0
  0
LINE
  5
1C7
330
1F
100
AcDbEntity
  8
0
  6
HIDDEN
 62
     7
370
    18
100
AcDbLine
 10
2679.1855484025
 20
5572.1579896578
 30
0.0
 11
2679.1855484025
 21
5896.1579896578
 31
0.0
  0
LINE
  5
1C8
330
1F
100
AcDbEntity
  8
0
  6
HIDDEN
 62
     7
370
    18
100
AcDbLine
 10
2679.1855484025
 20
5572.1579896578
 30
0.0
 11
2645.6216027905
 21
5572.1579896578
 31
0.0
  0
LINE
  5
1C9
330
1F
100
AcDbEntity
  8
0
  6
HIDDEN
 62
     7
370
    18
100
AcDbLine
 10
2679.1855484025
 20
5896.1579896578
 30
0.0
 11
2645.6216027905
 21
5896.1579896578
 31
0.0
  0
LINE
  5
1CA
330
1F
100
AcDbEntity
  8
0
  6
HIDDEN
 62
     7
370
    18
100
AcDbLine
 10
2426.7494940146
 20
5572.1579896578
 30
0.0
 11
2393.1855484025
 21
5572.1579896578
 31
0.0
  0
LINE
  5
1CB
330
1F
100
AcDbEntity
  8
0
  6
HIDDEN
 62
     7
370
    18
100
AcDbLine
 10
2426.7494940146
 20
5896.1579896578
 30
0.0
 11
2393.1855484025
 21
5896.1579896578
 31
0.0
  0
LINE
  5
1CC
330
1F
100
AcDbEntity
  8
0
  6
HIDDEN
 62
     7
370
    18
100
AcDbLine
 10
2393.1855484025
 20
5572.1579896578
 30
0.0
 11
2393.1855484025
 21
5896.1579896578
 31
0.0
  0
LINE
  5
1CD
330
1F
100
AcDbEntity
  8
0
  6
HIDDEN
 62
     7
370
    18
100
AcDbLine
 10
2441.4266438078
 20
5896.1579896578
 30
0.0
 11
2630.9444529973
 21
5896.1579896578
 31
0.0
  0
LINE
  5
1CE
330
1F
100
AcDbEntity
  8
0
  6
HIDDEN
 62
     7
370
    18
100
AcDbLine
 10
2441.4266438078
 20
5572.1579896578
 30
0.0
 11
2630.9444529973
 21
5572.1579896578
 31
0.0
  0
LINE
  5
1CF
330
1F
100
AcDbEntity
  8
0
  6
HIDDEN
 62
     7
370
    18
100
AcDbLine
 10
2731.6855484025
 20
5529.1579896578
 30
0.0
 11
2340.6855484025
 21
5529.1579896578
 31
0.0
  0
LINE
  5
1D0
330
1F
100
AcDbEntity
  8
0
  6
HIDDEN
 62
     7
370
    18
100
AcDbLine
 10
2340.6855484025
 20
5939.1579896578
 30
0.0
 11
2731.6855484025
 21
5939.1579896578
 31
0.0
  0
LINE
  5
1D1
330
1F
100
AcDbEntity
  8
0
  6
HIDDEN
 62
     7
370
    18
100
AcDbLine
 10
2423.6855484025
 20
5307.6579896578
 30
0.0
 11
2648.6855484025
 21
5307.6579896578
 31
0.0
  0
LINE
  5
1D2
330
1F
100
AcDbEntity
  8
0
  6
HIDDEN
 62
     7
370
    18
100
AcDbLine
 10
2423.6855484025
 20
5382.6579896578
 30
0.0
 11
2648.6855484025
 21
5382.6579896578
 31
0.0
  0
LINE
  5
1D3
330
1F
100
AcDbEntity
  8
0
  6
HIDDEN
 62
     7
370
    18
100
AcDbLine
 10
1112.898699203
 20
5307.6579896578
 30
0.0
 11
1311.1855484025
 21
5307.6579896578
 31
0.0
  0
LINE
  5
1D4
330
1F
100
AcDbEntity
  8
0
  6
HIDDEN
 62
     7
370
    18
100
AcDbLine
 10
861.1855484025
 20
5307.6579896578
 30
0.0
 11
1112.898699203
 21
5307.6579896578
 31
0.0
  0
LINE
  5
1D5
330
1F
100
AcDbEntity
  8
0
  6
HIDDEN
 62
     7
370
    18
100
AcDbLine
 10
1112.898699203
 20
5382.6579896578
 30
0.0
 11
1311.1855484025
 21
5382.6579896578
 31
0.0
  0
LINE
  5
1D6
330
1F
100
AcDbEntity
  8
0
  6
HIDDEN
 62
     7
370
    18
100
AcDbLine
 10
861.1855484025
 20
5382.6579896578
 30
0.0
 11
1112.898699203
 21
5382.6579896578
 31
0.0
  0
LINE
  5
1D7
330
1F
100
AcDbEntity
  8
0
  6
HIDDEN
 62
     7
370
    18
100
AcDbLine
 10
405.1855484025
 20
5527.1579896578
 30
0.0
 11
405.1855484025
 21
6669.1579896578
 31
0.0
  0
LINE
  5
1D8
330
1F
100
AcDbEntity
  8
0
  6
HIDDEN
 62
     7
370
    18
100
AcDbLine
 10
405.1855484025
 20
6669.1579896578
 30
0.0
 11
2817.1855484026
 21
6669.1579896578
 31
0.0
  0
LINE
  5
1D9
330
1F
100
AcDbEntity
  8
0
  6
HIDDEN
 62
     7
370
    18
100
AcDbLine
 10
2817.1855484026
 20
6669.1579896578
 30
0.0
 11
2817.1855484026
 21
5527.1579896578
 31
0.0
  0
LINE
  5
1DA
330
1F
100
AcDbEntity
  8
0
  6
HIDDEN
 62
     7
370
    18
100
AcDbLine
 10
2817.1855484026
 20
5527.1579896578
 30
0.0
 11
405.1855484025
 21
5527.1579896578
 31
0.0
  0
CIRCLE
  5
1DB
330
1F
100
AcDbEntity
  8
0
  6
HIDDEN
 62
     7
370
    18
100
AcDbCircle
 10
2766.1855484025
 20
6703.1579896578
 30
0.0
 40
12.00000000000091
  0
CIRCLE
  5
1DC
330
1F
100
AcDbEntity
  8
0
  6
HIDDEN
 62
     7
370
    18
100
AcDbCircle
 10
1996.1855484025
 20
6703.1579896578
 30
0.0
 40
12.00000000000091
  0
CIRCLE
  5
1DD
330
1F
100
AcDbEntity
  8
0
  6
HIDDEN
 62
     7
370
    18
100
AcDbCircle
 10
1226.1855484025
 20
6703.1579896578
 30
0.0
 40
12.00000000000091
  0
CIRCLE
  5
1DE
330
1F
100
AcDbEntity
  8
0
  6
HIDDEN
 62
     7
370
    18
100
AcDbCircle
 10
456.1855484025
 20
6703.1579896578
 30
0.0
 40
12.00000000000091
  0
CIRCLE
  5
1DF
330
1F
100
AcDbEntity
  8
0
  6
HIDDEN
 62
     7
370
    18
100
AcDbCircle
 10
456.1855484025
 20
5493.1579896578
 30
0.0
 40
12.0
  0
CIRCLE
  5
1E0
330
1F
100
AcDbEntity
  8
0
  6
HIDDEN
 62
     7
370
    18
100
AcDbCircle
 10
1226.1855484025
 20
5493.1579896578
 30
0.0
 40
12.0
  0
CIRCLE
  5
1E1
330
1F
100
AcDbEntity
  8
0
  6
HIDDEN
 62
     7
370
    18
100
AcDbCircle
 10
1996.1855484025
 20
5493.1579896578
 30
0.0
 40
12.0
  0
CIRCLE
  5
1E2
330
1F
100
AcDbEntity
  8
0
  6
HIDDEN
 62
     7
370
    18
100
AcDbCircle
 10
2766.1855484025
 20
5493.1579896578
 30
0.0
 40
12.00000000000091
  0
LINE
  5
1E3
330
1F
100
AcDbEntity
  8
0
  6
HIDDEN
 62
     7
370
    18
100
AcDbLine
 10
2560.1855484025
 20
5458.1579896578
 30
0.0
 11
2512.1855484025
 21
5458.1579896578
 31
0.0
  0
LINE
  5
1E4
330
1F
100
AcDbEntity
  8
0
  6
HIDDEN
 62
     7
370
    18
100
AcDbLine
 10
458.8855484025
 20
6738.1579896578
 30
0.0
 11
1713.4855484025
 21
6738.1579896578
 31
0.0
  0
LINE
  5
1E5
330
1F
100
AcDbEntity
  8
0
  6
HIDDEN
 62
     7
370
    18
100
AcDbLine
 10
411.1855484025
 20
6663.1579896578
 30
0.0
 11
2167.4855484025
 21
6663.1579896578
 31
0.0
  0
LINE
  5
1E6
330
1F
100
AcDbEntity
  8
0
  6
HIDDEN
 62
     7
370
    18
100
AcDbLine
 10
411.1855484025
 20
5706.9579896578
 30
0.0
 11
411.1855484025
 21
6663.1579896578
 31
0.0
  0
LINE
  5
1E7
330
1F
100
AcDbEntity
  8
0
  6
HIDDEN
 62
     7
370
    18
100
AcDbLine
 10
2761.1855484025
 20
5533.1579896578
 30
0.0
 11
2311.1855484025
 21
5533.1579896578
 31
0.0
  0
LINE
  5
1E8
330
1F
100
AcDbEntity
  8
0
  6
HIDDEN
 62
     7
370
    18
100
AcDbLine
 10
336.1855484025
 20
5706.9579896578
 30
0.0
 11
336.1855484025
 21
6663.3579896578
 31
0.0
  0
LINE
  5
1E9
330
1F
100
AcDbEntity
  8
0
  6
HIDDEN
 62
     7
370
    18
100
AcDbLine
 10
404.6855484025
 20
6669.6579896578
 30
0.0
 11
2817.6855484025
 21
6669.6579896578
 31
0.0
  0
LINE
  5
1EA
330
1F
100
AcDbEntity
  8
0
  6
HIDDEN
 62
     7
370
    18
100
AcDbLine
 10
404.6855484025
 20
5526.6579896578
 30
0.0
 11
404.6855484025
 21
6669.6579896578
 31
0.0
  0
LINE
  5
1EB
330
1F
100
AcDbEntity
  8
0
  6
HIDDEN
 62
     7
370
    18
100
AcDbLine
 10
2817.6855484025
 20
6669.6579896578
 30
0.0
 11
2817.6855484025
 21
5526.6579896578
 31
0.0
  0
LINE
  5
1EC
330
1F
100
AcDbEntity
  8
0
  6
HIDDEN
 62
     7
370
    18
100
AcDbLine
 10
2817.6855484025
 20
5526.6579896578
 30
0.0
 11
404.6855484025
 21
5526.6579896578
 31
0.0
  0
CIRCLE
  5
1ED
330
1F
100
AcDbEntity
  8
0
  6
HIDDEN
 62
     7
370
    18
100
AcDbCircle
 10
2811.1855484025
 20
6700.6579896578
 30
0.0
 40
17.50000000000091
  0
CIRCLE
  5
1EE
330
1F
100
AcDbEntity
  8
0
  6
HIDDEN
 62
     7
370
    18
100
AcDbCircle
 10
411.1855484025
 20
6700.6579896578
 30
0.0
 40
17.50000000000091
  0
CIRCLE
  5
1EF
330
1F
100
AcDbEntity
  8
0
  6
HIDDEN
 62
     7
370
    18
100
AcDbCircle
 10
411.1855484025
 20
5495.6579896578
 30
0.0
 40
17.49999999999909
  0
CIRCLE
  5
1F0
330
1F
100
AcDbEntity
  8
0
  6
HIDDEN
 62
     7
370
    18
100
AcDbCircle
 10
2811.1855484025
 20
5495.6579896578
 30
0.0
 40
17.49999999999909
  0
LINE
  5
1F1
330
1F
100
AcDbEntity
  8
0
  6
HIDDEN
 62
     7
370
    18
100
AcDbLine
 10
343.1855484025
 20
5710.1579896578
 30
0.0
 11
343.1855484025
 21
6660.1579896578
 31
0.0
  0
LINE
  5
1F2
330
1F
100
AcDbEntity
  8
0
  6
HIDDEN
 62
     7
370
    18
100
AcDbLine
 10
1163.1855484025
 20
5710.1579896578
 30
0.0
 11
343.1855484025
 21
5710.1579896578
 31
0.0
  0
LINE
  5
1F3
330
1F
100
AcDbEntity
  8
0
  6
HIDDEN
 62
     7
370
    18
100
AcDbLine
 10
1163.1855484025
 20
6660.1579896578
 30
0.0
 11
343.1855484025
 21
6660.1579896578
 31
0.0
  0
LINE
  5
1F4
330
1F
100
AcDbEntity
  8
0
  6
HIDDEN
 62
     7
370
    18
100
AcDbLine
 10
1177.1855484025
 20
6660.1579896578
 30
0.0
 11
1163.1855484025
 21
6660.1579896578
 31
0.0
  0
LINE
  5
1F5
330
1F
100
AcDbEntity
  8
0
  6
HIDDEN
 62
     7
370
    18
100
AcDbLine
 10
2165.1855484025
 20
5710.1579896578
 30
0.0
 11
1177.1855484025
 21
5710.1579896578
 31
0.0
  0
LINE
  5
1F6
330
1F
100
AcDbEntity
  8
0
  6
HIDDEN
 62
     7
370
    18
100
AcDbLine
 10
2165.1855484025
 20
5710.1579896578
 30
0.0
 11
2165.1855484025
 21
6660.1579896578
 31
0.0
  0
LINE
  5
1F7
330
1F
100
AcDbEntity
  8
0
  6
HIDDEN
 62
     7
370
    18
100
AcDbLine
 10
2165.1855484025
 20
6660.1579896578
 30
0.0
 11
1177.1855484025
 21
6660.1579896578
 31
0.0
  0
LINE
  5
1F8
330
1F
100
AcDbEntity
  8
0
  6
HIDDEN
 62
     7
370
    18
100
AcDbLine
 10
1177.1855484025
 20
5710.1579896578
 30
0.0
 11
1163.1855484025
 21
5710.1579896578
 31
0.0
  0
LINE
  5
1F9
330
1F
100
AcDbEntity
  8
0
  6
HIDDEN
 62
     7
370
    18
100
AcDbLine
 10
343.1855484025
 20
5710.1579896578
 30
0.0
 11
261.1855484025
 21
5710.1579896578
 31
0.0
  0
LINE
  5
1FA
330
1F
100
AcDbEntity
  8
0
  6
HIDDEN
 62
     7
370
    18
100
AcDbLine
 10
343.1855484025
 20
6660.1579896578
 30
0.0
 11
261.1855484025
 21
6660.1579896578
 31
0.0
  0
LINE
  5
1FB
330
1F
100
AcDbEntity
  8
0
  6
HIDDEN
 62
     7
370
    18
100
AcDbLine
 10
2560.1855484025
 20
5382.6579896578
 30
0.0
 11
2560.1855484025
 21
5425.1579896578
 31
0.0
  0
LINE
  5
1FC
330
1F
100
AcDbEntity
  8
0
  6
HIDDEN
 62
     7
370
    18
100
AcDbLine
 10
2512.1855484025
 20
5425.1579896578
 30
0.0
 11
2512.1855484025
 21
5382.6579896578
 31
0.0
  0
LINE
  5
1FD
330
1F
100
AcDbEntity
  8
0
  6
HIDDEN
 62
     7
370
    18
100
AcDbLine
 10
2648.6855484025
 20
5307.6579896578
 30
0.0
 11
2648.6855484025
 21
5382.6579896578
 31
0.0
  0
LINE
  5
1FE
330
1F
100
AcDbEntity
  8
0
  6
HIDDEN
 62
     7
370
    18
100
AcDbLine
 10
2423.6855484025
 20
5382.6579896578
 30
0.0
 11
2423.6855484025
 21
5307.6579896578
 31
0.0
  0
LINE
  5
1FF
330
1F
100
AcDbEntity
  8
0
  6
HIDDEN
 62
     7
370
    18
100
AcDbLine
 10
1311.1855484025
 20
5307.6579896578
 30
0.0
 11
1311.1855484025
 21
5382.6579896578
 31
0.0
  0
LINE
  5
200
330
1F
100
AcDbEntity
  8
0
  6
HIDDEN
 62
     7
370
    18
100
AcDbLine
 10
861.1855484025
 20
5382.6579896578
 30
0.0
 11
861.1855484025
 21
5307.6579896578
 31
0.0
  0
LINE
  5
201
330
1F
100
AcDbEntity
  8
0
  6
HIDDEN
 62
     7
370
    18
100
AcDbLine
 10
1183.0412091665
 20
6763.1579896578
 30
0.0
 11
1183.0412091665
 21
6760.8579896578
 31
0.0
  0
LINE
  5
202
330
1F
100
AcDbEntity
  8
0
  6
HIDDEN
 62
     7
370
    18
100
AcDbLine
 10
1195.0412091665
 20
6760.8579896578
 30
0.0
 11
1195.0412091665
 21
6763.1579896578
 31
0.0
  0
LINE
  5
203
330
1F
100
AcDbEntity
  8
0
  6
HIDDEN
 62
     7
370
    18
100
AcDbLine
 10
977.3298876386
 20
6763.1579896578
 30
0.0
 11
977.3298876386
 21
6760.8579896578
 31
0.0
  0
LINE
  5
204
330
1F
100
AcDbEntity
  8
0
  6
HIDDEN
 62
     7
370
    18
100
AcDbLine
 10
989.3298876386
 20
6760.8579896578
 30
0.0
 11
989.3298876386
 21
6763.1579896578
 31
0.0
  0
LINE
  5
205
330
1F
100
AcDbEntity
  8
0
  6
HIDDEN
 62
     7
370
    18
100
AcDbLine
 10
1711.1855484025
 20
6660.1579896578
 30
0.0
 11
1711.1855484025
 21
6763.1579896578
 31
0.0
  0
LINE
  5
206
330
1F
100
AcDbEntity
  8
0
  6
HIDDEN
 62
     7
370
    18
100
AcDbLine
 10
461.1855484025
 20
6763.1579896578
 30
0.0
 11
461.1855484025
 21
6660.1579896578
 31
0.0
  0
LINE
  5
207
330
1F
100
AcDbEntity
  8
0
  6
HIDDEN
 62
     7
370
    18
100
AcDbLine
 10
781.6867948238
 20
6763.1579896578
 30
0.0
 11
781.6867948238
 21
6760.8579896578
 31
0.0
  0
LINE
  5
208
330
1F
100
AcDbEntity
  8
0
  6
HIDDEN
 62
     7
370
    18
100
AcDbLine
 10
793.6867948238
 20
6760.8579896578
 30
0.0
 11
793.6867948238
 21
6763.1579896578
 31
0.0
  0
LINE
  5
209
330
1F
100
AcDbEntity
  8
0
  6
HIDDEN
 62
     7
370
    18
100
AcDbLine
 10
1378.6843019813
 20
6763.1579896578
 30
0.0
 11
1378.6843019813
 21
6760.8579896578
 31
0.0
  0
LINE
  5
20A
330
1F
100
AcDbEntity
  8
0
  6
HIDDEN
 62
     7
370
    18
100
AcDbLine
 10
1390.6843019813
 20
6760.8579896578
 30
0.0
 11
1390.6843019813
 21
6763.1579896578
 31
0.0
  0
LINE
  5
20B
330
1F
100
AcDbEntity
  8
0
  6
HIDDEN
 62
     7
370
    18
100
AcDbLine
 10
1545.1082570327
 20
6763.1579896578
 30
0.0
 11
1545.1082570327
 21
6760.8579896578
 31
0.0
  0
LINE
  5
20C
330
1F
100
AcDbEntity
  8
0
  6
HIDDEN
 62
     7
370
    18
100
AcDbLine
 10
1557.1082570327
 20
6760.8579896578
 30
0.0
 11
1557.1082570327
 21
6763.1579896578
 31
0.0
  0
LINE
  5
20D
330
1F
100
AcDbEntity
  8
0
  6
HIDDEN
 62
     7
370
    18
100
AcDbLine
 10
615.2628397724
 20
6763.1579896578
 30
0.0
 11
615.2628397724
 21
6760.8579896578
 31
0.0
  0
LINE
  5
20E
330
1F
100
AcDbEntity
  8
0
  6
HIDDEN
 62
     7
370
    18
100
AcDbLine
 10
627.2628397724
 20
6760.8579896578
 30
0.0
 11
627.2628397724
 21
6763.1579896578
 31
0.0
  0
LINE
  5
20F
330
1F
100
AcDbEntity
  8
0
  6
HIDDEN
 62
     7
370
    18
100
AcDbLine
 10
1666.0223380564
 20
6763.1579896578
 30
0.0
 11
1666.0223380564
 21
6760.8579896578
 31
0.0
  0
LINE
  5
210
330
1F
100
AcDbEntity
  8
0
  6
HIDDEN
 62
     7
370
    18
100
AcDbLine
 10
1678.0223380564
 20
6760.8579896578
 30
0.0
 11
1678.0223380564
 21
6763.1579896578
 31
0.0
  0
LINE
  5
211
330
1F
100
AcDbEntity
  8
0
  6
HIDDEN
 62
     7
370
    18
100
AcDbLine
 10
494.3487587487
 20
6763.1579896578
 30
0.0
 11
494.3487587487
 21
6760.8579896578
 31
0.0
  0
LINE
  5
212
330
1F
100
AcDbEntity
  8
0
  6
HIDDEN
 62
     7
370
    18
100
AcDbLine
 10
506.3487587487
 20
6760.8579896578
 30
0.0
 11
506.3487587487
 21
6763.1579896578
 31
0.0
  0
LINE
  5
213
330
1F
100
AcDbEntity
  8
0
  6
HIDDEN
 62
     7
370
    18
100
AcDbLine
 10
1729.5906323438
 20
6763.1579896578
 30
0.0
 11
1729.5906323438
 21
6760.8579896578
 31
0.0
  0
LINE
  5
214
330
1F
100
AcDbEntity
  8
0
  6
HIDDEN
 62
     7
370
    18
100
AcDbLine
 10
1741.5906323438
 20
6760.8579896578
 30
0.0
 11
1741.5906323438
 21
6763.1579896578
 31
0.0
  0
LINE
  5
215
330
1F
100
AcDbEntity
  8
0
  6
HIDDEN
 62
     7
370
    18
100
AcDbLine
 10
430.7804644612
 20
6763.1579896578
 30
0.0
 11
430.7804644612
 21
6760.8579896578
 31
0.0
  0
LINE
  5
216
330
1F
100
AcDbEntity
  8
0
  6
HIDDEN
 62
     7
370
    18
100
AcDbLine
 10
442.7804644612
 20
6760.8579896578
 30
0.0
 11
442.7804644612
 21
6763.1579896578
 31
0.0
  0
LINE
  5
217
330
1F
100
AcDbEntity
  8
0
  6
HIDDEN
 62
     7
370
    18
100
AcDbLine
 10
261.1855484025
 20
6687.1579896578
 30
0.0
 11
265.1855484025
 21
6687.1579896578
 31
0.0
  0
LINE
  5
218
330
1F
100
AcDbEntity
  8
0
  6
HIDDEN
 62
     7
370
    18
100
AcDbLine
 10
265.1855484025
 20
6699.1579896578
 30
0.0
 11
261.1855484025
 21
6699.1579896578
 31
0.0
  0
LINE
  5
219
330
1F
100
AcDbEntity
  8
0
  6
HIDDEN
 62
     7
370
    18
100
AcDbLine
 10
261.1855484025
 20
6579.1579896578
 30
0.0
 11
265.1855484025
 21
6579.1579896578
 31
0.0
  0
LINE
  5
21A
330
1F
100
AcDbEntity
  8
0
  6
HIDDEN
 62
     7
370
    18
100
AcDbLine
 10
265.1855484025
 20
6591.1579896578
 30
0.0
 11
261.1855484025
 21
6591.1579896578
 31
0.0
  0
LINE
  5
21B
330
1F
100
AcDbEntity
  8
0
  6
HIDDEN
 62
     7
370
    18
100
AcDbLine
 10
261.1855484025
 20
6379.1579896578
 30
0.0
 11
265.1855484025
 21
6379.1579896578
 31
0.0
  0
LINE
  5
21C
330
1F
100
AcDbEntity
  8
0
  6
HIDDEN
 62
     7
370
    18
100
AcDbLine
 10
265.1855484025
 20
6391.1579896578
 30
0.0
 11
261.1855484025
 21
6391.1579896578
 31
0.0
  0
LINE
  5
21D
330
1F
100
AcDbEntity
  8
0
  6
HIDDEN
 62
     7
370
    18
100
AcDbLine
 10
261.1855484025
 20
6179.1579896578
 30
0.0
 11
265.1855484025
 21
6179.1579896578
 31
0.0
  0
LINE
  5
21E
330
1F
100
AcDbEntity
  8
0
  6
HIDDEN
 62
     7
370
    18
100
AcDbLine
 10
265.1855484025
 20
6191.1579896578
 30
0.0
 11
261.1855484025
 21
6191.1579896578
 31
0.0
  0
LINE
  5
21F
330
1F
100
AcDbEntity
  8
0
  6
HIDDEN
 62
     7
370
    18
100
AcDbLine
 10
261.1855484025
 20
5979.1579896578
 30
0.0
 11
265.1855484025
 21
5979.1579896578
 31
0.0
  0
LINE
  5
220
330
1F
100
AcDbEntity
  8
0
  6
HIDDEN
 62
     7
370
    18
100
AcDbLine
 10
265.1855484025
 20
5991.1579896578
 30
0.0
 11
261.1855484025
 21
5991.1579896578
 31
0.0
  0
LINE
  5
221
330
1F
100
AcDbEntity
  8
0
  6
HIDDEN
 62
     7
370
    18
100
AcDbLine
 10
261.1855484025
 20
5779.1579896578
 30
0.0
 11
265.1855484025
 21
5779.1579896578
 31
0.0
  0
LINE
  5
222
330
1F
100
AcDbEntity
  8
0
  6
HIDDEN
 62
     7
370
    18
100
AcDbLine
 10
265.1855484025
 20
5791.1579896578
 30
0.0
 11
261.1855484025
 21
5791.1579896578
 31
0.0
  0
LINE
  5
223
330
1F
100
AcDbEntity
  8
0
  6
HIDDEN
 62
     7
370
    18
100
AcDbLine
 10
261.1855484025
 20
5671.1579896578
 30
0.0
 11
265.1855484025
 21
5671.1579896578
 31
0.0
  0
LINE
  5
224
330
1F
100
AcDbEntity
  8
0
  6
HIDDEN
 62
     7
370
    18
100
AcDbLine
 10
265.1855484025
 20
5683.1579896578
 30
0.0
 11
261.1855484025
 21
5683.1579896578
 31
0.0
  0
CIRCLE
  5
225
330
1F
100
AcDbEntity
  8
基礎穴
100
AcDbCircle
 10
456.1855484025
 20
6703.1579896578
 30
0.0
 40
11.99999999999994
  0
CIRCLE
  5
226
330
1F
100
AcDbEntity
  8
基礎穴
100
AcDbCircle
 10
1226.1855484025
 20
6703.1579896578
 30
0.0
 40
11.99999999999956
  0
CIRCLE
  5
227
330
1F
100
AcDbEntity
  8
基礎穴
100
AcDbCircle
 10
1996.1855484025
 20
6703.1579896578
 30
0.0
 40
11.99999999999956
  0
CIRCLE
  5
228
330
1F
100
AcDbEntity
  8
基礎穴
100
AcDbCircle
 10
2766.1855484025
 20
6703.1579896578
 30
0.0
 40
11.99999999999956
  0
CIRCLE
  5
229
330
1F
100
AcDbEntity
  8
基礎穴
100
AcDbCircle
 10
2766.1855484025
 20
5493.1579896578
 30
0.0
 40
12.00000000000026
  0
CIRCLE
  5
22A
330
1F
100
AcDbEntity
  8
基礎穴
100
AcDbCircle
 10
1996.1855484025
 20
5493.1579896578
 30
0.0
 40
12.00000000000005
  0
CIRCLE
  5
22B
330
1F
100
AcDbEntity
  8
基礎穴
100
AcDbCircle
 10
1226.1855484025
 20
5493.1579896578
 30
0.0
 40
12.00000000000005
  0
CIRCLE
  5
22C
330
1F
100
AcDbEntity
  8
基礎穴
100
AcDbCircle
 10
456.1855484025
 20
5493.1579896578
 30
0.0
 40
11.99999999999994
  0
LINE
  5
22D
330
1F
100
AcDbEntity
  8
2
100
AcDbLine
 10
1086.1855484025
 20
5636.7096699351
 30
0.0
 11
1086.1855484025
 21
6402.1247838104
 31
0.0
  0
LINE
  5
22E
330
1F
100
AcDbEntity
  8
2
100
AcDbLine
 10
1800.585936958
 20
6185.1579896578
 30
0.0
 11
892.6618892115
 21
6185.1579896578
 31
0.0
  0
ENDSEC
  0
SECTION
  2
OBJECTS
  0
DICTIONARY
  5
C
330
0
100
AcDbDictionary
281
     1
  3
ACAD_GROUP
350
D
  3
ACAD_LAYOUT
350
1A
  3
ACAD_MLINESTYLE
350
17
  3
ACAD_PLOTSETTINGS
350
19
  3
ACAD_PLOTSTYLENAME
350
E
  3
ACAD_SCALELIST
350
47
  3
DWGPROPS
350
22F
  0
DICTIONARY
  5
D
102
{ACAD_REACTORS
330
C
102
}
330
C
100
AcDbDictionary
281
     1
  0
DICTIONARY
  5
1A
102
{ACAD_REACTORS
330
C
102
}
330
C
100
AcDbDictionary
281
     1
  3
Layout1
350
1E
  3
Layout2
350
26
  3
Model
350
22
  0
DICTIONARY
  5
17
102
{ACAD_REACTORS
330
C
102
}
330
C
100
AcDbDictionary
281
     1
  3
Standard
350
18
  0
DICTIONARY
  5
19
102
{ACAD_REACTORS
330
C
102
}
330
C
100
AcDbDictionary
281
     1
  0
ACDBDICTIONARYWDFLT
  5
E
102
{ACAD_REACTORS
330
C
102
}
330
C
100
AcDbDictionary
281
     1
  3
Normal
350
F
100
AcDbDictionaryWithDefault
340
F
  0
DICTIONARY
  5
47
102
{ACAD_REACTORS
330
C
102
}
330
C
100
AcDbDictionary
281
     1
  3
A0
350
48
  3
A1
350
49
  3
A2
350
4A
  3
A3
350
4B
  3
A4
350
4C
  3
A5
350
4D
  3
A6
350
4E
  3
A7
350
4F
  3
A8
350
50
  3
A9
350
51
  3
B0
350
52
  3
B1
350
53
  3
B2
350
54
  3
B3
350
55
  3
B4
350
56
  3
B5
350
57
  3
B6
350
58
  0
XRECORD
  5
22F
102
{ACAD_REACTORS
330
C
102
}
330
C
100
AcDbXrecord
280
     1
  1
DWGPROPS COOKIE
  2

  3

  4

  6

  7

  8
yuta.kunimatsu
  9

300
=
301
=
302
=
303
=
304
=
305
=
306
=
307
=
308
=
309
=
 40
0.0
 41
2460174.417534259
 42
2460174.41753728
  1

 90
        0
  0
LAYOUT
  5
1E
102
{ACAD_REACTORS
330
1A
102
}
330
1A
100
AcDbPlotSettings
  1

  2
none_device
  4

  6

 40
0.0
 41
0.0
 42
0.0
 43
0.0
 44
0.0
 45
0.0
 46
0.0
 47
0.0
 48
0.0
 49
0.0
140
0.0
141
0.0
142
1.0
143
1.0
 70
   688
 72
     1
 73
     0
 74
     5
  7

 75
    16
147
1.0
148
0.0
149
0.0
100
AcDbLayout
  1
Layout1
 70
     1
 71
     1
 10
0.0
 20
0.0
 11
420.0
 21
297.0
 12
0.0
 22
0.0
 32
0.0
 14
1.0000000000E+20
 24
1.0000000000E+20
 34
1.0000000000E+20
 15
-1.0000000000E+20
 25
-1.0000000000E+20
 35
-1.0000000000E+20
146
0.0
 13
0.0
 23
0.0
 33
0.0
 16
1.0
 26
0.0
 36
0.0
 17
0.0
 27
1.0
 37
0.0
 76
     0
330
1B
  0
LAYOUT
  5
26
102
{ACAD_REACTORS
330
1A
102
}
330
1A
100
AcDbPlotSettings
  1

  2
none_device
  4

  6

 40
0.0
 41
0.0
 42
0.0
 43
0.0
 44
0.0
 45
0.0
 46
0.0
 47
0.0
 48
0.0
 49
0.0
140
0.0
141
0.0
142
1.0
143
1.0
 70
   688
 72
     1
 73
     0
 74
     5
  7

 75
    16
147
1.0
148
0.0
149
0.0
100
AcDbLayout
  1
Layout2
 70
     1
 71
     2
 10
0.0
 20
0.0
 11
0.0
 21
0.0
 12
0.0
 22
0.0
 32
0.0
 14
0.0
 24
0.0
 34
0.0
 15
0.0
 25
0.0
 35
0.0
146
0.0
 13
0.0
 23
0.0
 33
0.0
 16
1.0
 26
0.0
 36
0.0
 17
0.0
 27
1.0
 37
0.0
 76
     0
330
23
  0
LAYOUT
  5
22
102
{ACAD_REACTORS
330
1A
102
}
330
1A
100
AcDbPlotSettings
  1

  2
none_device
  4
Letter_(8.50_x_11.00_Inches)
  6

 40
6.35
 41
6.35
 42
6.35000508
 43
6.35000508
 44
215.9
 45
279.4
 46
0.0
 47
0.0
 48
0.0
 49
0.0
140
0.0
141
0.0
142
1.0
143
1.0
 70
  1712
 72
     1
 73
     0
 74
     0
  7

 75
     0
147
1.0
148
0.0
149
0.0
100
AcDbLayout
  1
Model
 70
     1
 71
     0
 10
0.0
 20
0.0
 11
5250.0
 21
7425.0
 12
0.0
 22
0.0
 32
0.0
 14
0.0
 24
0.0
 34
0.0
 15
5250.0
 25
7425.0
 35
0.0
146
0.0
 13
0.0
 23
0.0
 33
0.0
 16
1.0
 26
0.0
 36
0.0
 17
0.0
 27
1.0
 37
0.0
 76
     0
330
1F
331
29
  0
MLINESTYLE
  5
18
102
{ACAD_REACTORS
330
17
102
}
330
17
100
AcDbMlineStyle
  2
Standard
 70
     0
  3

 62
   256
 51
90.0
 52
90.0
 71
     2
 49
0.5
 62
   256
  6
BYLAYER
 49
-0.5
 62
   256
  6
BYLAYER
  0
ACDBPLACEHOLDER
  5
F
102
{ACAD_REACTORS
330
E
102
}
330
E
  0
SCALE
  5
48
102
{ACAD_REACTORS
330
47
102
}
330
47
100
AcDbScale
 70
     0
300
1:1
140
1.0
141
1.0
290
     1
  0
SCALE
  5
49
102
{ACAD_REACTORS
330
47
102
}
330
47
100
AcDbScale
 70
     0
300
1:2
140
1.0
141
2.0
290
     0
  0
SCALE
  5
4A
102
{ACAD_REACTORS
330
47
102
}
330
47
100
AcDbScale
 70
     0
300
1:4
140
1.0
141
4.0
290
     0
  0
SCALE
  5
4B
102
{ACAD_REACTORS
330
47
102
}
330
47
100
AcDbScale
 70
     0
300
1:5
140
1.0
141
5.0
290
     0
  0
SCALE
  5
4C
102
{ACAD_REACTORS
330
47
102
}
330
47
100
AcDbScale
 70
     0
300
1:8
140
1.0
141
8.0
290
     0
  0
SCALE
  5
4D
102
{ACAD_REACTORS
330
47
102
}
330
47
100
AcDbScale
 70
     0
300
1:10
140
1.0
141
10.0
290
     0
  0
SCALE
  5
4E
102
{ACAD_REACTORS
330
47
102
}
330
47
100
AcDbScale
 70
     0
300
1:16
140
1.0
141
16.0
290
     0
  0
SCALE
  5
4F
102
{ACAD_REACTORS
330
47
102
}
330
47
100
AcDbScale
 70
     0
300
1:20
140
1.0
141
20.0
290
     0
  0
SCALE
  5
50
102
{ACAD_REACTORS
330
47
102
}
330
47
100
AcDbScale
 70
     0
300
1:30
140
1.0
141
30.0
290
     0
  0
SCALE
  5
51
102
{ACAD_REACTORS
330
47
102
}
330
47
100
AcDbScale
 70
     0
300
1:40
140
1.0
141
40.0
290
     0
  0
SCALE
  5
52
102
{ACAD_REACTORS
330
47
102
}
330
47
100
AcDbScale
 70
     0
300
1:50
140
1.0
141
50.0
290
     0
  0
SCALE
  5
53
102
{ACAD_REACTORS
330
47
102
}
330
47
100
AcDbScale
 70
     0
300
1:100
140
1.0
141
100.0
290
     0
  0
SCALE
  5
54
102
{ACAD_REACTORS
330
47
102
}
330
47
100
AcDbScale
 70
     0
300
2:1
140
2.0
141
1.0
290
     0
  0
SCALE
  5
55
102
{ACAD_REACTORS
330
47
102
}
330
47
100
AcDbScale
 70
     0
300
4:1
140
4.0
141
1.0
290
     0
  0
SCALE
  5
56
102
{ACAD_REACTORS
330
47
102
}
330
47
100
AcDbScale
 70
     0
300
8:1
140
8.0
141
1.0
290
     0
  0
SCALE
  5
57
102
{ACAD_REACTORS
330
47
102
}
330
47
100
AcDbScale
 70
     0
300
10:1
140
10.0
141
1.0
290
     0
  0
SCALE
  5
58
102
{ACAD_REACTORS
330
47
102
}
330
47
100
AcDbScale
 70
     0
300
100:1
140
100.0
141
1.0
290
     0
  0
ENDSEC
  0
EOF
