  0
SECTION
  2
HEADER
  9
$ACADVER
  1
AC1015
  9
$ACADMAINTVER
 70
     6
  9
$DWGCODEPAGE
  3
DOS932
  9
$INSBASE
 10
0.0
 20
0.0
 30
0.0
  9
$EXTMIN
 10
0.0
 20
0.0
 30
0.0
  9
$EXTMAX
 10
5250.0
 20
7425.0
 30
0.0
  9
$LIMMIN
 10
0.0
 20
0.0
  9
$LIMMAX
 10
5250.0
 20
7425.0
  9
$ORTHOMODE
 70
     0
  9
$REGENMODE
 70
     1
  9
$FILLMODE
 70
     1
  9
$QTEXTMODE
 70
     0
  9
$MIRRTEXT
 70
     1
  9
$LTSCALE
 40
25.0
  9
$ATTMODE
 70
     1
  9
$TEXTSIZE
 40
70.5555555556
  9
$TRACEWID
 40
1.0
  9
$TEXTSTYLE
  7
Standard
  9
$CLAYER
  8
0
  9
$CELTYPE
  6
ByLayer
  9
$CECOLOR
 62
   256
  9
$CELTSCALE
 40
1.0
  9
$DISPSILH
 70
     0
  9
$DIMSCALE
 40
1.0
  9
$DIMASZ
 40
37.5
  9
$DIMEXO
 40
25.0
  9
$DIMDLI
 40
3.75
  9
$DIMRND
 40
0.0
  9
$DIMDLE
 40
0.0
  9
$DIMEXE
 40
25.0
  9
$DIMTP
 40
0.0
  9
$DIMTM
 40
0.0
  9
$DIMTXT
 40
70.5555555556
  9
$DIMCEN
 40
2.5
  9
$DIMTSZ
 40
0.0
  9
$DIMTOL
 70
     0
  9
$DIMLIM
 70
     0
  9
$DIMTIH
 70
     1
  9
$DIMTOH
 70
     1
  9
$DIMSE1
 70
     0
  9
$DIMSE2
 70
     0
  9
$DIMTAD
 70
     1
  9
$DIMZIN
 70
     0
  9
$DIMBLK
  1

  9
$DIMASO
 70
     1
  9
$DIMSHO
 70
     1
  9
$DIMPOST
  1

  9
$DIMAPOST
  1

  9
$DIMALT
 70
     0
  9
$DIMALTD
 70
     3
  9
$DIMALTF
 40
0.0393700787
  9
$DIMLFAC
 40
1.0
  9
$DIMTOFL
 70
     1
  9
$DIMTVP
 40
0.0
  9
$DIMTIX
 70
     0
  9
$DIMSOXD
 70
     0
  9
$DIMSAH
 70
     0
  9
$DIMBLK1
  1

  9
$DIMBLK2
  1

  9
$DIMSTYLE
  2
ISO-25
  9
$DIMCLRD
 70
     0
  9
$DIMCLRE
 70
     0
  9
$DIMCLRT
 70
     0
  9
$DIMTFAC
 40
1.0
  9
$DIMGAP
 40
38.1
  9
$DIMJUST
 70
     0
  9
$DIMSD1
 70
     0
  9
$DIMSD2
 70
     0
  9
$DIMTOLJ
 70
     0
  9
$DIMTZIN
 70
     0
  9
$DIMALTZ
 70
     0
  9
$DIMALTTZ
 70
     0
  9
$DIMUPT
 70
     0
  9
$DIMDEC
 70
     0
  9
$DIMTDEC
 70
     0
  9
$DIMALTU
 70
     2
  9
$DIMALTTD
 70
     3
  9
$DIMTXSTY
  7
Standard
  9
$DIMAUNIT
 70
     0
  9
$DIMADEC
 70
     2
  9
$DIMALTRND
 40
0.0
  9
$DIMAZIN
 70
     0
  9
$DIMDSEP
 70
    44
  9
$DIMATFIT
 70
     3
  9
$DIMFRAC
 70
     0
  9
$DIMLDRBLK
  1

  9
$DIMLUNIT
 70
     2
  9
$DIMLWD
 70
    -2
  9
$DIMLWE
 70
    -2
  9
$DIMTMOVE
 70
     0
  9
$LUNITS
 70
     2
  9
$LUPREC
 70
     2
  9
$SKETCHINC
 40
1.0
  9
$FILLETRAD
 40
0.0
  9
$AUNITS
 70
     0
  9
$AUPREC
 70
     2
  9
$MENU
  1
.
  9
$ELEVATION
 40
0.0
  9
$PELEVATION
 40
0.0
  9
$THICKNESS
 40
0.0
  9
$LIMCHECK
 70
     0
  9
$CHAMFERA
 40
0.0
  9
$CHAMFERB
 40
0.0
  9
$CHAMFERC
 40
0.0
  9
$CHAMFERD
 40
0.0
  9
$SKPOLY
 70
     0
  9
$TDCREATE
 40
2460174.792395139
  9
$TDUCREATE
 40
2460174.417395139
  9
$TDUPDATE
 40
2460174.792398171
  9
$TDUUPDATE
 40
2460174.417398171
  9
$TDINDWG
 40
0.0000000116
  9
$TDUSRTIMER
 40
0.0000000116
  9
$USRTIMER
 70
     1
  9
$ANGBASE
 50
0.0
  9
$ANGDIR
 70
     0
  9
$PDMODE
 70
     0
  9
$PDSIZE
 40
-1.0
  9
$PLINEWID
 40
0.0
  9
$SPLFRAME
 70
     0
  9
$SPLINETYPE
 70
     6
  9
$SPLINESEGS
 70
     8
  9
$HANDSEED
  5
23E
  9
$SURFTAB1
 70
     6
  9
$SURFTAB2
 70
     6
  9
$SURFTYPE
 70
     6
  9
$SURFU
 70
     6
  9
$SURFV
 70
     6
  9
$UCSBASE
  2

  9
$UCSNAME
  2

  9
$UCSORG
 10
0.0
 20
0.0
 30
0.0
  9
$UCSXDIR
 10
1.0
 20
0.0
 30
0.0
  9
$UCSYDIR
 10
0.0
 20
1.0
 30
0.0
  9
$UCSORTHOREF
  2

  9
$UCSORTHOVIEW
 70
     0
  9
$UCSORGTOP
 10
0.0
 20
0.0
 30
0.0
  9
$UCSORGBOTTOM
 10
0.0
 20
0.0
 30
0.0
  9
$UCSORGLEFT
 10
0.0
 20
0.0
 30
0.0
  9
$UCSORGRIGHT
 10
0.0
 20
0.0
 30
0.0
  9
$UCSORGFRONT
 10
0.0
 20
0.0
 30
0.0
  9
$UCSORGBACK
 10
0.0
 20
0.0
 30
0.0
  9
$PUCSBASE
  2

  9
$PUCSNAME
  2

  9
$PUCSORG
 10
0.0
 20
0.0
 30
0.0
  9
$PUCSXDIR
 10
1.0
 20
0.0
 30
0.0
  9
$PUCSYDIR
 10
0.0
 20
1.0
 30
0.0
  9
$PUCSORTHOREF
  2

  9
$PUCSORTHOVIEW
 70
     0
  9
$PUCSORGTOP
 10
0.0
 20
0.0
 30
0.0
  9
$PUCSORGBOTTOM
 10
0.0
 20
0.0
 30
0.0
  9
$PUCSORGLEFT
 10
0.0
 20
0.0
 30
0.0
  9
$PUCSORGRIGHT
 10
0.0
 20
0.0
 30
0.0
  9
$PUCSORGFRONT
 10
0.0
 20
0.0
 30
0.0
  9
$PUCSORGBACK
 10
0.0
 20
0.0
 30
0.0
  9
$USERI1
 70
     0
  9
$USERI2
 70
     0
  9
$USERI3
 70
     0
  9
$USERI4
 70
     0
  9
$USERI5
 70
     0
  9
$USERR1
 40
0.0
  9
$USERR2
 40
0.0
  9
$USERR3
 40
0.0
  9
$USERR4
 40
0.0
  9
$USERR5
 40
0.0
  9
$WORLDVIEW
 70
     1
  9
$SHADEDGE
 70
     3
  9
$SHADEDIF
 70
    70
  9
$TILEMODE
 70
     1
  9
$MAXACTVP
 70
    64
  9
$PINSBASE
 10
0.0
 20
0.0
 30
0.0
  9
$PLIMCHECK
 70
     0
  9
$PEXTMIN
 10
1.0000000000E+20
 20
1.0000000000E+20
 30
1.0000000000E+20
  9
$PEXTMAX
 10
-1.0000000000E+20
 20
-1.0000000000E+20
 30
-1.0000000000E+20
  9
$PLIMMIN
 10
0.0
 20
0.0
  9
$PLIMMAX
 10
420.0
 20
297.0
  9
$UNITMODE
 70
     0
  9
$VISRETAIN
 70
     1
  9
$PLINEGEN
 70
     0
  9
$PSLTSCALE
 70
     1
  9
$TREEDEPTH
 70
  3020
  9
$CMLSTYLE
  2
Standard
  9
$CMLJUST
 70
     0
  9
$CMLSCALE
 40
20.0
  9
$PROXYGRAPHICS
 70
     1
  9
$MEASUREMENT
 70
     1
  9
$CELWEIGHT
370
    -1
  9
$ENDCAPS
280
     0
  9
$JOINSTYLE
280
     0
  9
$LWDISPLAY
290
     1
  9
$INSUNITS
 70
     4
  9
$HYPERLINKBASE
  1

  9
$STYLESHEET
  1

  9
$XEDIT
290
     1
  9
$CEPSNTYPE
380
     0
  9
$PSTYLEMODE
290
     1
  9
$FINGERPRINTGUID
  2
{0b613a97-4ad9-4a2f-b52b-52b79a5128a1}
  9
$VERSIONGUID
  2
{FAEB1C32-E019-11D5-929B-00C0DF256EC4}
  9
$EXTNAMES
290
     1
  9
$PSVPSCALE
 40
0.0
  9
$OLESTARTUP
290
     0
  0
ENDSEC
  0
SECTION
  2
CLASSES
  0
CLASS
  1
ACDBDICTIONARYWDFLT
  2
AcDbDictionaryWithDefault
  3
ObjectDBX Classes
 90
        0
280
     0
281
     0
  0
CLASS
  1
VISUALSTYLE
  2
AcDbVisualStyle
  3
ObjectDBX Classes
 90
     4095
280
     0
281
     0
  0
CLASS
  1
MATERIAL
  2
AcDbMaterial
  3
ObjectDBX Classes
 90
     1153
280
     0
281
     0
  0
CLASS
  1
SCALE
  2
AcDbScale
  3
ObjectDBX Classes
 90
     1153
280
     0
281
     0
  0
CLASS
  1
TABLESTYLE
  2
AcDbTableStyle
  3
ObjectDBX Classes
 90
     4095
280
     0
281
     0
  0
CLASS
  1
MLEADERSTYLE
  2
AcDbMLeaderStyle
  3
ACDB_MLEADERSTYLE_CLASS
 90
     4095
280
     0
281
     0
  0
CLASS
  1
SUN
  2
AcDbSun
  3
SCENEOE
 90
     1153
280
     0
281
     0
  0
CLASS
  1
ACDBPLACEHOLDER
  2
AcDbPlaceHolder
  3
ObjectDBX Classes
 90
        0
280
     0
281
     0
  0
CLASS
  1
LAYOUT
  2
AcDbLayout
  3
ObjectDBX Classes
 90
        0
280
     0
281
     0
  0
ENDSEC
  0
SECTION
  2
TABLES
  0
TABLE
  2
VPORT
  5
8
330
0
100
AcDbSymbolTable
 70
     1
  0
VPORT
  5
29
330
8
100
AcDbSymbolTableRecord
100
AcDbViewportTableRecord
  2
*Active
 70
     0
 10
0.0
 20
0.0
 11
1.0
 21
1.0
 12
2625.0
 22
3712.5
 13
0.0
 23
0.0
 14
10.0
 24
10.0
 15
10.0
 25
10.0
 16
0.0
 26
0.0
 36
1.0
 17
0.0
 27
0.0
 37
0.0
 40
7425.0
 41
0.7070707071
 42
50.0
 43
0.0
 44
0.0
 50
0.0
 51
0.0
 71
     0
 72
  2000
 73
     1
 74
     3
 75
     0
 76
     0
 77
     0
 78
     0
281
     0
 65
     1
110
0.0
120
0.0
130
0.0
111
1.0
121
0.0
131
0.0
112
0.0
122
1.0
132
0.0
 79
     0
146
0.0
  0
ENDTAB
  0
TABLE
  2
LTYPE
  5
5
330
0
100
AcDbSymbolTable
 70
     6
  0
LTYPE
  5
14
330
5
100
AcDbSymbolTableRecord
100
AcDbLinetypeTableRecord
  2
ByBlock
 70
     0
  3

 72
    65
 73
     0
 40
0.0
  0
LTYPE
  5
15
330
5
100
AcDbSymbolTableRecord
100
AcDbLinetypeTableRecord
  2
ByLayer
 70
     0
  3

 72
    65
 73
     0
 40
0.0
  0
LTYPE
  5
16
330
5
100
AcDbSymbolTableRecord
100
AcDbLinetypeTableRecord
  2
Continuous
 70
     0
  3
Solid line
 72
    65
 73
     0
 40
0.0
  0
LTYPE
  5
5E
330
5
100
AcDbSymbolTableRecord
100
AcDbLinetypeTableRecord
  2
HIDDEN
 70
     0
  3
Hidden __ __ __ __ __ __ __ __ __ __ __ __ __ __
 72
    65
 73
     2
 40
1.905
 49
1.27
 74
     0
 49
-0.635
 74
     0
  0
LTYPE
  5
5F
330
5
100
AcDbSymbolTableRecord
100
AcDbLinetypeTableRecord
  2
PHANTOM
 70
     0
  3
Phantom ______  __  __  ______  __  __  ______
 72
    65
 73
     6
 40
12.7
 49
6.35
 74
     0
 49
-1.27
 74
     0
 49
1.27
 74
     0
 49
-1.27
 74
     0
 49
1.27
 74
     0
 49
-1.27
 74
     0
  0
LTYPE
  5
60
330
5
100
AcDbSymbolTableRecord
100
AcDbLinetypeTableRecord
  2
CENTER
 70
     0
  3
Center ____ _ ____ _ ____ _ ____ _ ____ _ ____
 72
    65
 73
     4
 40
10.16
 49
6.35
 74
     0
 49
-1.27
 74
     0
 49
1.27
 74
     0
 49
-1.27
 74
     0
  0
LTYPE
  5
61
330
5
100
AcDbSymbolTableRecord
100
AcDbLinetypeTableRecord
  2
CENTERX2
 70
     0
  3
Center (2x) ________  __  ________  __  _____
 72
    65
 73
     4
 40
20.32
 49
12.7
 74
     0
 49
-2.54
 74
     0
 49
2.54
 74
     0
 49
-2.54
 74
     0
  0
LTYPE
  5
62
330
5
100
AcDbSymbolTableRecord
100
AcDbLinetypeTableRecord
  2
DOT2
 70
     0
  3
Dot (.5x) ........................................
 72
    65
 73
     2
 40
0.635
 49
0.0
 74
     0
 49
-0.635
 74
     0
  0
ENDTAB
  0
TABLE
  2
LAYER
  5
2
330
0
100
AcDbSymbolTable
 70
     6
  0
LAYER
  5
10
330
2
100
AcDbSymbolTableRecord
100
AcDbLayerTableRecord
  2
0
 70
     0
 62
     7
  6
Continuous
370
    -3
390
F
  0
LAYER
  5
63
330
2
100
AcDbSymbolTableRecord
100
AcDbLayerTableRecord
  2
1
 70
     0
 62
     4
  6
Continuous
370
    25
390
F
  0
LAYER
  5
64
330
2
100
AcDbSymbolTableRecord
100
AcDbLayerTableRecord
  2
2
 70
     0
 62
     3
  6
CENTERX2
370
    -3
390
F
  0
LAYER
  5
65
330
2
100
AcDbSymbolTableRecord
100
AcDbLayerTableRecord
  2
3
 70
     0
 62
     2
  6
Continuous
370
    -3
390
F
  0
LAYER
  5
66
330
2
100
AcDbSymbolTableRecord
100
AcDbLayerTableRecord
  2
4
 70
     0
 62
     7
  6
Continuous
370
    -3
390
F
  0
LAYER
  5
67
330
2
100
AcDbSymbolTableRecord
100
AcDbLayerTableRecord
  2
基礎穴
 70
     0
 62
     1
  6
PHANTOM
370
    35
390
F
  0
ENDTAB
  0
TABLE
  2
STYLE
  5
3
330
0
100
AcDbSymbolTable
 70
     2
  0
STYLE
  5
11
330
3
100
AcDbSymbolTableRecord
100
AcDbTextStyleTableRecord
  2
Standard
 70
     0
 40
0.0
 41
1.0
 50
0.0
 71
     0
 42
70.5555555556
  3
txt
  4
bigfont
  0
STYLE
  5
68
330
3
100
AcDbSymbolTableRecord
100
AcDbTextStyleTableRecord
  2
SLDTEXTSTYLE0
 70
     0
 40
0.0
 41
0.7
 50
0.0
 71
     0
 42
70.5555555556
  3
TXT
  4
bigfont
  0
ENDTAB
  0
TABLE
  2
VIEW
  5
6
330
0
100
AcDbSymbolTable
 70
     0
  0
ENDTAB
  0
TABLE
  2
UCS
  5
7
330
0
100
AcDbSymbolTable
 70
     0
  0
ENDTAB
  0
TABLE
  2
APPID
  5
9
330
0
100
AcDbSymbolTable
 70
     1
  0
APPID
  5
12
330
9
100
AcDbSymbolTableRecord
100
AcDbRegAppTableRecord
  2
ACAD
 70
     0
  0
ENDTAB
  0
TABLE
  2
DIMSTYLE
  5
A
330
0
100
AcDbSymbolTable
 70
     1
100
AcDbDimStyleTable
  0
DIMSTYLE
105
27
330
A
100
AcDbSymbolTableRecord
100
AcDbDimStyleTableRecord
  2
ISO-25
 70
     0
 41
2.5
 42
0.625
 43
3.75
 44
1.25
 73
     0
 74
     0
 77
     1
 78
     8
140
2.5
141
2.5
143
0.0393700787
147
0.625
171
     3
172
     1
178
     0
271
     2
272
     2
274
     3
278
    44
283
     0
284
     8
340
11
  0
ENDTAB
  0
TABLE
  2
BLOCK_RECORD
  5
1
330
0
100
AcDbSymbolTable
 70
     2
  0
BLOCK_RECORD
  5
1F
330
1
100
AcDbSymbolTableRecord
100
AcDbBlockTableRecord
  2
*Model_Space
340
22
  0
BLOCK_RECORD
  5
1B
330
1
100
AcDbSymbolTableRecord
100
AcDbBlockTableRecord
  2
*Paper_Space
340
1E
  0
BLOCK_RECORD
  5
23
330
1
100
AcDbSymbolTableRecord
100
AcDbBlockTableRecord
  2
*Paper_Space0
340
26
  0
BLOCK_RECORD
  5
DF
330
1
100
AcDbSymbolTableRecord
100
AcDbBlockTableRecord
  2
SW_CENTERMARKSYMBOL_0
340
0
102
{BLKREFS
331
EA
102
}
  0
ENDTAB
  0
ENDSEC
  0
SECTION
  2
BLOCKS
  0
BLOCK
  5
20
330
1F
100
AcDbEntity
  8
0
100
AcDbBlockBegin
  2
*Model_Space
 70
     0
 10
0.0
 20
0.0
 30
0.0
  3
*Model_Space
  1

  0
ENDBLK
  5
21
330
1F
100
AcDbEntity
  8
0
100
AcDbBlockEnd
  0
BLOCK
  5
1C
330
1B
100
AcDbEntity
 67
     1
  8
0
100
AcDbBlockBegin
  2
*Paper_Space
 70
     0
 10
0.0
 20
0.0
 30
0.0
  3
*Paper_Space
  1

  0
ENDBLK
  5
1D
330
1B
100
AcDbEntity
 67
     1
  8
0
100
AcDbBlockEnd
  0
BLOCK
  5
24
330
23
100
AcDbEntity
  8
0
100
AcDbBlockBegin
  2
*Paper_Space0
 70
     0
 10
0.0
 20
0.0
 30
0.0
  3
*Paper_Space0
  1

  0
ENDBLK
  5
25
330
23
100
AcDbEntity
  8
0
100
AcDbBlockEnd
  0
BLOCK
  5
E0
330
DF
100
AcDbEntity
  8
0
100
AcDbBlockBegin
  2
SW_CENTERMARKSYMBOL_0
 70
     0
 10
0.0
 20
0.0
 30
0.0
  3
SW_CENTERMARKSYMBOL_0
  1

  0
LINE
  5
E2
330
DF
100
AcDbEntity
  8
2
 62
     0
100
AcDbLine
 10
0.0
 20
0.0
 30
0.0
 11
0.0
 21
2.5
 31
0.0
  0
LINE
  5
E3
330
DF
100
AcDbEntity
  8
2
 62
     0
100
AcDbLine
 10
0.0
 20
0.0
 30
0.0
 11
-2.5
 21
0.0
 31
0.0
  0
LINE
  5
E4
330
DF
100
AcDbEntity
  8
2
 62
     0
100
AcDbLine
 10
0.0
 20
0.0
 30
0.0
 11
0.0
 21
-2.5
 31
0.0
  0
LINE
  5
E5
330
DF
100
AcDbEntity
  8
2
 62
     0
100
AcDbLine
 10
0.0
 20
0.0
 30
0.0
 11
2.5
 21
0.0
 31
0.0
  0
LINE
  5
E6
330
DF
100
AcDbEntity
  8
2
 62
     0
100
AcDbLine
 10
0.0
 20
5.0
 30
0.0
 11
0.0
 21
677.5
 31
0.0
  0
LINE
  5
E7
330
DF
100
AcDbEntity
  8
2
 62
     0
100
AcDbLine
 10
-5.0
 20
0.0
 30
0.0
 11
-677.5
 21
0.0
 31
0.0
  0
LINE
  5
E8
330
DF
100
AcDbEntity
  8
2
 62
     0
100
AcDbLine
 10
0.0
 20
-5.0
 30
0.0
 11
0.0
 21
-677.5
 31
0.0
  0
LINE
  5
E9
330
DF
100
AcDbEntity
  8
2
 62
     0
100
AcDbLine
 10
5.0
 20
0.0
 30
0.0
 11
677.5
 21
0.0
 31
0.0
  0
ENDBLK
  5
E1
330
DF
100
AcDbEntity
  8
0
100
AcDbBlockEnd
  0
ENDSEC
  0
SECTION
  2
ENTITIES
  0
MTEXT
  5
69
330
1F
100
AcDbEntity
  8
0
  6
Continuous
 62
     7
370
     0
100
AcDbMText
 10
4207.2776346267
 20
1190.3549085792
 30
0.0
 40
70.5555555556
 41
0.0
 71
     1
 72
     1
  1
LL08040YS01K-R1
  7
SLDTEXTSTYLE0
 73
     1
 44
1.0
  0
LINE
  5
6A
330
1F
100
AcDbEntity
  8
1
100
AcDbLine
 10
2700.2123732626
 20
1749.243691491
 30
0.0
 11
2700.2123732626
 21
1644.243691491
 31
0.0
  0
LINE
  5
6B
330
1F
100
AcDbEntity
  8
1
100
AcDbLine
 10
2735.2123732626
 20
1644.243691491
 30
0.0
 11
2735.2123732626
 21
1749.243691491
 31
0.0
  0
LINE
  5
6C
330
1F
100
AcDbEntity
  8
1
100
AcDbLine
 10
300.2123732626
 20
1749.243691491
 30
0.0
 11
300.2123732626
 21
1644.243691491
 31
0.0
  0
LINE
  5
6D
330
1F
100
AcDbEntity
  8
1
100
AcDbLine
 10
335.2123732626
 20
1644.243691491
 30
0.0
 11
335.2123732626
 21
1749.243691491
 31
0.0
  0
LINE
  5
6E
330
1F
100
AcDbEntity
  8
1
100
AcDbLine
 10
1907.4440276787
 20
2969.7559157441
 30
0.0
 11
504.2676857654
 21
2327.4632227334
 31
0.0
  0
ARC
  5
6F
330
1F
100
AcDbEntity
  8
1
100
AcDbCircle
 10
2042.7123732626
 20
2674.243691491
 30
0.0
 40
324.9999999999995
100
AcDbArc
 50
286.2564919093
 51
114.5955576169
  0
LINE
  5
70
330
1F
100
AcDbEntity
  8
1
100
AcDbLine
 10
652.1991538219
 20
1930.2398362856
 30
0.0
 11
2133.6921552944
 21
2362.2377952945
 31
0.0
  0
ARC
  5
71
330
1F
100
AcDbEntity
  8
1
100
AcDbCircle
 10
592.7123732626
 20
2134.243691491
 30
0.0
 40
212.4999999999998
100
AcDbArc
 50
114.5955576169
 51
286.2564919093
  0
LINE
  5
72
330
1F
100
AcDbEntity
  8
1
100
AcDbLine
 10
817.7123732626
 20
1899.243691491
 30
0.0
 11
817.7123732626
 21
1954.243691491
 31
0.0
  0
LINE
  5
73
330
1F
100
AcDbEntity
  8
1
100
AcDbLine
 10
367.7123732626
 20
1899.243691491
 30
0.0
 11
367.7123732626
 21
1954.243691491
 31
0.0
  0
LINE
  5
74
330
1F
100
AcDbEntity
  8
1
100
AcDbLine
 10
817.7123732626
 20
1954.243691491
 30
0.0
 11
734.5179304588
 21
1954.243691491
 31
0.0
  0
LINE
  5
75
330
1F
100
AcDbEntity
  8
1
100
AcDbLine
 10
479.7688032818
 20
1954.243691491
 30
0.0
 11
367.7123732626
 21
1954.243691491
 31
0.0
  0
LINE
  5
76
330
1F
100
AcDbEntity
  8
1
100
AcDbLine
 10
455.1905568115
 20
1972.243691491
 30
0.0
 11
449.7123732626
 21
1972.243691491
 31
0.0
  0
LINE
  5
77
330
1F
100
AcDbEntity
  8
1
100
AcDbLine
 10
449.7123732626
 20
1972.243691491
 30
0.0
 11
449.7123732626
 21
1954.243691491
 31
0.0
  0
LINE
  5
78
330
1F
100
AcDbEntity
  8
1
100
AcDbLine
 10
735.7123732626
 20
1954.243691491
 30
0.0
 11
735.7123732626
 21
1954.5919866587
 31
0.0
  0
LINE
  5
79
330
1F
100
AcDbEntity
  8
1
100
AcDbLine
 10
2792.7123732627
 20
1569.243691491
 30
0.0
 11
242.7123732626
 21
1569.243691491
 31
0.0
  0
LINE
  5
7A
330
1F
100
AcDbEntity
  8
1
100
AcDbLine
 10
242.7123732626
 20
1569.243691491
 30
0.0
 11
242.7123732626
 21
1575.243691491
 31
0.0
  0
LINE
  5
7B
330
1F
100
AcDbEntity
  8
1
100
AcDbLine
 10
2792.7123732626
 20
1575.243691491
 30
0.0
 11
242.7123732626
 21
1575.243691491
 31
0.0
  0
LINE
  5
7C
330
1F
100
AcDbEntity
  8
1
100
AcDbLine
 10
2792.7123732627
 20
1569.243691491
 30
0.0
 11
2792.7123732626
 21
1575.243691491
 31
0.0
  0
LINE
  5
7D
330
1F
100
AcDbEntity
  8
1
100
AcDbLine
 10
242.7123732626
 20
1644.243691491
 30
0.0
 11
2792.7123732626
 21
1644.243691491
 31
0.0
  0
LINE
  5
7E
330
1F
100
AcDbEntity
  8
1
100
AcDbLine
 10
2792.7123732626
 20
1638.243691491
 30
0.0
 11
2792.7123732626
 21
1644.243691491
 31
0.0
  0
LINE
  5
7F
330
1F
100
AcDbEntity
  8
1
100
AcDbLine
 10
242.7123732626
 20
1638.243691491
 30
0.0
 11
2792.7123732626
 21
1638.243691491
 31
0.0
  0
LINE
  5
80
330
1F
100
AcDbEntity
  8
1
100
AcDbLine
 10
242.7123732626
 20
1638.243691491
 30
0.0
 11
242.7123732626
 21
1644.243691491
 31
0.0
  0
LINE
  5
81
330
1F
100
AcDbEntity
  8
1
100
AcDbLine
 10
311.7123732626
 20
1575.243691491
 30
0.0
 11
311.7123732626
 21
1638.243691491
 31
0.0
  0
LINE
  5
82
330
1F
100
AcDbEntity
  8
1
100
AcDbLine
 10
2723.7123732626
 20
1575.243691491
 30
0.0
 11
2723.7123732626
 21
1638.243691491
 31
0.0
  0
LINE
  5
83
330
1F
100
AcDbEntity
  8
1
100
AcDbLine
 10
242.7123732626
 20
1899.243691491
 30
0.0
 11
2792.7123732626
 21
1899.243691491
 31
0.0
  0
LINE
  5
84
330
1F
100
AcDbEntity
  8
1
100
AcDbLine
 10
2792.7123732626
 20
1899.243691491
 30
0.0
 11
2792.7123732626
 21
1892.743691491
 31
0.0
  0
LINE
  5
85
330
1F
100
AcDbEntity
  8
1
100
AcDbLine
 10
242.7123732626
 20
1892.743691491
 30
0.0
 11
2792.7123732626
 21
1892.743691491
 31
0.0
  0
LINE
  5
86
330
1F
100
AcDbEntity
  8
1
100
AcDbLine
 10
242.7123732626
 20
1899.243691491
 30
0.0
 11
242.7123732626
 21
1892.743691491
 31
0.0
  0
LINE
  5
87
330
1F
100
AcDbEntity
  8
1
100
AcDbLine
 10
242.7123732626
 20
1749.243691491
 30
0.0
 11
2792.7123732626
 21
1749.243691491
 31
0.0
  0
LINE
  5
88
330
1F
100
AcDbEntity
  8
1
100
AcDbLine
 10
242.7123732626
 20
1755.743691491
 30
0.0
 11
242.7123732626
 21
1749.243691491
 31
0.0
  0
LINE
  5
89
330
1F
100
AcDbEntity
  8
1
100
AcDbLine
 10
2792.7123732626
 20
1755.743691491
 30
0.0
 11
2792.7123732626
 21
1749.243691491
 31
0.0
  0
LINE
  5
8A
330
1F
100
AcDbEntity
  8
1
100
AcDbLine
 10
242.7123732626
 20
1755.743691491
 30
0.0
 11
2792.7123732626
 21
1755.743691491
 31
0.0
  0
LINE
  5
8B
330
1F
100
AcDbEntity
  8
1
100
AcDbLine
 10
311.2123732626
 20
1892.743691491
 30
0.0
 11
311.2123732626
 21
1755.743691491
 31
0.0
  0
LINE
  5
8C
330
1F
100
AcDbEntity
  8
1
100
AcDbLine
 10
2724.2123732626
 20
1892.743691491
 30
0.0
 11
2724.2123732626
 21
1755.743691491
 31
0.0
  0
LINE
  5
8D
330
1F
100
AcDbEntity
  8
1
100
AcDbLine
 10
2863.7123732626
 20
2675.243691491
 30
0.0
 11
2867.7123732626
 21
2675.243691491
 31
0.0
  0
LINE
  5
8E
330
1F
100
AcDbEntity
  8
1
100
AcDbLine
 10
2863.7123732626
 20
4061.243691491
 30
0.0
 11
2863.7123732626
 21
2675.243691491
 31
0.0
  0
LINE
  5
8F
330
1F
100
AcDbEntity
  8
1
100
AcDbLine
 10
2863.7123732626
 20
4061.243691491
 30
0.0
 11
2867.7123732626
 21
4061.243691491
 31
0.0
  0
LINE
  5
90
330
1F
100
AcDbEntity
  8
1
100
AcDbLine
 10
2867.7123732626
 20
4061.243691491
 30
0.0
 11
2867.7123732626
 21
2675.243691491
 31
0.0
  0
LINE
  5
91
330
1F
100
AcDbEntity
  8
1
100
AcDbLine
 10
2788.0123732626
 20
2725.943691491
 30
0.0
 11
2863.7123732626
 21
2725.943691491
 31
0.0
  0
LINE
  5
92
330
1F
100
AcDbEntity
  8
1
100
AcDbLine
 10
2788.0123732626
 20
2597.243691491
 30
0.0
 11
2788.0123732626
 21
2725.943691491
 31
0.0
  0
ARC
  5
93
330
1F
100
AcDbEntity
  8
1
100
AcDbCircle
 10
1965.7123732626
 20
2597.243691491
 30
0.0
 40
822.3000000000002
100
AcDbArc
 50
301.914424538
 51
0.0
  0
ARC
  5
94
330
1F
100
AcDbEntity
  8
1
100
AcDbCircle
 10
2133.7123732626
 20
2765.243691491
 30
0.0
 40
1172.3
100
AcDbArc
 50
95.2922613159
 51
180.0
  0
LINE
  5
95
330
1F
100
AcDbEntity
  8
1
100
AcDbLine
 10
2863.7123732626
 20
4010.1830141089
 30
0.0
 11
2025.5839949528
 21
3932.5463702355
 31
0.0
  0
ARC
  5
96
330
1F
100
AcDbEntity
  8
1
100
AcDbCircle
 10
1951.7123732626
 20
2765.243691491
 30
0.0
 40
990.2999999999997
100
AcDbArc
 50
180.0
 51
192.6850660515
  0
ARC
  5
97
330
1F
100
AcDbEntity
  8
1
100
AcDbCircle
 10
1951.7123732626
 20
2765.243691491
 30
0.0
 40
990.2999999999997
100
AcDbArc
 50
222.4960095544
 51
240.9837863648
  0
CIRCLE
  5
98
330
1F
100
AcDbEntity
  8
0
  6
HIDDEN
 62
     7
370
    18
100
AcDbCircle
 10
592.7123732626
 20
2134.243691491
 30
0.0
 40
23.99999999999989
  0
ARC
  5
99
330
1F
100
AcDbEntity
  8
0
  6
HIDDEN
 62
     7
370
    18
100
AcDbCircle
 10
592.7123732626
 20
2134.243691491
 30
0.0
 40
195.4999999999998
100
AcDbArc
 50
298.9928373896
 51
241.0071626104
  0
LINE
  5
9A
330
1F
100
AcDbEntity
  8
0
  6
HIDDEN
 62
     7
370
    18
100
AcDbLine
 10
687.4712778574
 20
1963.243691491
 30
0.0
 11
497.9534686678
 21
1963.243691491
 31
0.0
  0
LINE
  5
9B
330
1F
100
AcDbEntity
  8
0
  6
HIDDEN
 62
     7
370
    18
100
AcDbLine
 10
734.5179304588
 20
1954.243691491
 30
0.0
 11
479.7688032818
 21
1954.243691491
 31
0.0
  0
LINE
  5
9C
330
1F
100
AcDbEntity
  8
0
  6
HIDDEN
 62
     7
370
    18
100
AcDbLine
 10
483.2763188747
 20
1972.243691491
 30
0.0
 11
455.1905568115
 21
1972.243691491
 31
0.0
  0
LINE
  5
9D
330
1F
100
AcDbEntity
  8
0
  6
HIDDEN
 62
     7
370
    18
100
AcDbLine
 10
735.7123732626
 20
1954.5919866587
 30
0.0
 11
735.7123732626
 21
1972.243691491
 31
0.0
  0
LINE
  5
9E
330
1F
100
AcDbEntity
  8
0
  6
HIDDEN
 62
     7
370
    18
100
AcDbLine
 10
735.7123732626
 20
1972.243691491
 30
0.0
 11
702.1484276505
 21
1972.243691491
 31
0.0
  0
CIRCLE
  5
9F
330
1F
100
AcDbEntity
  8
0
  6
HIDDEN
 62
     7
370
    18
100
AcDbCircle
 10
592.7123732626
 20
2134.243691491
 30
0.0
 40
112.4999999999997
  0
CIRCLE
  5
A0
330
1F
100
AcDbEntity
  8
0
  6
HIDDEN
 62
     7
370
    18
100
AcDbCircle
 10
2042.7123732626
 20
2674.243691491
 30
0.0
 40
225.0000000000005
  0
LINE
  5
A1
330
1F
100
AcDbEntity
  8
0
  6
HIDDEN
 62
     7
370
    18
100
AcDbLine
 10
2717.7123732626
 20
1569.243691491
 30
0.0
 11
2717.7123732626
 21
1644.243691491
 31
0.0
  0
LINE
  5
A2
330
1F
100
AcDbEntity
  8
0
  6
HIDDEN
 62
     7
370
    18
100
AcDbLine
 10
317.7123732626
 20
1569.243691491
 30
0.0
 11
317.7123732626
 21
1644.243691491
 31
0.0
  0
LINE
  5
A3
330
1F
100
AcDbEntity
  8
0
  6
HIDDEN
 62
     7
370
    18
100
AcDbLine
 10
2717.7123732626
 20
1899.243691491
 30
0.0
 11
2717.7123732626
 21
1749.243691491
 31
0.0
  0
LINE
  5
A4
330
1F
100
AcDbEntity
  8
0
  6
HIDDEN
 62
     7
370
    18
100
AcDbLine
 10
317.7123732626
 20
1899.243691491
 30
0.0
 11
317.7123732626
 21
1749.243691491
 31
0.0
  0
ARC
  5
A5
330
1F
100
AcDbEntity
  8
0
  6
HIDDEN
 62
     7
370
    18
100
AcDbCircle
 10
1965.7123732626
 20
2597.243691491
 30
0.0
 40
822.3000000000002
100
AcDbArc
 50
270.0
 51
301.914424538
  0
LINE
  5
A6
330
1F
100
AcDbEntity
  8
0
  6
HIDDEN
 62
     7
370
    18
100
AcDbLine
 10
1951.7123732626
 20
1774.943691491
 30
0.0
 11
1965.7123732626
 21
1774.943691491
 31
0.0
  0
ARC
  5
A7
330
1F
100
AcDbEntity
  8
0
  6
HIDDEN
 62
     7
370
    18
100
AcDbCircle
 10
1951.7123732626
 20
2765.243691491
 30
0.0
 40
990.2999999999996
100
AcDbArc
 50
192.6850660515
 51
222.4960095544
  0
ARC
  5
A8
330
1F
100
AcDbEntity
  8
0
  6
HIDDEN
 62
     7
370
    18
100
AcDbCircle
 10
1951.7123732626
 20
2765.243691491
 30
0.0
 40
990.3
100
AcDbArc
 50
240.9837863648
 51
270.0
  0
ARC
  5
A9
330
1F
100
AcDbEntity
  8
0
  6
HIDDEN
 62
     7
370
    18
100
AcDbCircle
 10
1965.7123732626
 20
2597.243691491
 30
0.0
 40
820.0000000000002
100
AcDbArc
 50
270.0
 51
0.0
  0
LINE
  5
AA
330
1F
100
AcDbEntity
  8
0
  6
HIDDEN
 62
     7
370
    18
100
AcDbLine
 10
2785.7123732626
 20
2597.243691491
 30
0.0
 11
2785.7123732626
 21
2728.243691491
 31
0.0
  0
ARC
  5
AB
330
1F
100
AcDbEntity
  8
0
  6
HIDDEN
 62
     7
370
    18
100
AcDbCircle
 10
2133.7123732626
 20
2765.243691491
 30
0.0
 40
1170.0
100
AcDbArc
 50
95.2922613159
 51
180.0
  0
LINE
  5
AC
330
1F
100
AcDbEntity
  8
0
  6
HIDDEN
 62
     7
370
    18
100
AcDbLine
 10
2867.7123732626
 20
4008.243691491
 30
0.0
 11
2025.7961379794
 21
3930.2561747556
 31
0.0
  0
LINE
  5
AD
330
1F
100
AcDbEntity
  8
0
  6
HIDDEN
 62
     7
370
    18
100
AcDbLine
 10
2785.7123732626
 20
2728.243691491
 30
0.0
 11
2867.7123732626
 21
2728.243691491
 31
0.0
  0
ARC
  5
AE
330
1F
100
AcDbEntity
  8
0
  6
HIDDEN
 62
     7
370
    18
100
AcDbCircle
 10
1951.7123732626
 20
2765.243691491
 30
0.0
 40
987.9999999999998
100
AcDbArc
 50
180.0
 51
270.0
  0
LINE
  5
AF
330
1F
100
AcDbEntity
  8
0
  6
HIDDEN
 62
     7
370
    18
100
AcDbLine
 10
1951.7123732626
 20
1777.243691491
 30
0.0
 11
1965.7123732626
 21
1777.243691491
 31
0.0
  0
CIRCLE
  5
B0
330
1F
100
AcDbEntity
  8
0
  6
HIDDEN
 62
     7
370
    18
100
AcDbCircle
 10
2042.7123732626
 20
2674.243691491
 30
0.0
 40
625.0
  0
CIRCLE
  5
B1
330
1F
100
AcDbEntity
  8
0
  6
HIDDEN
 62
     7
370
    18
100
AcDbCircle
 10
2042.7123732626
 20
2674.243691491
 30
0.0
 40
674.9999999999998
  0
CIRCLE
  5
B2
330
1F
100
AcDbEntity
  8
0
  6
HIDDEN
 62
     7
370
    18
100
AcDbCircle
 10
2042.7123732626
 20
2674.243691491
 30
0.0
 40
627.2999999999997
  0
CIRCLE
  5
B3
330
1F
100
AcDbEntity
  8
0
  6
HIDDEN
 62
     7
370
    18
100
AcDbCircle
 10
2341.2111268413
 20
3260.0804811449
 30
0.0
 40
6.0
  0
CIRCLE
  5
B4
330
1F
100
AcDbEntity
  8
0
  6
HIDDEN
 62
     7
370
    18
100
AcDbCircle
 10
2507.6350818928
 20
3139.1664001212
 30
0.0
 40
6.000000000000455
  0
CIRCLE
  5
B5
330
1F
100
AcDbEntity
  8
0
  6
HIDDEN
 62
     7
370
    18
100
AcDbCircle
 10
2628.5491629164
 20
2972.7424450698
 30
0.0
 40
6.0
  0
CIRCLE
  5
B6
330
1F
100
AcDbEntity
  8
0
  6
HIDDEN
 62
     7
370
    18
100
AcDbCircle
 10
2692.1174572039
 20
2777.099352255
 30
0.0
 40
6.0
  0
CIRCLE
  5
B7
330
1F
100
AcDbEntity
  8
0
  6
HIDDEN
 62
     7
370
    18
100
AcDbCircle
 10
2628.5491629164
 20
2375.7449379123
 30
0.0
 40
6.0
  0
CIRCLE
  5
B8
330
1F
100
AcDbEntity
  8
0
  6
HIDDEN
 62
     7
370
    18
100
AcDbCircle
 10
2507.6350818928
 20
2209.3209828609
 30
0.0
 40
6.0
  0
CIRCLE
  5
B9
330
1F
100
AcDbEntity
  8
0
  6
HIDDEN
 62
     7
370
    18
100
AcDbCircle
 10
2341.2111268413
 20
2088.4069018372
 30
0.0
 40
6.000000000000455
  0
CIRCLE
  5
BA
330
1F
100
AcDbEntity
  8
0
  6
HIDDEN
 62
     7
370
    18
100
AcDbCircle
 10
2145.5680340265
 20
2024.8386075497
 30
0.0
 40
6.0
  0
CIRCLE
  5
BB
330
1F
100
AcDbEntity
  8
0
  6
HIDDEN
 62
     7
370
    18
100
AcDbCircle
 10
1939.8567124986
 20
2024.8386075497
 30
0.0
 40
6.000000000000227
  0
CIRCLE
  5
BC
330
1F
100
AcDbEntity
  8
0
  6
HIDDEN
 62
     7
370
    18
100
AcDbCircle
 10
1744.2136196838
 20
2088.4069018372
 30
0.0
 40
6.0
  0
CIRCLE
  5
BD
330
1F
100
AcDbEntity
  8
0
  6
HIDDEN
 62
     7
370
    18
100
AcDbCircle
 10
1577.7896646324
 20
2209.3209828609
 30
0.0
 40
6.0
  0
CIRCLE
  5
BE
330
1F
100
AcDbEntity
  8
0
  6
HIDDEN
 62
     7
370
    18
100
AcDbCircle
 10
1456.8755836087
 20
2375.7449379123
 30
0.0
 40
6.0
  0
CIRCLE
  5
BF
330
1F
100
AcDbEntity
  8
0
  6
HIDDEN
 62
     7
370
    18
100
AcDbCircle
 10
1393.3072893213
 20
2571.3880307271
 30
0.0
 40
6.0
  0
CIRCLE
  5
C0
330
1F
100
AcDbEntity
  8
0
  6
HIDDEN
 62
     7
370
    18
100
AcDbCircle
 10
1393.3072893213
 20
2777.099352255
 30
0.0
 40
6.0
  0
CIRCLE
  5
C1
330
1F
100
AcDbEntity
  8
0
  6
HIDDEN
 62
     7
370
    18
100
AcDbCircle
 10
1456.8755836087
 20
2972.7424450698
 30
0.0
 40
5.999999999999773
  0
CIRCLE
  5
C2
330
1F
100
AcDbEntity
  8
0
  6
HIDDEN
 62
     7
370
    18
100
AcDbCircle
 10
1577.7896646324
 20
3139.1664001212
 30
0.0
 40
6.0
  0
CIRCLE
  5
C3
330
1F
100
AcDbEntity
  8
0
  6
HIDDEN
 62
     7
370
    18
100
AcDbCircle
 10
1744.2136196838
 20
3260.0804811449
 30
0.0
 40
5.999999999999545
  0
CIRCLE
  5
C4
330
1F
100
AcDbEntity
  8
0
  6
HIDDEN
 62
     7
370
    18
100
AcDbCircle
 10
1939.8567124986
 20
3323.6487754324
 30
0.0
 40
6.000000000000227
  0
CIRCLE
  5
C5
330
1F
100
AcDbEntity
  8
0
  6
HIDDEN
 62
     7
370
    18
100
AcDbCircle
 10
2145.5680340265
 20
3323.6487754324
 30
0.0
 40
6.000000000000455
  0
CIRCLE
  5
C6
330
1F
100
AcDbEntity
  8
0
  6
HIDDEN
 62
     7
370
    18
100
AcDbCircle
 10
2692.1174572039
 20
2571.3880307271
 30
0.0
 40
6.0
  0
LINE
  5
C7
330
1F
100
AcDbEntity
  8
0
  6
HIDDEN
 62
     7
370
    18
100
AcDbLine
 10
374.7123732626
 20
1569.243691491
 30
0.0
 11
374.7123732626
 21
1575.243691491
 31
0.0
  0
LINE
  5
C8
330
1F
100
AcDbEntity
  8
0
  6
HIDDEN
 62
     7
370
    18
100
AcDbLine
 10
350.7123732626
 20
1575.243691491
 30
0.0
 11
350.7123732626
 21
1569.243691491
 31
0.0
  0
LINE
  5
C9
330
1F
100
AcDbEntity
  8
0
  6
HIDDEN
 62
     7
370
    18
100
AcDbLine
 10
1144.7123732626
 20
1569.243691491
 30
0.0
 11
1144.7123732626
 21
1575.243691491
 31
0.0
  0
LINE
  5
CA
330
1F
100
AcDbEntity
  8
0
  6
HIDDEN
 62
     7
370
    18
100
AcDbLine
 10
1120.7123732626
 20
1575.243691491
 30
0.0
 11
1120.7123732626
 21
1569.243691491
 31
0.0
  0
LINE
  5
CB
330
1F
100
AcDbEntity
  8
0
  6
HIDDEN
 62
     7
370
    18
100
AcDbLine
 10
1914.7123732626
 20
1569.243691491
 30
0.0
 11
1914.7123732626
 21
1575.243691491
 31
0.0
  0
LINE
  5
CC
330
1F
100
AcDbEntity
  8
0
  6
HIDDEN
 62
     7
370
    18
100
AcDbLine
 10
1890.7123732626
 20
1575.243691491
 30
0.0
 11
1890.7123732626
 21
1569.243691491
 31
0.0
  0
LINE
  5
CD
330
1F
100
AcDbEntity
  8
0
  6
HIDDEN
 62
     7
370
    18
100
AcDbLine
 10
2684.7123732626
 20
1569.243691491
 30
0.0
 11
2684.7123732626
 21
1575.243691491
 31
0.0
  0
LINE
  5
CE
330
1F
100
AcDbEntity
  8
0
  6
HIDDEN
 62
     7
370
    18
100
AcDbLine
 10
2660.7123732626
 20
1575.243691491
 30
0.0
 11
2660.7123732626
 21
1569.243691491
 31
0.0
  0
LINE
  5
CF
330
1F
100
AcDbEntity
  8
0
  6
HIDDEN
 62
     7
370
    18
100
AcDbLine
 10
2867.7123732626
 20
3474.243691491
 30
0.0
 11
2863.7123732626
 21
3474.243691491
 31
0.0
  0
LINE
  5
D0
330
1F
100
AcDbEntity
  8
0
  6
HIDDEN
 62
     7
370
    18
100
AcDbLine
 10
2863.7123732626
 20
3462.243691491
 30
0.0
 11
2867.7123732626
 21
3462.243691491
 31
0.0
  0
LINE
  5
D1
330
1F
100
AcDbEntity
  8
0
  6
HIDDEN
 62
     7
370
    18
100
AcDbLine
 10
2867.7123732626
 20
3274.243691491
 30
0.0
 11
2863.7123732626
 21
3274.243691491
 31
0.0
  0
LINE
  5
D2
330
1F
100
AcDbEntity
  8
0
  6
HIDDEN
 62
     7
370
    18
100
AcDbLine
 10
2863.7123732626
 20
3262.243691491
 30
0.0
 11
2867.7123732626
 21
3262.243691491
 31
0.0
  0
LINE
  5
D3
330
1F
100
AcDbEntity
  8
0
  6
HIDDEN
 62
     7
370
    18
100
AcDbLine
 10
2867.7123732626
 20
2874.243691491
 30
0.0
 11
2863.7123732626
 21
2874.243691491
 31
0.0
  0
LINE
  5
D4
330
1F
100
AcDbEntity
  8
0
  6
HIDDEN
 62
     7
370
    18
100
AcDbLine
 10
2863.7123732626
 20
2862.243691491
 30
0.0
 11
2867.7123732626
 21
2862.243691491
 31
0.0
  0
LINE
  5
D5
330
1F
100
AcDbEntity
  8
0
  6
HIDDEN
 62
     7
370
    18
100
AcDbLine
 10
2867.7123732626
 20
4047.243691491
 30
0.0
 11
2863.7123732626
 21
4047.243691491
 31
0.0
  0
LINE
  5
D6
330
1F
100
AcDbEntity
  8
0
  6
HIDDEN
 62
     7
370
    18
100
AcDbLine
 10
2863.7123732626
 20
4035.243691491
 30
0.0
 11
2867.7123732626
 21
4035.243691491
 31
0.0
  0
LINE
  5
D7
330
1F
100
AcDbEntity
  8
0
  6
HIDDEN
 62
     7
370
    18
100
AcDbLine
 10
2867.7123732626
 20
2701.243691491
 30
0.0
 11
2863.7123732626
 21
2701.243691491
 31
0.0
  0
LINE
  5
D8
330
1F
100
AcDbEntity
  8
0
  6
HIDDEN
 62
     7
370
    18
100
AcDbLine
 10
2863.7123732626
 20
2689.243691491
 30
0.0
 11
2867.7123732626
 21
2689.243691491
 31
0.0
  0
LINE
  5
D9
330
1F
100
AcDbEntity
  8
0
  6
HIDDEN
 62
     7
370
    18
100
AcDbLine
 10
2867.7123732626
 20
3874.243691491
 30
0.0
 11
2863.7123732626
 21
3874.243691491
 31
0.0
  0
LINE
  5
DA
330
1F
100
AcDbEntity
  8
0
  6
HIDDEN
 62
     7
370
    18
100
AcDbLine
 10
2863.7123732626
 20
3862.243691491
 30
0.0
 11
2867.7123732626
 21
3862.243691491
 31
0.0
  0
LINE
  5
DB
330
1F
100
AcDbEntity
  8
0
  6
HIDDEN
 62
     7
370
    18
100
AcDbLine
 10
2867.7123732626
 20
3674.243691491
 30
0.0
 11
2863.7123732626
 21
3674.243691491
 31
0.0
  0
LINE
  5
DC
330
1F
100
AcDbEntity
  8
0
  6
HIDDEN
 62
     7
370
    18
100
AcDbLine
 10
2863.7123732626
 20
3662.243691491
 30
0.0
 11
2867.7123732626
 21
3662.243691491
 31
0.0
  0
LINE
  5
DD
330
1F
100
AcDbEntity
  8
0
  6
HIDDEN
 62
     7
370
    18
100
AcDbLine
 10
2867.7123732626
 20
3074.243691491
 30
0.0
 11
2863.7123732626
 21
3074.243691491
 31
0.0
  0
LINE
  5
DE
330
1F
100
AcDbEntity
  8
0
  6
HIDDEN
 62
     7
370
    18
100
AcDbLine
 10
2863.7123732626
 20
3062.243691491
 30
0.0
 11
2867.7123732626
 21
3062.243691491
 31
0.0
  0
INSERT
  5
EA
330
1F
100
AcDbEntity
  8
2
100
AcDbBlockReference
  2
SW_CENTERMARKSYMBOL_0
 10
2042.7123732626
 20
2674.243691491
 30
0.0
  0
LINE
  5
EB
330
1F
100
AcDbEntity
  8
1
100
AcDbLine
 10
3578.4430817717
 20
2999.243691491
 30
0.0
 11
3418.4430817717
 21
2999.243691491
 31
0.0
  0
LINE
  5
EC
330
1F
100
AcDbEntity
  8
1
100
AcDbLine
 10
3418.4430817717
 20
1921.743691491
 30
0.0
 11
3578.4430817717
 21
1921.743691491
 31
0.0
  0
LINE
  5
ED
330
1F
100
AcDbEntity
  8
1
100
AcDbLine
 10
3860.2430817717
 20
2329.743691491
 30
0.0
 11
3645.9430817717
 21
2329.743691491
 31
0.0
  0
LINE
  5
EE
330
1F
100
AcDbEntity
  8
1
100
AcDbLine
 10
3578.4430817717
 20
2110.243691491
 30
0.0
 11
3645.9430817717
 21
2110.243691491
 31
0.0
  0
LINE
  5
EF
330
1F
100
AcDbEntity
  8
1
100
AcDbLine
 10
3645.9430817717
 20
2158.243691491
 30
0.0
 11
3578.4430817717
 21
2158.243691491
 31
0.0
  0
LINE
  5
F0
330
1F
100
AcDbEntity
  8
1
100
AcDbLine
 10
4836.4430817717
 20
1749.243691491
 30
0.0
 11
4836.4430817717
 21
1644.243691491
 31
0.0
  0
LINE
  5
F1
330
1F
100
AcDbEntity
  8
1
100
AcDbLine
 10
4871.4430817717
 20
1644.243691491
 30
0.0
 11
4871.4430817717
 21
1749.243691491
 31
0.0
  0
LINE
  5
F2
330
1F
100
AcDbEntity
  8
1
100
AcDbLine
 10
3631.4430817717
 20
1749.243691491
 30
0.0
 11
3631.4430817717
 21
1644.243691491
 31
0.0
  0
LINE
  5
F3
330
1F
100
AcDbEntity
  8
1
100
AcDbLine
 10
3666.4430817717
 20
1644.243691491
 30
0.0
 11
3666.4430817717
 21
1749.243691491
 31
0.0
  0
LINE
  5
F4
330
1F
100
AcDbEntity
  8
1
100
AcDbLine
 10
4916.4430817717
 20
3349.243691491
 30
0.0
 11
4914.1430817717
 21
3349.243691491
 31
0.0
  0
LINE
  5
F5
330
1F
100
AcDbEntity
  8
1
100
AcDbLine
 10
4914.1430817717
 20
1999.243691491
 30
0.0
 11
4916.4430817717
 21
1999.243691491
 31
0.0
  0
LINE
  5
F6
330
1F
100
AcDbEntity
  8
1
100
AcDbLine
 10
4816.6430817717
 20
1999.243691491
 30
0.0
 11
4823.4430817717
 21
1999.243691491
 31
0.0
  0
LINE
  5
F7
330
1F
100
AcDbEntity
  8
1
100
AcDbLine
 10
4914.1430817717
 20
3301.543691491
 30
0.0
 11
4866.4430817717
 21
3301.543691491
 31
0.0
  0
LINE
  5
F8
330
1F
100
AcDbEntity
  8
1
100
AcDbLine
 10
4823.4430817717
 20
2046.943691491
 30
0.0
 11
4914.1430817717
 21
2046.943691491
 31
0.0
  0
LINE
  5
F9
330
1F
100
AcDbEntity
  8
1
100
AcDbLine
 10
3418.4430817717
 20
2362.2377952945
 30
0.0
 11
3578.4430817717
 21
2362.2377952945
 31
0.0
  0
LINE
  5
FA
330
1F
100
AcDbEntity
  8
1
100
AcDbLine
 10
3418.4430817717
 20
2362.2377952945
 30
0.0
 11
3418.4430817717
 21
2999.243691491
 31
0.0
  0
LINE
  5
FB
330
1F
100
AcDbEntity
  8
1
100
AcDbLine
 10
3578.4430817717
 20
2362.2377952945
 30
0.0
 11
3578.4430817717
 21
2999.243691491
 31
0.0
  0
LINE
  5
FC
330
1F
100
AcDbEntity
  8
1
100
AcDbLine
 10
3418.4430817717
 20
1930.2398362856
 30
0.0
 11
3578.4430817717
 21
1930.2398362856
 31
0.0
  0
LINE
  5
FD
330
1F
100
AcDbEntity
  8
1
100
AcDbLine
 10
3418.4430817717
 20
1930.2398362856
 30
0.0
 11
3418.4430817717
 21
2362.2377952945
 31
0.0
  0
LINE
  5
FE
330
1F
100
AcDbEntity
  8
1
100
AcDbLine
 10
3578.4430817717
 20
1930.2398362856
 30
0.0
 11
3578.4430817717
 21
2362.2377952945
 31
0.0
  0
LINE
  5
FF
330
1F
100
AcDbEntity
  8
1
100
AcDbLine
 10
3418.4430817717
 20
1921.743691491
 30
0.0
 11
3418.4430817717
 21
1930.2398362856
 31
0.0
  0
LINE
  5
100
330
1F
100
AcDbEntity
  8
1
100
AcDbLine
 10
3578.4430817717
 20
1921.743691491
 30
0.0
 11
3578.4430817717
 21
1930.2398362856
 31
0.0
  0
LINE
  5
101
330
1F
100
AcDbEntity
  8
1
100
AcDbLine
 10
3682.4430817717
 20
1899.243691491
 30
0.0
 11
3682.4430817717
 21
1954.243691491
 31
0.0
  0
LINE
  5
102
330
1F
100
AcDbEntity
  8
1
100
AcDbLine
 10
3860.2430817717
 20
1954.243691491
 30
0.0
 11
3682.4430817717
 21
1954.243691491
 31
0.0
  0
LINE
  5
103
330
1F
100
AcDbEntity
  8
1
100
AcDbLine
 10
3725.4430817717
 20
1963.243691491
 30
0.0
 11
3645.9430817717
 21
1963.243691491
 31
0.0
  0
LINE
  5
104
330
1F
100
AcDbEntity
  8
1
100
AcDbLine
 10
3645.9430817717
 20
2329.743691491
 30
0.0
 11
3645.9430817717
 21
1963.243691491
 31
0.0
  0
LINE
  5
105
330
1F
100
AcDbEntity
  8
1
100
AcDbLine
 10
3725.4430817717
 20
1954.243691491
 30
0.0
 11
3725.4430817717
 21
1972.243691491
 31
0.0
  0
LINE
  5
106
330
1F
100
AcDbEntity
  8
1
100
AcDbLine
 10
3725.4430817717
 20
1972.243691491
 30
0.0
 11
3860.2430817717
 21
1972.243691491
 31
0.0
  0
LINE
  5
107
330
1F
100
AcDbEntity
  8
1
100
AcDbLine
 10
4891.4430817717
 20
1638.243691491
 30
0.0
 11
4891.4430817717
 21
1644.243691491
 31
0.0
  0
LINE
  5
108
330
1F
100
AcDbEntity
  8
1
100
AcDbLine
 10
3611.4430817718
 20
1638.243691491
 30
0.0
 11
4891.4430817717
 21
1638.243691491
 31
0.0
  0
LINE
  5
109
330
1F
100
AcDbEntity
  8
1
100
AcDbLine
 10
3611.4430817718
 20
1638.243691491
 30
0.0
 11
3611.4430817718
 21
1644.243691491
 31
0.0
  0
LINE
  5
10A
330
1F
100
AcDbEntity
  8
1
100
AcDbLine
 10
3611.4430817718
 20
1644.243691491
 30
0.0
 11
4891.4430817717
 21
1644.243691491
 31
0.0
  0
LINE
  5
10B
330
1F
100
AcDbEntity
  8
1
100
AcDbLine
 10
3611.4430817718
 20
1569.243691491
 30
0.0
 11
3611.4430817718
 21
1575.243691491
 31
0.0
  0
LINE
  5
10C
330
1F
100
AcDbEntity
  8
1
100
AcDbLine
 10
4891.4430817717
 20
1575.243691491
 30
0.0
 11
3611.4430817718
 21
1575.243691491
 31
0.0
  0
LINE
  5
10D
330
1F
100
AcDbEntity
  8
1
100
AcDbLine
 10
4891.4430817717
 20
1569.243691491
 30
0.0
 11
4891.4430817717
 21
1575.243691491
 31
0.0
  0
LINE
  5
10E
330
1F
100
AcDbEntity
  8
1
100
AcDbLine
 10
4891.4430817717
 20
1569.243691491
 30
0.0
 11
3611.4430817718
 21
1569.243691491
 31
0.0
  0
LINE
  5
10F
330
1F
100
AcDbEntity
  8
1
100
AcDbLine
 10
3680.4430817717
 20
1575.243691491
 30
0.0
 11
3680.4430817717
 21
1638.243691491
 31
0.0
  0
LINE
  5
110
330
1F
100
AcDbEntity
  8
1
100
AcDbLine
 10
4822.4430817717
 20
1575.243691491
 30
0.0
 11
4822.4430817717
 21
1638.243691491
 31
0.0
  0
LINE
  5
111
330
1F
100
AcDbEntity
  8
1
100
AcDbLine
 10
3611.4430817717
 20
1899.243691491
 30
0.0
 11
4891.4430817717
 21
1899.243691491
 31
0.0
  0
LINE
  5
112
330
1F
100
AcDbEntity
  8
1
100
AcDbLine
 10
4891.4430817717
 20
1899.243691491
 30
0.0
 11
4891.4430817717
 21
1892.743691491
 31
0.0
  0
LINE
  5
113
330
1F
100
AcDbEntity
  8
1
100
AcDbLine
 10
3611.4430817717
 20
1892.743691491
 30
0.0
 11
4891.4430817717
 21
1892.743691491
 31
0.0
  0
LINE
  5
114
330
1F
100
AcDbEntity
  8
1
100
AcDbLine
 10
3611.4430817717
 20
1899.243691491
 30
0.0
 11
3611.4430817717
 21
1892.743691491
 31
0.0
  0
LINE
  5
115
330
1F
100
AcDbEntity
  8
1
100
AcDbLine
 10
3611.4430817717
 20
1755.743691491
 30
0.0
 11
3611.4430817717
 21
1749.243691491
 31
0.0
  0
LINE
  5
116
330
1F
100
AcDbEntity
  8
1
100
AcDbLine
 10
3611.4430817717
 20
1749.243691491
 30
0.0
 11
4891.4430817717
 21
1749.243691491
 31
0.0
  0
LINE
  5
117
330
1F
100
AcDbEntity
  8
1
100
AcDbLine
 10
3611.4430817717
 20
1755.743691491
 30
0.0
 11
4891.4430817717
 21
1755.743691491
 31
0.0
  0
LINE
  5
118
330
1F
100
AcDbEntity
  8
1
100
AcDbLine
 10
4891.4430817717
 20
1755.743691491
 30
0.0
 11
4891.4430817717
 21
1749.243691491
 31
0.0
  0
LINE
  5
119
330
1F
100
AcDbEntity
  8
1
100
AcDbLine
 10
4822.9430817717
 20
1892.743691491
 30
0.0
 11
4822.9430817717
 21
1755.743691491
 31
0.0
  0
LINE
  5
11A
330
1F
100
AcDbEntity
  8
1
100
AcDbLine
 10
3679.9430817717
 20
1892.743691491
 30
0.0
 11
3679.9430817717
 21
1755.743691491
 31
0.0
  0
CIRCLE
  5
11B
330
1F
100
AcDbEntity
  8
1
100
AcDbCircle
 10
3830.4430817717
 20
4041.243691491
 30
0.0
 40
6.000000000000455
  0
CIRCLE
  5
11C
330
1F
100
AcDbEntity
  8
1
100
AcDbCircle
 10
3938.4430817717
 20
4041.243691491
 30
0.0
 40
6.0
  0
CIRCLE
  5
11D
330
1F
100
AcDbEntity
  8
1
100
AcDbCircle
 10
4138.4430817717
 20
4041.243691491
 30
0.0
 40
6.0
  0
CIRCLE
  5
11E
330
1F
100
AcDbEntity
  8
1
100
AcDbCircle
 10
4338.4430817717
 20
4041.243691491
 30
0.0
 40
6.000000000000909
  0
CIRCLE
  5
11F
330
1F
100
AcDbEntity
  8
1
100
AcDbCircle
 10
3830.4430817717
 20
3868.243691491
 30
0.0
 40
6.000000000000455
  0
CIRCLE
  5
120
330
1F
100
AcDbEntity
  8
1
100
AcDbCircle
 10
3830.4430817717
 20
3668.243691491
 30
0.0
 40
6.000000000000455
  0
CIRCLE
  5
121
330
1F
100
AcDbEntity
  8
1
100
AcDbCircle
 10
3830.4430817717
 20
3468.243691491
 30
0.0
 40
6.000000000000455
  0
CIRCLE
  5
122
330
1F
100
AcDbEntity
  8
1
100
AcDbCircle
 10
4846.4430817717
 20
3468.243691491
 30
0.0
 40
6.000000000000909
  0
CIRCLE
  5
123
330
1F
100
AcDbEntity
  8
1
100
AcDbCircle
 10
4846.4430817717
 20
3668.243691491
 30
0.0
 40
6.000000000000909
  0
CIRCLE
  5
124
330
1F
100
AcDbEntity
  8
1
100
AcDbCircle
 10
4846.4430817717
 20
3868.243691491
 30
0.0
 40
6.000000000000909
  0
CIRCLE
  5
125
330
1F
100
AcDbEntity
  8
1
100
AcDbCircle
 10
4538.4430817717
 20
4041.243691491
 30
0.0
 40
5.999999999999091
  0
CIRCLE
  5
126
330
1F
100
AcDbEntity
  8
1
100
AcDbCircle
 10
4738.4430817717
 20
4041.243691491
 30
0.0
 40
5.999999999999091
  0
CIRCLE
  5
127
330
1F
100
AcDbEntity
  8
1
100
AcDbCircle
 10
4846.4430817717
 20
4041.243691491
 30
0.0
 40
6.000000000000909
  0
CIRCLE
  5
128
330
1F
100
AcDbEntity
  8
1
100
AcDbCircle
 10
4846.4430817717
 20
2695.243691491
 30
0.0
 40
6.000000000000909
  0
CIRCLE
  5
129
330
1F
100
AcDbEntity
  8
1
100
AcDbCircle
 10
4738.4430817717
 20
2695.243691491
 30
0.0
 40
5.999999999999091
  0
CIRCLE
  5
12A
330
1F
100
AcDbEntity
  8
1
100
AcDbCircle
 10
4538.4430817717
 20
2695.243691491
 30
0.0
 40
5.999999999999091
  0
CIRCLE
  5
12B
330
1F
100
AcDbEntity
  8
1
100
AcDbCircle
 10
4846.4430817717
 20
2868.243691491
 30
0.0
 40
6.000000000000909
  0
CIRCLE
  5
12C
330
1F
100
AcDbEntity
  8
1
100
AcDbCircle
 10
4846.4430817717
 20
3068.243691491
 30
0.0
 40
6.000000000000909
  0
CIRCLE
  5
12D
330
1F
100
AcDbEntity
  8
1
100
AcDbCircle
 10
4846.4430817717
 20
3268.243691491
 30
0.0
 40
6.000000000000909
  0
CIRCLE
  5
12E
330
1F
100
AcDbEntity
  8
1
100
AcDbCircle
 10
3830.4430817717
 20
3268.243691491
 30
0.0
 40
6.000000000000455
  0
CIRCLE
  5
12F
330
1F
100
AcDbEntity
  8
1
100
AcDbCircle
 10
3830.4430817717
 20
3068.243691491
 30
0.0
 40
6.000000000000455
  0
CIRCLE
  5
130
330
1F
100
AcDbEntity
  8
1
100
AcDbCircle
 10
3830.4430817717
 20
2868.243691491
 30
0.0
 40
6.000000000000455
  0
CIRCLE
  5
131
330
1F
100
AcDbEntity
  8
1
100
AcDbCircle
 10
4338.4430817717
 20
2695.243691491
 30
0.0
 40
6.000000000000909
  0
CIRCLE
  5
132
330
1F
100
AcDbEntity
  8
1
100
AcDbCircle
 10
4138.4430817717
 20
2695.243691491
 30
0.0
 40
6.0
  0
CIRCLE
  5
133
330
1F
100
AcDbEntity
  8
1
100
AcDbCircle
 10
3830.4430817717
 20
2695.243691491
 30
0.0
 40
6.000000000000455
  0
LINE
  5
134
330
1F
100
AcDbEntity
  8
1
100
AcDbLine
 10
4866.4430817717
 20
4061.243691491
 30
0.0
 11
3810.4430817717
 21
4061.243691491
 31
0.0
  0
LINE
  5
135
330
1F
100
AcDbEntity
  8
1
100
AcDbLine
 10
4866.4430817717
 20
2675.243691491
 30
0.0
 11
4866.4430817717
 21
4061.243691491
 31
0.0
  0
LINE
  5
136
330
1F
100
AcDbEntity
  8
1
100
AcDbLine
 10
3810.4430817717
 20
4061.243691491
 30
0.0
 11
3810.4430817717
 21
2675.243691491
 31
0.0
  0
LINE
  5
137
330
1F
100
AcDbEntity
  8
1
100
AcDbLine
 10
3863.4430817717
 20
4008.243691491
 30
0.0
 11
4813.4430817717
 21
4008.243691491
 31
0.0
  0
LINE
  5
138
330
1F
100
AcDbEntity
  8
1
100
AcDbLine
 10
3863.4430817717
 20
2728.243691491
 30
0.0
 11
3863.4430817717
 21
4008.243691491
 31
0.0
  0
LINE
  5
139
330
1F
100
AcDbEntity
  8
1
100
AcDbLine
 10
3863.4430817717
 20
2728.243691491
 30
0.0
 11
4813.4430817717
 21
2728.243691491
 31
0.0
  0
LINE
  5
13A
330
1F
100
AcDbEntity
  8
1
100
AcDbLine
 10
4813.4430817717
 20
2728.243691491
 30
0.0
 11
4813.4430817717
 21
4008.243691491
 31
0.0
  0
CIRCLE
  5
13B
330
1F
100
AcDbEntity
  8
1
100
AcDbCircle
 10
3938.4430817717
 20
2695.243691491
 30
0.0
 40
6.0
  0
LINE
  5
13C
330
1F
100
AcDbEntity
  8
1
100
AcDbLine
 10
3810.4430817717
 20
2675.243691491
 30
0.0
 11
4866.4430817717
 21
2675.243691491
 31
0.0
  0
LINE
  5
13D
330
1F
100
AcDbEntity
  8
1
100
AcDbLine
 10
3863.4430817717
 20
3930.2561747556
 30
0.0
 11
4813.4430817717
 21
3930.2561747556
 31
0.0
  0
LINE
  5
13E
330
1F
100
AcDbEntity
  8
1
100
AcDbLine
 10
3860.2430817717
 20
2597.243691491
 30
0.0
 11
4816.6430817717
 21
2597.243691491
 31
0.0
  0
LINE
  5
13F
330
1F
100
AcDbEntity
  8
1
100
AcDbLine
 10
3860.2430817717
 20
1899.243691491
 30
0.0
 11
3860.2430817717
 21
2597.243691491
 31
0.0
  0
LINE
  5
140
330
1F
100
AcDbEntity
  8
1
100
AcDbLine
 10
4816.6430817717
 20
1899.243691491
 30
0.0
 11
4816.6430817717
 21
2597.243691491
 31
0.0
  0
LINE
  5
141
330
1F
100
AcDbEntity
  8
1
100
AcDbLine
 10
3860.2430817717
 20
2597.243691491
 30
0.0
 11
3860.2430817717
 21
2675.243691491
 31
0.0
  0
LINE
  5
142
330
1F
100
AcDbEntity
  8
1
100
AcDbLine
 10
4816.6430817717
 20
2597.243691491
 30
0.0
 11
4816.6430817717
 21
2675.243691491
 31
0.0
  0
LINE
  5
143
330
1F
100
AcDbEntity
  8
1
100
AcDbLine
 10
4914.1430817717
 20
3349.243691491
 30
0.0
 11
4914.1430817717
 21
1999.243691491
 31
0.0
  0
LINE
  5
144
330
1F
100
AcDbEntity
  8
1
100
AcDbLine
 10
4916.4430817717
 20
3349.243691491
 30
0.0
 11
4916.4430817717
 21
1999.243691491
 31
0.0
  0
LINE
  5
145
330
1F
100
AcDbEntity
  8
1
100
AcDbLine
 10
4823.4430817717
 20
2674.243691491
 30
0.0
 11
4823.4430817717
 21
2675.243691491
 31
0.0
  0
LINE
  5
146
330
1F
100
AcDbEntity
  8
1
100
AcDbLine
 10
4823.4430817717
 20
1999.243691491
 30
0.0
 11
4823.4430817717
 21
2674.243691491
 31
0.0
  0
LINE
  5
147
330
1F
100
AcDbEntity
  8
1
100
AcDbLine
 10
3863.4430817717
 20
2765.243691491
 30
0.0
 11
4813.4430817717
 21
2765.243691491
 31
0.0
  0
LINE
  5
148
330
1F
100
AcDbEntity
  8
0
  6
HIDDEN
 62
     7
370
    18
100
AcDbLine
 10
3418.4430817717
 20
2969.7559157441
 30
0.0
 11
3578.4430817717
 21
2969.7559157441
 31
0.0
  0
LINE
  5
149
330
1F
100
AcDbEntity
  8
0
  6
HIDDEN
 62
     7
370
    18
100
AcDbLine
 10
3418.4430817717
 20
2327.4632227334
 30
0.0
 11
3578.4430817717
 21
2327.4632227334
 31
0.0
  0
LINE
  5
14A
330
1F
100
AcDbEntity
  8
0
  6
HIDDEN
 62
     7
370
    18
100
AcDbLine
 10
4092.4430817717
 20
1954.243691491
 30
0.0
 11
3860.2430817717
 21
1954.243691491
 31
0.0
  0
LINE
  5
14B
330
1F
100
AcDbEntity
  8
0
  6
HIDDEN
 62
     7
370
    18
100
AcDbLine
 10
4092.4430817717
 20
1899.243691491
 30
0.0
 11
4092.4430817717
 21
1954.243691491
 31
0.0
  0
LINE
  5
14C
330
1F
100
AcDbEntity
  8
0
  6
HIDDEN
 62
     7
370
    18
100
AcDbLine
 10
4200.9430817717
 20
1963.243691491
 30
0.0
 11
4049.4430817717
 21
1963.243691491
 31
0.0
  0
LINE
  5
14D
330
1F
100
AcDbEntity
  8
0
  6
HIDDEN
 62
     7
370
    18
100
AcDbLine
 10
4200.9430817717
 20
1963.243691491
 30
0.0
 11
4200.9430817717
 21
2329.743691491
 31
0.0
  0
LINE
  5
14E
330
1F
100
AcDbEntity
  8
0
  6
HIDDEN
 62
     7
370
    18
100
AcDbLine
 10
3860.2430817717
 20
1972.243691491
 30
0.0
 11
4049.4430817717
 21
1972.243691491
 31
0.0
  0
LINE
  5
14F
330
1F
100
AcDbEntity
  8
0
  6
HIDDEN
 62
     7
370
    18
100
AcDbLine
 10
4049.4430817717
 20
1954.243691491
 30
0.0
 11
4049.4430817717
 21
1972.243691491
 31
0.0
  0
LINE
  5
150
330
1F
100
AcDbEntity
  8
0
  6
HIDDEN
 62
     7
370
    18
100
AcDbLine
 10
3460.9430817717
 20
2021.8234051925
 30
0.0
 11
3460.9430817717
 21
2021.743691491
 31
0.0
  0
LINE
  5
151
330
1F
100
AcDbEntity
  8
0
  6
HIDDEN
 62
     7
370
    18
100
AcDbLine
 10
3460.9430817717
 20
2246.743691491
 30
0.0
 11
3460.9430817717
 21
2021.8234051925
 31
0.0
  0
LINE
  5
152
330
1F
100
AcDbEntity
  8
0
  6
HIDDEN
 62
     7
370
    18
100
AcDbLine
 10
3535.9430817717
 20
2021.8234051925
 30
0.0
 11
3535.9430817717
 21
2021.743691491
 31
0.0
  0
LINE
  5
153
330
1F
100
AcDbEntity
  8
0
  6
HIDDEN
 62
     7
370
    18
100
AcDbLine
 10
3535.9430817717
 20
2246.743691491
 30
0.0
 11
3535.9430817717
 21
2021.8234051925
 31
0.0
  0
LINE
  5
154
330
1F
100
AcDbEntity
  8
0
  6
HIDDEN
 62
     7
370
    18
100
AcDbLine
 10
3460.9430817717
 20
2899.243691491
 30
0.0
 11
3460.9430817717
 21
2449.243691491
 31
0.0
  0
LINE
  5
155
330
1F
100
AcDbEntity
  8
0
  6
HIDDEN
 62
     7
370
    18
100
AcDbLine
 10
3535.9430817717
 20
2899.243691491
 30
0.0
 11
3535.9430817717
 21
2449.243691491
 31
0.0
  0
LINE
  5
156
330
1F
100
AcDbEntity
  8
0
  6
HIDDEN
 62
     7
370
    18
100
AcDbLine
 10
4816.4430817717
 20
1569.243691491
 30
0.0
 11
4816.4430817717
 21
1644.243691491
 31
0.0
  0
LINE
  5
157
330
1F
100
AcDbEntity
  8
0
  6
HIDDEN
 62
     7
370
    18
100
AcDbLine
 10
3686.4430817717
 20
1569.243691491
 30
0.0
 11
3686.4430817717
 21
1644.243691491
 31
0.0
  0
LINE
  5
158
330
1F
100
AcDbEntity
  8
0
  6
HIDDEN
 62
     7
370
    18
100
AcDbLine
 10
4816.4430817717
 20
1899.243691491
 30
0.0
 11
4816.4430817717
 21
1749.243691491
 31
0.0
  0
LINE
  5
159
330
1F
100
AcDbEntity
  8
0
  6
HIDDEN
 62
     7
370
    18
100
AcDbLine
 10
3686.4430817717
 20
1899.243691491
 30
0.0
 11
3686.4430817717
 21
1749.243691491
 31
0.0
  0
LINE
  5
15A
330
1F
100
AcDbEntity
  8
0
  6
HIDDEN
 62
     7
370
    18
100
AcDbLine
 10
4816.6430817717
 20
4010.1830141089
 30
0.0
 11
4816.6430817717
 21
2725.943691491
 31
0.0
  0
LINE
  5
15B
330
1F
100
AcDbEntity
  8
0
  6
HIDDEN
 62
     7
370
    18
100
AcDbLine
 10
4816.6430817717
 20
4010.1830141089
 30
0.0
 11
3860.2430817717
 21
4010.1830141089
 31
0.0
  0
LINE
  5
15C
330
1F
100
AcDbEntity
  8
0
  6
HIDDEN
 62
     7
370
    18
100
AcDbLine
 10
3860.2430817717
 20
2725.943691491
 30
0.0
 11
4816.6430817717
 21
2725.943691491
 31
0.0
  0
LINE
  5
15D
330
1F
100
AcDbEntity
  8
0
  6
HIDDEN
 62
     7
370
    18
100
AcDbLine
 10
3860.2430817717
 20
4010.1830141089
 30
0.0
 11
3860.2430817717
 21
2725.943691491
 31
0.0
  0
LINE
  5
15E
330
1F
100
AcDbEntity
  8
0
  6
HIDDEN
 62
     7
370
    18
100
AcDbLine
 10
3860.2430817717
 20
1774.943691491
 30
0.0
 11
4816.6430817717
 21
1774.943691491
 31
0.0
  0
LINE
  5
15F
330
1F
100
AcDbEntity
  8
0
  6
HIDDEN
 62
     7
370
    18
100
AcDbLine
 10
3860.2430817717
 20
1774.943691491
 30
0.0
 11
3860.2430817717
 21
1899.243691491
 31
0.0
  0
LINE
  5
160
330
1F
100
AcDbEntity
  8
0
  6
HIDDEN
 62
     7
370
    18
100
AcDbLine
 10
4816.6430817717
 20
1774.943691491
 30
0.0
 11
4816.6430817717
 21
1899.243691491
 31
0.0
  0
LINE
  5
161
330
1F
100
AcDbEntity
  8
0
  6
HIDDEN
 62
     7
370
    18
100
AcDbLine
 10
3860.2430817717
 20
2675.243691491
 30
0.0
 11
3860.2430817717
 21
2725.943691491
 31
0.0
  0
LINE
  5
162
330
1F
100
AcDbEntity
  8
0
  6
HIDDEN
 62
     7
370
    18
100
AcDbLine
 10
4816.6430817717
 20
2675.243691491
 30
0.0
 11
4816.6430817717
 21
2725.943691491
 31
0.0
  0
LINE
  5
163
330
1F
100
AcDbEntity
  8
0
  6
HIDDEN
 62
     7
370
    18
100
AcDbLine
 10
3863.4430817717
 20
2597.243691491
 30
0.0
 11
4813.4430817717
 21
2597.243691491
 31
0.0
  0
LINE
  5
164
330
1F
100
AcDbEntity
  8
0
  6
HIDDEN
 62
     7
370
    18
100
AcDbLine
 10
3863.4430817717
 20
1777.243691491
 30
0.0
 11
4813.4430817717
 21
1777.243691491
 31
0.0
  0
LINE
  5
165
330
1F
100
AcDbEntity
  8
0
  6
HIDDEN
 62
     7
370
    18
100
AcDbLine
 10
3863.4430817717
 20
1777.243691491
 30
0.0
 11
3863.4430817717
 21
2597.243691491
 31
0.0
  0
LINE
  5
166
330
1F
100
AcDbEntity
  8
0
  6
HIDDEN
 62
     7
370
    18
100
AcDbLine
 10
4813.4430817717
 20
1777.243691491
 30
0.0
 11
4813.4430817717
 21
2597.243691491
 31
0.0
  0
LINE
  5
167
330
1F
100
AcDbEntity
  8
0
  6
HIDDEN
 62
     7
370
    18
100
AcDbLine
 10
3863.4430817717
 20
2597.243691491
 30
0.0
 11
3863.4430817717
 21
2728.243691491
 31
0.0
  0
LINE
  5
168
330
1F
100
AcDbEntity
  8
0
  6
HIDDEN
 62
     7
370
    18
100
AcDbLine
 10
4813.4430817717
 20
2597.243691491
 30
0.0
 11
4813.4430817717
 21
2728.243691491
 31
0.0
  0
LINE
  5
169
330
1F
100
AcDbEntity
  8
0
  6
HIDDEN
 62
     7
370
    18
100
AcDbLine
 10
4823.4430817717
 20
2675.243691491
 30
0.0
 11
4823.4430817717
 21
3349.243691491
 31
0.0
  0
LINE
  5
16A
330
1F
100
AcDbEntity
  8
0
  6
HIDDEN
 62
     7
370
    18
100
AcDbLine
 10
3860.2430817717
 20
3932.5463702355
 30
0.0
 11
4816.6430817717
 21
3932.5463702355
 31
0.0
  0
LINE
  5
16B
330
1F
100
AcDbEntity
  8
0
  6
HIDDEN
 62
     7
370
    18
100
AcDbLine
 10
3860.2430817717
 20
2765.243691491
 30
0.0
 11
4816.6430817717
 21
2765.243691491
 31
0.0
  0
LINE
  5
16C
330
1F
100
AcDbEntity
  8
0
  6
HIDDEN
 62
     7
370
    18
100
AcDbLine
 10
4200.9430817717
 20
2329.743691491
 30
0.0
 11
3860.2430817717
 21
2329.743691491
 31
0.0
  0
LINE
  5
16D
330
1F
100
AcDbEntity
  8
0
  6
HIDDEN
 62
     7
370
    18
100
AcDbLine
 10
3535.9430817717
 20
2110.243691491
 30
0.0
 11
3578.4430817717
 21
2110.243691491
 31
0.0
  0
LINE
  5
16E
330
1F
100
AcDbEntity
  8
0
  6
HIDDEN
 62
     7
370
    18
100
AcDbLine
 10
3578.4430817717
 20
2158.243691491
 30
0.0
 11
3535.9430817717
 21
2158.243691491
 31
0.0
  0
LINE
  5
16F
330
1F
100
AcDbEntity
  8
0
  6
HIDDEN
 62
     7
370
    18
100
AcDbLine
 10
3460.9430817717
 20
2021.743691491
 30
0.0
 11
3535.9430817717
 21
2021.743691491
 31
0.0
  0
LINE
  5
170
330
1F
100
AcDbEntity
  8
0
  6
HIDDEN
 62
     7
370
    18
100
AcDbLine
 10
3535.9430817717
 20
2246.743691491
 30
0.0
 11
3460.9430817717
 21
2246.743691491
 31
0.0
  0
LINE
  5
171
330
1F
100
AcDbEntity
  8
0
  6
HIDDEN
 62
     7
370
    18
100
AcDbLine
 10
3460.9430817717
 20
2449.243691491
 30
0.0
 11
3535.9430817717
 21
2449.243691491
 31
0.0
  0
LINE
  5
172
330
1F
100
AcDbEntity
  8
0
  6
HIDDEN
 62
     7
370
    18
100
AcDbLine
 10
3535.9430817717
 20
2899.243691491
 30
0.0
 11
3460.9430817717
 21
2899.243691491
 31
0.0
  0
LINE
  5
173
330
1F
100
AcDbEntity
  8
0
  6
HIDDEN
 62
     7
370
    18
100
AcDbLine
 10
4868.4430817717
 20
1569.243691491
 30
0.0
 11
4868.4430817717
 21
1575.243691491
 31
0.0
  0
LINE
  5
174
330
1F
100
AcDbEntity
  8
0
  6
HIDDEN
 62
     7
370
    18
100
AcDbLine
 10
4844.4430817717
 20
1575.243691491
 30
0.0
 11
4844.4430817717
 21
1569.243691491
 31
0.0
  0
LINE
  5
175
330
1F
100
AcDbEntity
  8
0
  6
HIDDEN
 62
     7
370
    18
100
AcDbLine
 10
3658.4430817717
 20
1569.243691491
 30
0.0
 11
3658.4430817717
 21
1575.243691491
 31
0.0
  0
LINE
  5
176
330
1F
100
AcDbEntity
  8
0
  6
HIDDEN
 62
     7
370
    18
100
AcDbLine
 10
3634.4430817717
 20
1575.243691491
 30
0.0
 11
3634.4430817717
 21
1569.243691491
 31
0.0
  0
LINE
  5
177
330
1F
100
AcDbEntity
  8
0
  6
HIDDEN
 62
     7
370
    18
100
AcDbLine
 10
4823.4430817717
 20
3349.243691491
 30
0.0
 11
4816.6430817717
 21
3349.243691491
 31
0.0
  0
LINE
  5
178
330
1F
100
AcDbEntity
  8
0
  6
HIDDEN
 62
     7
370
    18
100
AcDbLine
 10
4916.4430817717
 20
2577.3880307271
 30
0.0
 11
4914.1430817717
 21
2577.3880307271
 31
0.0
  0
LINE
  5
179
330
1F
100
AcDbEntity
  8
0
  6
HIDDEN
 62
     7
370
    18
100
AcDbLine
 10
4914.1430817717
 20
2565.3880307271
 30
0.0
 11
4916.4430817717
 21
2565.3880307271
 31
0.0
  0
LINE
  5
17A
330
1F
100
AcDbEntity
  8
0
  6
HIDDEN
 62
     7
370
    18
100
AcDbLine
 10
4916.4430817717
 20
2783.099352255
 30
0.0
 11
4914.1430817717
 21
2783.099352255
 31
0.0
  0
LINE
  5
17B
330
1F
100
AcDbEntity
  8
0
  6
HIDDEN
 62
     7
370
    18
100
AcDbLine
 10
4914.1430817717
 20
2771.099352255
 30
0.0
 11
4916.4430817717
 21
2771.099352255
 31
0.0
  0
LINE
  5
17C
330
1F
100
AcDbEntity
  8
0
  6
HIDDEN
 62
     7
370
    18
100
AcDbLine
 10
4866.4430817717
 20
3301.543691491
 30
0.0
 11
4823.4430817717
 21
3301.543691491
 31
0.0
  0
LINE
  5
17D
330
1F
100
AcDbEntity
  8
0
  6
HIDDEN
 62
     7
370
    18
100
AcDbLine
 10
4813.4430817717
 20
2049.243691491
 30
0.0
 11
4916.4430817717
 21
2049.243691491
 31
0.0
  0
LINE
  5
17E
330
1F
100
AcDbEntity
  8
0
  6
HIDDEN
 62
     7
370
    18
100
AcDbLine
 10
4916.4430817717
 20
3299.243691491
 30
0.0
 11
4813.4430817717
 21
3299.243691491
 31
0.0
  0
LINE
  5
17F
330
1F
100
AcDbEntity
  8
0
  6
HIDDEN
 62
     7
370
    18
100
AcDbLine
 10
4916.4430817717
 20
2381.7449379123
 30
0.0
 11
4914.1430817717
 21
2381.7449379123
 31
0.0
  0
LINE
  5
180
330
1F
100
AcDbEntity
  8
0
  6
HIDDEN
 62
     7
370
    18
100
AcDbLine
 10
4914.1430817717
 20
2369.7449379123
 30
0.0
 11
4916.4430817717
 21
2369.7449379123
 31
0.0
  0
LINE
  5
181
330
1F
100
AcDbEntity
  8
0
  6
HIDDEN
 62
     7
370
    18
100
AcDbLine
 10
4916.4430817717
 20
2978.7424450698
 30
0.0
 11
4914.1430817717
 21
2978.7424450698
 31
0.0
  0
LINE
  5
182
330
1F
100
AcDbEntity
  8
0
  6
HIDDEN
 62
     7
370
    18
100
AcDbLine
 10
4914.1430817717
 20
2966.7424450698
 30
0.0
 11
4916.4430817717
 21
2966.7424450698
 31
0.0
  0
LINE
  5
183
330
1F
100
AcDbEntity
  8
0
  6
HIDDEN
 62
     7
370
    18
100
AcDbLine
 10
4916.4430817717
 20
2215.3209828609
 30
0.0
 11
4914.1430817717
 21
2215.3209828609
 31
0.0
  0
LINE
  5
184
330
1F
100
AcDbEntity
  8
0
  6
HIDDEN
 62
     7
370
    18
100
AcDbLine
 10
4914.1430817717
 20
2203.3209828609
 30
0.0
 11
4916.4430817717
 21
2203.3209828609
 31
0.0
  0
LINE
  5
185
330
1F
100
AcDbEntity
  8
0
  6
HIDDEN
 62
     7
370
    18
100
AcDbLine
 10
4916.4430817717
 20
3145.1664001212
 30
0.0
 11
4914.1430817717
 21
3145.1664001212
 31
0.0
  0
LINE
  5
186
330
1F
100
AcDbEntity
  8
0
  6
HIDDEN
 62
     7
370
    18
100
AcDbLine
 10
4914.1430817717
 20
3133.1664001212
 30
0.0
 11
4916.4430817717
 21
3133.1664001212
 31
0.0
  0
LINE
  5
187
330
1F
100
AcDbEntity
  8
0
  6
HIDDEN
 62
     7
370
    18
100
AcDbLine
 10
4916.4430817717
 20
2094.4069018372
 30
0.0
 11
4914.1430817717
 21
2094.4069018372
 31
0.0
  0
LINE
  5
188
330
1F
100
AcDbEntity
  8
0
  6
HIDDEN
 62
     7
370
    18
100
AcDbLine
 10
4914.1430817717
 20
2082.4069018372
 30
0.0
 11
4916.4430817717
 21
2082.4069018372
 31
0.0
  0
LINE
  5
189
330
1F
100
AcDbEntity
  8
0
  6
HIDDEN
 62
     7
370
    18
100
AcDbLine
 10
4916.4430817717
 20
3266.0804811449
 30
0.0
 11
4914.1430817717
 21
3266.0804811449
 31
0.0
  0
LINE
  5
18A
330
1F
100
AcDbEntity
  8
0
  6
HIDDEN
 62
     7
370
    18
100
AcDbLine
 10
4914.1430817717
 20
3254.0804811449
 30
0.0
 11
4916.4430817717
 21
3254.0804811449
 31
0.0
  0
LINE
  5
18B
330
1F
100
AcDbEntity
  8
0
  6
HIDDEN
 62
     7
370
    18
100
AcDbLine
 10
4916.4430817717
 20
2030.8386075497
 30
0.0
 11
4914.1430817717
 21
2030.8386075497
 31
0.0
  0
LINE
  5
18C
330
1F
100
AcDbEntity
  8
0
  6
HIDDEN
 62
     7
370
    18
100
AcDbLine
 10
4914.1430817717
 20
2018.8386075497
 30
0.0
 11
4916.4430817717
 21
2018.8386075497
 31
0.0
  0
LINE
  5
18D
330
1F
100
AcDbEntity
  8
0
  6
HIDDEN
 62
     7
370
    18
100
AcDbLine
 10
4916.4430817717
 20
3329.6487754323
 30
0.0
 11
4914.1430817717
 21
3329.6487754323
 31
0.0
  0
LINE
  5
18E
330
1F
100
AcDbEntity
  8
0
  6
HIDDEN
 62
     7
370
    18
100
AcDbLine
 10
4914.1430817717
 20
3317.6487754324
 30
0.0
 11
4916.4430817717
 21
3317.6487754324
 31
0.0
  0
LINE
  5
18F
330
1F
100
AcDbEntity
  8
2
100
AcDbLine
 10
3780.0838054281
 20
2674.243691491
 30
0.0
 11
4553.1165382454
 21
2674.243691491
 31
0.0
  0
LINE
  5
190
330
1F
100
AcDbEntity
  8
2
100
AcDbLine
 10
4338.4430817717
 20
2374.1516626063
 30
0.0
 11
4338.4430817717
 21
3437.4195070039
 31
0.0
  0
LINE
  5
191
330
1F
100
AcDbEntity
  8
2
100
AcDbLine
 10
4526.6596580418
 20
3368.243691491
 30
0.0
 11
4060.0527323142
 21
3368.243691491
 31
0.0
  0
LINE
  5
192
330
1F
100
AcDbEntity
  8
1
100
AcDbLine
 10
2367.7123732626
 20
4887.1565882346
 30
0.0
 11
2367.7123732626
 21
5047.1565882346
 31
0.0
  0
LINE
  5
193
330
1F
100
AcDbEntity
  8
1
100
AcDbLine
 10
380.2123732626
 20
5047.1565882346
 30
0.0
 11
380.2123732626
 21
4887.1565882346
 31
0.0
  0
LINE
  5
194
330
1F
100
AcDbEntity
  8
1
100
AcDbLine
 10
788.2123732626
 20
5114.6565882346
 30
0.0
 11
788.2123732626
 21
5669.6565882346
 31
0.0
  0
LINE
  5
195
330
1F
100
AcDbEntity
  8
1
100
AcDbLine
 10
397.2123732626
 20
5669.6565882346
 30
0.0
 11
397.2123732626
 21
5114.6565882346
 31
0.0
  0
LINE
  5
196
330
1F
100
AcDbEntity
  8
1
100
AcDbLine
 10
616.7123732626
 20
5047.1565882346
 30
0.0
 11
616.7123732626
 21
5114.6565882346
 31
0.0
  0
LINE
  5
197
330
1F
100
AcDbEntity
  8
1
100
AcDbLine
 10
568.7123732626
 20
5114.6565882346
 30
0.0
 11
568.7123732626
 21
5047.1565882346
 31
0.0
  0
LINE
  5
198
330
1F
100
AcDbEntity
  8
1
100
AcDbLine
 10
1367.7123732626
 20
6385.1565882346
 30
0.0
 11
1367.7123732626
 21
6382.8565882346
 31
0.0
  0
LINE
  5
199
330
1F
100
AcDbEntity
  8
1
100
AcDbLine
 10
2717.7123732626
 20
6382.8565882346
 30
0.0
 11
2717.7123732626
 21
6385.1565882346
 31
0.0
  0
LINE
  5
19A
330
1F
100
AcDbEntity
  8
1
100
AcDbLine
 10
2717.7123732626
 20
6285.3565882346
 30
0.0
 11
2717.7123732626
 21
6292.1565882346
 31
0.0
  0
LINE
  5
19B
330
1F
100
AcDbEntity
  8
1
100
AcDbLine
 10
1367.7123732626
 20
6292.1565882346
 30
0.0
 11
1367.7123732626
 21
6285.3565882346
 31
0.0
  0
LINE
  5
19C
330
1F
100
AcDbEntity
  8
1
100
AcDbLine
 10
1415.4123732626
 20
6382.8565882346
 30
0.0
 11
1415.4123732626
 21
6292.1565882346
 31
0.0
  0
LINE
  5
19D
330
1F
100
AcDbEntity
  8
1
100
AcDbLine
 10
2670.0123732626
 20
6292.1565882346
 30
0.0
 11
2670.0123732626
 21
6382.8565882346
 31
0.0
  0
LINE
  5
19E
330
1F
100
AcDbEntity
  8
1
100
AcDbLine
 10
2367.7123732626
 20
4887.1565882346
 30
0.0
 11
1907.4440276787
 21
4887.1565882346
 31
0.0
  0
LINE
  5
19F
330
1F
100
AcDbEntity
  8
1
100
AcDbLine
 10
1907.4440276787
 20
4887.1565882346
 30
0.0
 11
1907.4440276787
 21
5047.1565882346
 31
0.0
  0
LINE
  5
1A0
330
1F
100
AcDbEntity
  8
1
100
AcDbLine
 10
2367.7123732626
 20
5047.1565882346
 30
0.0
 11
1907.4440276787
 21
5047.1565882346
 31
0.0
  0
LINE
  5
1A1
330
1F
100
AcDbEntity
  8
1
100
AcDbLine
 10
504.2676857654
 20
4887.1565882346
 30
0.0
 11
504.2676857654
 21
5047.1565882346
 31
0.0
  0
LINE
  5
1A2
330
1F
100
AcDbEntity
  8
1
100
AcDbLine
 10
1907.4440276787
 20
4887.1565882346
 30
0.0
 11
504.2676857654
 21
4887.1565882346
 31
0.0
  0
LINE
  5
1A3
330
1F
100
AcDbEntity
  8
1
100
AcDbLine
 10
1907.4440276787
 20
5047.1565882346
 30
0.0
 11
504.2676857654
 21
5047.1565882346
 31
0.0
  0
LINE
  5
1A4
330
1F
100
AcDbEntity
  8
1
100
AcDbLine
 10
504.2676857654
 20
4887.1565882346
 30
0.0
 11
380.2123732626
 21
4887.1565882346
 31
0.0
  0
LINE
  5
1A5
330
1F
100
AcDbEntity
  8
1
100
AcDbLine
 10
504.2676857654
 20
5047.1565882346
 30
0.0
 11
380.2123732626
 21
5047.1565882346
 31
0.0
  0
LINE
  5
1A6
330
1F
100
AcDbEntity
  8
1
100
AcDbLine
 10
788.2123732626
 20
5669.6565882346
 30
0.0
 11
397.2123732626
 21
5669.6565882346
 31
0.0
  0
LINE
  5
1A7
330
1F
100
AcDbEntity
  8
1
100
AcDbLine
 10
397.2123732626
 20
5114.6565882346
 30
0.0
 11
788.2123732626
 21
5114.6565882346
 31
0.0
  0
LINE
  5
1A8
330
1F
100
AcDbEntity
  8
1
100
AcDbLine
 10
367.7123732626
 20
5561.1565882346
 30
0.0
 11
397.2123732626
 21
5561.1565882346
 31
0.0
  0
LINE
  5
1A9
330
1F
100
AcDbEntity
  8
1
100
AcDbLine
 10
788.2123732626
 20
5561.1565882346
 30
0.0
 11
817.7123732626
 21
5561.1565882346
 31
0.0
  0
LINE
  5
1AA
330
1F
100
AcDbEntity
  8
1
100
AcDbLine
 10
817.7123732626
 20
5151.1565882346
 30
0.0
 11
788.2123732626
 21
5151.1565882346
 31
0.0
  0
LINE
  5
1AB
330
1F
100
AcDbEntity
  8
1
100
AcDbLine
 10
397.2123732626
 20
5151.1565882346
 30
0.0
 11
367.7123732626
 21
5151.1565882346
 31
0.0
  0
LINE
  5
1AC
330
1F
100
AcDbEntity
  8
1
100
AcDbLine
 10
367.7123732626
 20
5151.1565882346
 30
0.0
 11
367.7123732626
 21
5561.1565882346
 31
0.0
  0
LINE
  5
1AD
330
1F
100
AcDbEntity
  8
1
100
AcDbLine
 10
817.7123732626
 20
5561.1565882346
 30
0.0
 11
817.7123732626
 21
5151.1565882346
 31
0.0
  0
LINE
  5
1AE
330
1F
100
AcDbEntity
  8
1
100
AcDbLine
 10
242.7123732626
 20
5080.1565882346
 30
0.0
 11
568.7123732626
 21
5080.1565882346
 31
0.0
  0
LINE
  5
1AF
330
1F
100
AcDbEntity
  8
1
100
AcDbLine
 10
616.7123732626
 20
5080.1565882346
 30
0.0
 11
2792.7123732626
 21
5080.1565882346
 31
0.0
  0
LINE
  5
1B0
330
1F
100
AcDbEntity
  8
1
100
AcDbLine
 10
242.7123732626
 20
6360.1565882346
 30
0.0
 11
242.7123732626
 21
5080.1565882346
 31
0.0
  0
LINE
  5
1B1
330
1F
100
AcDbEntity
  8
1
100
AcDbLine
 10
2792.7123732626
 20
6360.1565882346
 30
0.0
 11
2670.0123732626
 21
6360.1565882346
 31
0.0
  0
LINE
  5
1B2
330
1F
100
AcDbEntity
  8
1
100
AcDbLine
 10
1415.4123732626
 20
6360.1565882346
 30
0.0
 11
242.7123732626
 21
6360.1565882346
 31
0.0
  0
LINE
  5
1B3
330
1F
100
AcDbEntity
  8
1
100
AcDbLine
 10
317.7123732626
 20
5155.1565882346
 30
0.0
 11
367.7123732626
 21
5155.1565882346
 31
0.0
  0
LINE
  5
1B4
330
1F
100
AcDbEntity
  8
1
100
AcDbLine
 10
817.7123732626
 20
5155.1565882346
 30
0.0
 11
2717.7123732626
 21
5155.1565882346
 31
0.0
  0
LINE
  5
1B5
330
1F
100
AcDbEntity
  8
1
100
AcDbLine
 10
2717.7123732626
 20
5155.1565882346
 30
0.0
 11
2717.7123732626
 21
5328.9565882346
 31
0.0
  0
LINE
  5
1B6
330
1F
100
AcDbEntity
  8
1
100
AcDbLine
 10
961.4123732626
 20
6285.1565882346
 30
0.0
 11
317.7123732626
 21
6285.1565882346
 31
0.0
  0
LINE
  5
1B7
330
1F
100
AcDbEntity
  8
1
100
AcDbLine
 10
317.7123732626
 20
6285.1565882346
 30
0.0
 11
317.7123732626
 21
5155.1565882346
 31
0.0
  0
LINE
  5
1B8
330
1F
100
AcDbEntity
  8
1
100
AcDbLine
 10
2792.7123732626
 20
5080.1565882346
 30
0.0
 11
2792.7123732626
 21
5328.9565882346
 31
0.0
  0
LINE
  5
1B9
330
1F
100
AcDbEntity
  8
1
100
AcDbLine
 10
2792.7123732626
 20
6285.3565882346
 30
0.0
 11
2792.7123732626
 21
6360.1565882346
 31
0.0
  0
LINE
  5
1BA
330
1F
100
AcDbEntity
  8
1
100
AcDbLine
 10
2863.7123732626
 20
5279.1565882346
 30
0.0
 11
2867.7123732626
 21
5279.1565882346
 31
0.0
  0
LINE
  5
1BB
330
1F
100
AcDbEntity
  8
1
100
AcDbLine
 10
2863.7123732626
 20
6335.1565882346
 30
0.0
 11
2867.7123732626
 21
6335.1565882346
 31
0.0
  0
LINE
  5
1BC
330
1F
100
AcDbEntity
  8
1
100
AcDbLine
 10
2867.7123732626
 20
6335.1565882346
 30
0.0
 11
2867.7123732626
 21
5279.1565882346
 31
0.0
  0
LINE
  5
1BD
330
1F
100
AcDbEntity
  8
1
100
AcDbLine
 10
2863.7123732626
 20
6335.1565882346
 30
0.0
 11
2863.7123732626
 21
5279.1565882346
 31
0.0
  0
LINE
  5
1BE
330
1F
100
AcDbEntity
  8
1
100
AcDbLine
 10
2863.7123732626
 20
5328.9565882346
 30
0.0
 11
2025.5839949528
 21
5328.9565882346
 31
0.0
  0
LINE
  5
1BF
330
1F
100
AcDbEntity
  8
1
100
AcDbLine
 10
2025.5839949528
 20
5328.9565882346
 30
0.0
 11
2025.5839949528
 21
6285.3565882346
 31
0.0
  0
LINE
  5
1C0
330
1F
100
AcDbEntity
  8
1
100
AcDbLine
 10
2863.7123732626
 20
6285.3565882346
 30
0.0
 11
2025.5839949528
 21
6285.3565882346
 31
0.0
  0
LINE
  5
1C1
330
1F
100
AcDbEntity
  8
1
100
AcDbLine
 10
961.4123732626
 20
5328.9565882346
 30
0.0
 11
961.4123732626
 21
6285.3565882346
 31
0.0
  0
LINE
  5
1C2
330
1F
100
AcDbEntity
  8
1
100
AcDbLine
 10
2025.5839949528
 20
5328.9565882346
 30
0.0
 11
961.4123732626
 21
5328.9565882346
 31
0.0
  0
LINE
  5
1C3
330
1F
100
AcDbEntity
  8
1
100
AcDbLine
 10
2025.5839949528
 20
6285.3565882346
 30
0.0
 11
961.4123732626
 21
6285.3565882346
 31
0.0
  0
LINE
  5
1C4
330
1F
100
AcDbEntity
  8
1
100
AcDbLine
 10
1367.7123732626
 20
6385.1565882346
 30
0.0
 11
2717.7123732626
 21
6385.1565882346
 31
0.0
  0
LINE
  5
1C5
330
1F
100
AcDbEntity
  8
1
100
AcDbLine
 10
1367.7123732626
 20
6382.8565882346
 30
0.0
 11
2717.7123732626
 21
6382.8565882346
 31
0.0
  0
LINE
  5
1C6
330
1F
100
AcDbEntity
  8
1
100
AcDbLine
 10
2717.7123732626
 20
6292.1565882346
 30
0.0
 11
1367.7123732626
 21
6292.1565882346
 31
0.0
  0
LINE
  5
1C7
330
1F
100
AcDbEntity
  8
0
  6
HIDDEN
 62
     7
370
    18
100
AcDbLine
 10
2133.6921552944
 20
4887.1565882346
 30
0.0
 11
2133.6921552944
 21
5047.1565882346
 31
0.0
  0
LINE
  5
1C8
330
1F
100
AcDbEntity
  8
0
  6
HIDDEN
 62
     7
370
    18
100
AcDbLine
 10
652.1991538219
 20
4887.1565882346
 30
0.0
 11
652.1991538219
 21
5047.1565882346
 31
0.0
  0
LINE
  5
1C9
330
1F
100
AcDbEntity
  8
0
  6
HIDDEN
 62
     7
370
    18
100
AcDbLine
 10
483.2763188747
 20
5194.1565882346
 30
0.0
 11
497.9534686678
 21
5194.1565882346
 31
0.0
  0
LINE
  5
1CA
330
1F
100
AcDbEntity
  8
0
  6
HIDDEN
 62
     7
370
    18
100
AcDbLine
 10
483.2763188747
 20
5194.1565882346
 30
0.0
 11
483.2763188747
 21
5518.1565882346
 31
0.0
  0
LINE
  5
1CB
330
1F
100
AcDbEntity
  8
0
  6
HIDDEN
 62
     7
370
    18
100
AcDbLine
 10
483.2763188747
 20
5518.1565882346
 30
0.0
 11
497.9534686678
 21
5518.1565882346
 31
0.0
  0
LINE
  5
1CC
330
1F
100
AcDbEntity
  8
0
  6
HIDDEN
 62
     7
370
    18
100
AcDbLine
 10
497.9534686678
 20
5669.6565882346
 30
0.0
 11
497.9534686678
 21
5518.1565882346
 31
0.0
  0
LINE
  5
1CD
330
1F
100
AcDbEntity
  8
0
  6
HIDDEN
 62
     7
370
    18
100
AcDbLine
 10
687.4712778574
 20
5669.6565882346
 30
0.0
 11
687.4712778574
 21
5518.1565882346
 31
0.0
  0
LINE
  5
1CE
330
1F
100
AcDbEntity
  8
0
  6
HIDDEN
 62
     7
370
    18
100
AcDbLine
 10
687.4712778574
 20
5518.1565882346
 30
0.0
 11
702.1484276505
 21
5518.1565882346
 31
0.0
  0
LINE
  5
1CF
330
1F
100
AcDbEntity
  8
0
  6
HIDDEN
 62
     7
370
    18
100
AcDbLine
 10
702.1484276505
 20
5518.1565882346
 30
0.0
 11
702.1484276505
 21
5194.1565882346
 31
0.0
  0
LINE
  5
1D0
330
1F
100
AcDbEntity
  8
0
  6
HIDDEN
 62
     7
370
    18
100
AcDbLine
 10
687.4712778574
 20
5194.1565882346
 30
0.0
 11
702.1484276505
 21
5194.1565882346
 31
0.0
  0
LINE
  5
1D1
330
1F
100
AcDbEntity
  8
0
  6
HIDDEN
 62
     7
370
    18
100
AcDbLine
 10
687.4712778574
 20
5194.1565882346
 30
0.0
 11
687.4712778574
 21
5114.6565882346
 31
0.0
  0
LINE
  5
1D2
330
1F
100
AcDbEntity
  8
0
  6
HIDDEN
 62
     7
370
    18
100
AcDbLine
 10
497.9534686678
 20
5194.1565882346
 30
0.0
 11
497.9534686678
 21
5114.6565882346
 31
0.0
  0
LINE
  5
1D3
330
1F
100
AcDbEntity
  8
0
  6
HIDDEN
 62
     7
370
    18
100
AcDbLine
 10
483.2763188747
 20
5518.1565882346
 30
0.0
 11
449.7123732626
 21
5518.1565882346
 31
0.0
  0
LINE
  5
1D4
330
1F
100
AcDbEntity
  8
0
  6
HIDDEN
 62
     7
370
    18
100
AcDbLine
 10
483.2763188747
 20
5194.1565882346
 30
0.0
 11
449.7123732626
 21
5194.1565882346
 31
0.0
  0
LINE
  5
1D5
330
1F
100
AcDbEntity
  8
0
  6
HIDDEN
 62
     7
370
    18
100
AcDbLine
 10
449.7123732626
 20
5194.1565882346
 30
0.0
 11
449.7123732626
 21
5518.1565882346
 31
0.0
  0
LINE
  5
1D6
330
1F
100
AcDbEntity
  8
0
  6
HIDDEN
 62
     7
370
    18
100
AcDbLine
 10
735.7123732626
 20
5194.1565882346
 30
0.0
 11
702.1484276505
 21
5194.1565882346
 31
0.0
  0
LINE
  5
1D7
330
1F
100
AcDbEntity
  8
0
  6
HIDDEN
 62
     7
370
    18
100
AcDbLine
 10
735.7123732626
 20
5518.1565882346
 30
0.0
 11
702.1484276505
 21
5518.1565882346
 31
0.0
  0
LINE
  5
1D8
330
1F
100
AcDbEntity
  8
0
  6
HIDDEN
 62
     7
370
    18
100
AcDbLine
 10
735.7123732626
 20
5194.1565882346
 30
0.0
 11
735.7123732626
 21
5518.1565882346
 31
0.0
  0
LINE
  5
1D9
330
1F
100
AcDbEntity
  8
0
  6
HIDDEN
 62
     7
370
    18
100
AcDbLine
 10
497.9534686678
 20
5518.1565882346
 30
0.0
 11
687.4712778574
 21
5518.1565882346
 31
0.0
  0
LINE
  5
1DA
330
1F
100
AcDbEntity
  8
0
  6
HIDDEN
 62
     7
370
    18
100
AcDbLine
 10
497.9534686678
 20
5194.1565882346
 30
0.0
 11
687.4712778574
 21
5194.1565882346
 31
0.0
  0
LINE
  5
1DB
330
1F
100
AcDbEntity
  8
0
  6
HIDDEN
 62
     7
370
    18
100
AcDbLine
 10
397.2123732626
 20
5561.1565882346
 30
0.0
 11
788.2123732626
 21
5561.1565882346
 31
0.0
  0
LINE
  5
1DC
330
1F
100
AcDbEntity
  8
0
  6
HIDDEN
 62
     7
370
    18
100
AcDbLine
 10
788.2123732626
 20
5151.1565882346
 30
0.0
 11
397.2123732626
 21
5151.1565882346
 31
0.0
  0
LINE
  5
1DD
330
1F
100
AcDbEntity
  8
0
  6
HIDDEN
 62
     7
370
    18
100
AcDbLine
 10
480.2123732626
 20
4929.6565882346
 30
0.0
 11
705.2123732626
 21
4929.6565882346
 31
0.0
  0
LINE
  5
1DE
330
1F
100
AcDbEntity
  8
0
  6
HIDDEN
 62
     7
370
    18
100
AcDbLine
 10
480.2123732626
 20
5004.6565882346
 30
0.0
 11
705.2123732626
 21
5004.6565882346
 31
0.0
  0
LINE
  5
1DF
330
1F
100
AcDbEntity
  8
0
  6
HIDDEN
 62
     7
370
    18
100
AcDbLine
 10
2037.7705551726
 20
4929.6565882346
 30
0.0
 11
2267.7123732626
 21
4929.6565882346
 31
0.0
  0
LINE
  5
1E0
330
1F
100
AcDbEntity
  8
0
  6
HIDDEN
 62
     7
370
    18
100
AcDbLine
 10
1817.7123732626
 20
4929.6565882346
 30
0.0
 11
2037.7705551726
 21
4929.6565882346
 31
0.0
  0
LINE
  5
1E1
330
1F
100
AcDbEntity
  8
0
  6
HIDDEN
 62
     7
370
    18
100
AcDbLine
 10
2037.7705551726
 20
5004.6565882346
 30
0.0
 11
2267.7123732626
 21
5004.6565882346
 31
0.0
  0
LINE
  5
1E2
330
1F
100
AcDbEntity
  8
0
  6
HIDDEN
 62
     7
370
    18
100
AcDbLine
 10
1817.7123732626
 20
5004.6565882346
 30
0.0
 11
2037.7705551726
 21
5004.6565882346
 31
0.0
  0
LINE
  5
1E3
330
1F
100
AcDbEntity
  8
0
  6
HIDDEN
 62
     7
370
    18
100
AcDbLine
 10
2723.7123732626
 20
5149.1565882346
 30
0.0
 11
2723.7123732626
 21
6291.1565882346
 31
0.0
  0
LINE
  5
1E4
330
1F
100
AcDbEntity
  8
0
  6
HIDDEN
 62
     7
370
    18
100
AcDbLine
 10
2723.7123732626
 20
6291.1565882346
 30
0.0
 11
311.7123732626
 21
6291.1565882346
 31
0.0
  0
LINE
  5
1E5
330
1F
100
AcDbEntity
  8
0
  6
HIDDEN
 62
     7
370
    18
100
AcDbLine
 10
311.7123732626
 20
6291.1565882346
 30
0.0
 11
311.7123732626
 21
5149.1565882346
 31
0.0
  0
LINE
  5
1E6
330
1F
100
AcDbEntity
  8
0
  6
HIDDEN
 62
     7
370
    18
100
AcDbLine
 10
311.7123732626
 20
5149.1565882346
 30
0.0
 11
2723.7123732626
 21
5149.1565882346
 31
0.0
  0
CIRCLE
  5
1E7
330
1F
100
AcDbEntity
  8
0
  6
HIDDEN
 62
     7
370
    18
100
AcDbCircle
 10
362.7123732626
 20
6325.1565882346
 30
0.0
 40
11.99999999999909
  0
CIRCLE
  5
1E8
330
1F
100
AcDbEntity
  8
0
  6
HIDDEN
 62
     7
370
    18
100
AcDbCircle
 10
1132.7123732626
 20
6325.1565882346
 30
0.0
 40
11.99999999999909
  0
CIRCLE
  5
1E9
330
1F
100
AcDbEntity
  8
0
  6
HIDDEN
 62
     7
370
    18
100
AcDbCircle
 10
1902.7123732626
 20
6325.1565882346
 30
0.0
 40
11.99999999999909
  0
CIRCLE
  5
1EA
330
1F
100
AcDbEntity
  8
0
  6
HIDDEN
 62
     7
370
    18
100
AcDbCircle
 10
2672.7123732626
 20
6325.1565882346
 30
0.0
 40
11.99999999999909
  0
CIRCLE
  5
1EB
330
1F
100
AcDbEntity
  8
0
  6
HIDDEN
 62
     7
370
    18
100
AcDbCircle
 10
2672.7123732626
 20
5115.1565882346
 30
0.0
 40
12.0
  0
CIRCLE
  5
1EC
330
1F
100
AcDbEntity
  8
0
  6
HIDDEN
 62
     7
370
    18
100
AcDbCircle
 10
1902.7123732626
 20
5115.1565882346
 30
0.0
 40
12.0
  0
CIRCLE
  5
1ED
330
1F
100
AcDbEntity
  8
0
  6
HIDDEN
 62
     7
370
    18
100
AcDbCircle
 10
1132.7123732626
 20
5115.1565882346
 30
0.0
 40
12.0
  0
CIRCLE
  5
1EE
330
1F
100
AcDbEntity
  8
0
  6
HIDDEN
 62
     7
370
    18
100
AcDbCircle
 10
362.7123732626
 20
5115.1565882346
 30
0.0
 40
11.99999999999909
  0
LINE
  5
1EF
330
1F
100
AcDbEntity
  8
0
  6
HIDDEN
 62
     7
370
    18
100
AcDbLine
 10
568.7123732626
 20
5080.1565882346
 30
0.0
 11
616.7123732626
 21
5080.1565882346
 31
0.0
  0
LINE
  5
1F0
330
1F
100
AcDbEntity
  8
0
  6
HIDDEN
 62
     7
370
    18
100
AcDbLine
 10
2670.0123732626
 20
6360.1565882346
 30
0.0
 11
1415.4123732626
 21
6360.1565882346
 31
0.0
  0
LINE
  5
1F1
330
1F
100
AcDbEntity
  8
0
  6
HIDDEN
 62
     7
370
    18
100
AcDbLine
 10
367.7123732626
 20
5155.1565882346
 30
0.0
 11
817.7123732626
 21
5155.1565882346
 31
0.0
  0
LINE
  5
1F2
330
1F
100
AcDbEntity
  8
0
  6
HIDDEN
 62
     7
370
    18
100
AcDbLine
 10
2717.7123732626
 20
5328.9565882346
 30
0.0
 11
2717.7123732626
 21
6285.1565882346
 31
0.0
  0
LINE
  5
1F3
330
1F
100
AcDbEntity
  8
0
  6
HIDDEN
 62
     7
370
    18
100
AcDbLine
 10
2717.7123732626
 20
6285.1565882346
 30
0.0
 11
961.4123732626
 21
6285.1565882346
 31
0.0
  0
LINE
  5
1F4
330
1F
100
AcDbEntity
  8
0
  6
HIDDEN
 62
     7
370
    18
100
AcDbLine
 10
2792.7123732626
 20
5328.9565882346
 30
0.0
 11
2792.7123732626
 21
6285.3565882346
 31
0.0
  0
LINE
  5
1F5
330
1F
100
AcDbEntity
  8
0
  6
HIDDEN
 62
     7
370
    18
100
AcDbLine
 10
2724.2123732626
 20
5148.6565882346
 30
0.0
 11
2724.2123732626
 21
6291.6565882346
 31
0.0
  0
LINE
  5
1F6
330
1F
100
AcDbEntity
  8
0
  6
HIDDEN
 62
     7
370
    18
100
AcDbLine
 10
311.2123732626
 20
6291.6565882346
 30
0.0
 11
311.2123732626
 21
5148.6565882346
 31
0.0
  0
LINE
  5
1F7
330
1F
100
AcDbEntity
  8
0
  6
HIDDEN
 62
     7
370
    18
100
AcDbLine
 10
2724.2123732626
 20
6291.6565882346
 30
0.0
 11
311.2123732626
 21
6291.6565882346
 31
0.0
  0
LINE
  5
1F8
330
1F
100
AcDbEntity
  8
0
  6
HIDDEN
 62
     7
370
    18
100
AcDbLine
 10
311.2123732626
 20
5148.6565882346
 30
0.0
 11
2724.2123732626
 21
5148.6565882346
 31
0.0
  0
CIRCLE
  5
1F9
330
1F
100
AcDbEntity
  8
0
  6
HIDDEN
 62
     7
370
    18
100
AcDbCircle
 10
317.7123732626
 20
6322.6565882346
 30
0.0
 40
17.5
  0
CIRCLE
  5
1FA
330
1F
100
AcDbEntity
  8
0
  6
HIDDEN
 62
     7
370
    18
100
AcDbCircle
 10
2717.7123732626
 20
6322.6565882346
 30
0.0
 40
17.5
  0
CIRCLE
  5
1FB
330
1F
100
AcDbEntity
  8
0
  6
HIDDEN
 62
     7
370
    18
100
AcDbCircle
 10
2717.7123732626
 20
5117.6565882346
 30
0.0
 40
17.5
  0
CIRCLE
  5
1FC
330
1F
100
AcDbEntity
  8
0
  6
HIDDEN
 62
     7
370
    18
100
AcDbCircle
 10
317.7123732626
 20
5117.6565882346
 30
0.0
 40
17.5
  0
LINE
  5
1FD
330
1F
100
AcDbEntity
  8
0
  6
HIDDEN
 62
     7
370
    18
100
AcDbLine
 10
2867.7123732626
 20
6282.1565882346
 30
0.0
 11
2025.7961379794
 21
6282.1565882346
 31
0.0
  0
LINE
  5
1FE
330
1F
100
AcDbEntity
  8
0
  6
HIDDEN
 62
     7
370
    18
100
AcDbLine
 10
2867.7123732626
 20
5332.1565882346
 30
0.0
 11
2025.7961379794
 21
5332.1565882346
 31
0.0
  0
LINE
  5
1FF
330
1F
100
AcDbEntity
  8
0
  6
HIDDEN
 62
     7
370
    18
100
AcDbLine
 10
963.7123732626
 20
5332.1565882346
 30
0.0
 11
963.7123732626
 21
6282.1565882346
 31
0.0
  0
LINE
  5
200
330
1F
100
AcDbEntity
  8
0
  6
HIDDEN
 62
     7
370
    18
100
AcDbLine
 10
2025.7961379794
 20
5332.1565882346
 30
0.0
 11
963.7123732626
 21
5332.1565882346
 31
0.0
  0
LINE
  5
201
330
1F
100
AcDbEntity
  8
0
  6
HIDDEN
 62
     7
370
    18
100
AcDbLine
 10
2025.7961379794
 20
5332.1565882346
 30
0.0
 11
2025.7961379794
 21
6282.1565882346
 31
0.0
  0
LINE
  5
202
330
1F
100
AcDbEntity
  8
0
  6
HIDDEN
 62
     7
370
    18
100
AcDbLine
 10
2025.7961379794
 20
6282.1565882346
 30
0.0
 11
963.7123732626
 21
6282.1565882346
 31
0.0
  0
LINE
  5
203
330
1F
100
AcDbEntity
  8
0
  6
HIDDEN
 62
     7
370
    18
100
AcDbLine
 10
1951.7123732626
 20
5328.9565882346
 30
0.0
 11
1951.7123732626
 21
6285.3565882346
 31
0.0
  0
LINE
  5
204
330
1F
100
AcDbEntity
  8
0
  6
HIDDEN
 62
     7
370
    18
100
AcDbLine
 10
1951.7123732626
 20
5332.1565882346
 30
0.0
 11
1951.7123732626
 21
6282.1565882346
 31
0.0
  0
LINE
  5
205
330
1F
100
AcDbEntity
  8
0
  6
HIDDEN
 62
     7
370
    18
100
AcDbLine
 10
2785.7123732626
 20
5332.1565882346
 30
0.0
 11
2785.7123732626
 21
6282.1565882346
 31
0.0
  0
LINE
  5
206
330
1F
100
AcDbEntity
  8
0
  6
HIDDEN
 62
     7
370
    18
100
AcDbLine
 10
2788.0123732626
 20
5328.9565882346
 30
0.0
 11
2788.0123732626
 21
6285.3565882346
 31
0.0
  0
LINE
  5
207
330
1F
100
AcDbEntity
  8
0
  6
HIDDEN
 62
     7
370
    18
100
AcDbLine
 10
1965.7123732626
 20
5328.9565882346
 30
0.0
 11
1965.7123732626
 21
6285.3565882346
 31
0.0
  0
LINE
  5
208
330
1F
100
AcDbEntity
  8
0
  6
HIDDEN
 62
     7
370
    18
100
AcDbLine
 10
1965.7123732626
 20
5332.1565882346
 30
0.0
 11
1965.7123732626
 21
6282.1565882346
 31
0.0
  0
LINE
  5
209
330
1F
100
AcDbEntity
  8
0
  6
HIDDEN
 62
     7
370
    18
100
AcDbLine
 10
616.7123732626
 20
5004.6565882346
 30
0.0
 11
616.7123732626
 21
5047.1565882346
 31
0.0
  0
LINE
  5
20A
330
1F
100
AcDbEntity
  8
0
  6
HIDDEN
 62
     7
370
    18
100
AcDbLine
 10
568.7123732626
 20
5047.1565882346
 30
0.0
 11
568.7123732626
 21
5004.6565882346
 31
0.0
  0
LINE
  5
20B
330
1F
100
AcDbEntity
  8
0
  6
HIDDEN
 62
     7
370
    18
100
AcDbLine
 10
705.2123732626
 20
4929.6565882346
 30
0.0
 11
705.2123732626
 21
5004.6565882346
 31
0.0
  0
LINE
  5
20C
330
1F
100
AcDbEntity
  8
0
  6
HIDDEN
 62
     7
370
    18
100
AcDbLine
 10
480.2123732626
 20
5004.6565882346
 30
0.0
 11
480.2123732626
 21
4929.6565882346
 31
0.0
  0
LINE
  5
20D
330
1F
100
AcDbEntity
  8
0
  6
HIDDEN
 62
     7
370
    18
100
AcDbLine
 10
2267.7123732626
 20
4929.6565882346
 30
0.0
 11
2267.7123732626
 21
5004.6565882346
 31
0.0
  0
LINE
  5
20E
330
1F
100
AcDbEntity
  8
0
  6
HIDDEN
 62
     7
370
    18
100
AcDbLine
 10
1817.7123732626
 20
5004.6565882346
 30
0.0
 11
1817.7123732626
 21
4929.6565882346
 31
0.0
  0
LINE
  5
20F
330
1F
100
AcDbEntity
  8
0
  6
HIDDEN
 62
     7
370
    18
100
AcDbLine
 10
2867.7123732626
 20
6321.1565882346
 30
0.0
 11
2863.7123732626
 21
6321.1565882346
 31
0.0
  0
LINE
  5
210
330
1F
100
AcDbEntity
  8
0
  6
HIDDEN
 62
     7
370
    18
100
AcDbLine
 10
2863.7123732626
 20
6309.1565882346
 30
0.0
 11
2867.7123732626
 21
6309.1565882346
 31
0.0
  0
LINE
  5
211
330
1F
100
AcDbEntity
  8
0
  6
HIDDEN
 62
     7
370
    18
100
AcDbLine
 10
2867.7123732626
 20
6213.1565882346
 30
0.0
 11
2863.7123732626
 21
6213.1565882346
 31
0.0
  0
LINE
  5
212
330
1F
100
AcDbEntity
  8
0
  6
HIDDEN
 62
     7
370
    18
100
AcDbLine
 10
2863.7123732626
 20
6201.1565882346
 30
0.0
 11
2867.7123732626
 21
6201.1565882346
 31
0.0
  0
LINE
  5
213
330
1F
100
AcDbEntity
  8
0
  6
HIDDEN
 62
     7
370
    18
100
AcDbLine
 10
2867.7123732626
 20
6013.1565882346
 30
0.0
 11
2863.7123732626
 21
6013.1565882346
 31
0.0
  0
LINE
  5
214
330
1F
100
AcDbEntity
  8
0
  6
HIDDEN
 62
     7
370
    18
100
AcDbLine
 10
2863.7123732626
 20
6001.1565882346
 30
0.0
 11
2867.7123732626
 21
6001.1565882346
 31
0.0
  0
LINE
  5
215
330
1F
100
AcDbEntity
  8
0
  6
HIDDEN
 62
     7
370
    18
100
AcDbLine
 10
2867.7123732626
 20
5813.1565882346
 30
0.0
 11
2863.7123732626
 21
5813.1565882346
 31
0.0
  0
LINE
  5
216
330
1F
100
AcDbEntity
  8
0
  6
HIDDEN
 62
     7
370
    18
100
AcDbLine
 10
2863.7123732626
 20
5801.1565882346
 30
0.0
 11
2867.7123732626
 21
5801.1565882346
 31
0.0
  0
LINE
  5
217
330
1F
100
AcDbEntity
  8
0
  6
HIDDEN
 62
     7
370
    18
100
AcDbLine
 10
2867.7123732626
 20
5613.1565882346
 30
0.0
 11
2863.7123732626
 21
5613.1565882346
 31
0.0
  0
LINE
  5
218
330
1F
100
AcDbEntity
  8
0
  6
HIDDEN
 62
     7
370
    18
100
AcDbLine
 10
2863.7123732626
 20
5601.1565882346
 30
0.0
 11
2867.7123732626
 21
5601.1565882346
 31
0.0
  0
LINE
  5
219
330
1F
100
AcDbEntity
  8
0
  6
HIDDEN
 62
     7
370
    18
100
AcDbLine
 10
2867.7123732626
 20
5413.1565882346
 30
0.0
 11
2863.7123732626
 21
5413.1565882346
 31
0.0
  0
LINE
  5
21A
330
1F
100
AcDbEntity
  8
0
  6
HIDDEN
 62
     7
370
    18
100
AcDbLine
 10
2863.7123732626
 20
5401.1565882346
 30
0.0
 11
2867.7123732626
 21
5401.1565882346
 31
0.0
  0
LINE
  5
21B
330
1F
100
AcDbEntity
  8
0
  6
HIDDEN
 62
     7
370
    18
100
AcDbLine
 10
2867.7123732626
 20
5305.1565882346
 30
0.0
 11
2863.7123732626
 21
5305.1565882346
 31
0.0
  0
LINE
  5
21C
330
1F
100
AcDbEntity
  8
0
  6
HIDDEN
 62
     7
370
    18
100
AcDbLine
 10
2863.7123732626
 20
5293.1565882346
 30
0.0
 11
2867.7123732626
 21
5293.1565882346
 31
0.0
  0
LINE
  5
21D
330
1F
100
AcDbEntity
  8
0
  6
HIDDEN
 62
     7
370
    18
100
AcDbLine
 10
2139.5680340265
 20
6385.1565882346
 30
0.0
 11
2139.5680340265
 21
6382.8565882346
 31
0.0
  0
LINE
  5
21E
330
1F
100
AcDbEntity
  8
0
  6
HIDDEN
 62
     7
370
    18
100
AcDbLine
 10
2151.5680340265
 20
6382.8565882346
 30
0.0
 11
2151.5680340265
 21
6385.1565882346
 31
0.0
  0
LINE
  5
21F
330
1F
100
AcDbEntity
  8
0
  6
HIDDEN
 62
     7
370
    18
100
AcDbLine
 10
1933.8567124986
 20
6385.1565882346
 30
0.0
 11
1933.8567124986
 21
6382.8565882346
 31
0.0
  0
LINE
  5
220
330
1F
100
AcDbEntity
  8
0
  6
HIDDEN
 62
     7
370
    18
100
AcDbLine
 10
1945.8567124986
 20
6382.8565882346
 30
0.0
 11
1945.8567124986
 21
6385.1565882346
 31
0.0
  0
LINE
  5
221
330
1F
100
AcDbEntity
  8
0
  6
HIDDEN
 62
     7
370
    18
100
AcDbLine
 10
2667.7123732626
 20
6282.1565882346
 30
0.0
 11
2667.7123732626
 21
6385.1565882346
 31
0.0
  0
LINE
  5
222
330
1F
100
AcDbEntity
  8
0
  6
HIDDEN
 62
     7
370
    18
100
AcDbLine
 10
1417.7123732626
 20
6385.1565882346
 30
0.0
 11
1417.7123732626
 21
6282.1565882346
 31
0.0
  0
LINE
  5
223
330
1F
100
AcDbEntity
  8
0
  6
HIDDEN
 62
     7
370
    18
100
AcDbLine
 10
2335.2111268413
 20
6385.1565882346
 30
0.0
 11
2335.2111268413
 21
6382.8565882346
 31
0.0
  0
LINE
  5
224
330
1F
100
AcDbEntity
  8
0
  6
HIDDEN
 62
     7
370
    18
100
AcDbLine
 10
2347.2111268413
 20
6382.8565882346
 30
0.0
 11
2347.2111268413
 21
6385.1565882346
 31
0.0
  0
LINE
  5
225
330
1F
100
AcDbEntity
  8
0
  6
HIDDEN
 62
     7
370
    18
100
AcDbLine
 10
1738.2136196838
 20
6385.1565882346
 30
0.0
 11
1738.2136196838
 21
6382.8565882346
 31
0.0
  0
LINE
  5
226
330
1F
100
AcDbEntity
  8
0
  6
HIDDEN
 62
     7
370
    18
100
AcDbLine
 10
1750.2136196838
 20
6382.8565882346
 30
0.0
 11
1750.2136196838
 21
6385.1565882346
 31
0.0
  0
LINE
  5
227
330
1F
100
AcDbEntity
  8
0
  6
HIDDEN
 62
     7
370
    18
100
AcDbLine
 10
2501.6350818928
 20
6385.1565882346
 30
0.0
 11
2501.6350818928
 21
6382.8565882346
 31
0.0
  0
LINE
  5
228
330
1F
100
AcDbEntity
  8
0
  6
HIDDEN
 62
     7
370
    18
100
AcDbLine
 10
2513.6350818928
 20
6382.8565882346
 30
0.0
 11
2513.6350818928
 21
6385.1565882346
 31
0.0
  0
LINE
  5
229
330
1F
100
AcDbEntity
  8
0
  6
HIDDEN
 62
     7
370
    18
100
AcDbLine
 10
1571.7896646324
 20
6385.1565882346
 30
0.0
 11
1571.7896646324
 21
6382.8565882346
 31
0.0
  0
LINE
  5
22A
330
1F
100
AcDbEntity
  8
0
  6
HIDDEN
 62
     7
370
    18
100
AcDbLine
 10
1583.7896646324
 20
6382.8565882346
 30
0.0
 11
1583.7896646324
 21
6385.1565882346
 31
0.0
  0
LINE
  5
22B
330
1F
100
AcDbEntity
  8
0
  6
HIDDEN
 62
     7
370
    18
100
AcDbLine
 10
2622.5491629164
 20
6385.1565882346
 30
0.0
 11
2622.5491629164
 21
6382.8565882346
 31
0.0
  0
LINE
  5
22C
330
1F
100
AcDbEntity
  8
0
  6
HIDDEN
 62
     7
370
    18
100
AcDbLine
 10
2634.5491629164
 20
6382.8565882346
 30
0.0
 11
2634.5491629164
 21
6385.1565882346
 31
0.0
  0
LINE
  5
22D
330
1F
100
AcDbEntity
  8
0
  6
HIDDEN
 62
     7
370
    18
100
AcDbLine
 10
1450.8755836087
 20
6385.1565882346
 30
0.0
 11
1450.8755836087
 21
6382.8565882346
 31
0.0
  0
LINE
  5
22E
330
1F
100
AcDbEntity
  8
0
  6
HIDDEN
 62
     7
370
    18
100
AcDbLine
 10
1462.8755836087
 20
6382.8565882346
 30
0.0
 11
1462.8755836087
 21
6385.1565882346
 31
0.0
  0
LINE
  5
22F
330
1F
100
AcDbEntity
  8
0
  6
HIDDEN
 62
     7
370
    18
100
AcDbLine
 10
2686.1174572039
 20
6385.1565882346
 30
0.0
 11
2686.1174572039
 21
6382.8565882346
 31
0.0
  0
LINE
  5
230
330
1F
100
AcDbEntity
  8
0
  6
HIDDEN
 62
     7
370
    18
100
AcDbLine
 10
2698.1174572039
 20
6382.8565882346
 30
0.0
 11
2698.1174572039
 21
6385.1565882346
 31
0.0
  0
LINE
  5
231
330
1F
100
AcDbEntity
  8
0
  6
HIDDEN
 62
     7
370
    18
100
AcDbLine
 10
1387.3072893213
 20
6385.1565882346
 30
0.0
 11
1387.3072893213
 21
6382.8565882346
 31
0.0
  0
LINE
  5
232
330
1F
100
AcDbEntity
  8
0
  6
HIDDEN
 62
     7
370
    18
100
AcDbLine
 10
1399.3072893213
 20
6382.8565882346
 30
0.0
 11
1399.3072893213
 21
6385.1565882346
 31
0.0
  0
CIRCLE
  5
233
330
1F
100
AcDbEntity
  8
基礎穴
100
AcDbCircle
 10
362.7123732626
 20
6325.1565882346
 30
0.0
 40
12.0000000000002
  0
CIRCLE
  5
234
330
1F
100
AcDbEntity
  8
基礎穴
100
AcDbCircle
 10
1132.7123732626
 20
6325.1565882346
 30
0.0
 40
12.00000000000031
  0
CIRCLE
  5
235
330
1F
100
AcDbEntity
  8
基礎穴
100
AcDbCircle
 10
1902.7123732626
 20
6325.1565882346
 30
0.0
 40
12.00000000000031
  0
CIRCLE
  5
236
330
1F
100
AcDbEntity
  8
基礎穴
100
AcDbCircle
 10
2672.7123732626
 20
6325.1565882346
 30
0.0
 40
12.00000000000009
  0
CIRCLE
  5
237
330
1F
100
AcDbEntity
  8
基礎穴
100
AcDbCircle
 10
2672.7123732626
 20
5115.1565882346
 30
0.0
 40
12.00000000000009
  0
CIRCLE
  5
238
330
1F
100
AcDbEntity
  8
基礎穴
100
AcDbCircle
 10
1902.7123732626
 20
5115.1565882346
 30
0.0
 40
12.00000000000031
  0
CIRCLE
  5
239
330
1F
100
AcDbEntity
  8
基礎穴
100
AcDbCircle
 10
1132.7123732626
 20
5115.1565882346
 30
0.0
 40
11.99999999999983
  0
CIRCLE
  5
23A
330
1F
100
AcDbEntity
  8
基礎穴
100
AcDbCircle
 10
362.7123732626
 20
5115.1565882346
 30
0.0
 40
11.99999999999999
  0
LINE
  5
23B
330
1F
100
AcDbEntity
  8
2
100
AcDbLine
 10
2042.7123732626
 20
5261.0537688791
 30
0.0
 11
2042.7123732626
 21
6030.78823865
 31
0.0
  0
LINE
  5
23C
330
1F
100
AcDbEntity
  8
2
100
AcDbLine
 10
2238.8798327116
 20
5807.1565882347
 30
0.0
 11
1331.5499663442
 21
5807.1565882347
 31
0.0
  0
ENDSEC
  0
SECTION
  2
OBJECTS
  0
DICTIONARY
  5
C
330
0
100
AcDbDictionary
281
     1
  3
ACAD_GROUP
350
D
  3
ACAD_LAYOUT
350
1A
  3
ACAD_MLINESTYLE
350
17
  3
ACAD_PLOTSETTINGS
350
19
  3
ACAD_PLOTSTYLENAME
350
E
  3
ACAD_SCALELIST
350
47
  3
DWGPROPS
350
23D
  0
DICTIONARY
  5
D
102
{ACAD_REACTORS
330
C
102
}
330
C
100
AcDbDictionary
281
     1
  0
DICTIONARY
  5
1A
102
{ACAD_REACTORS
330
C
102
}
330
C
100
AcDbDictionary
281
     1
  3
Layout1
350
1E
  3
Layout2
350
26
  3
Model
350
22
  0
DICTIONARY
  5
17
102
{ACAD_REACTORS
330
C
102
}
330
C
100
AcDbDictionary
281
     1
  3
Standard
350
18
  0
DICTIONARY
  5
19
102
{ACAD_REACTORS
330
C
102
}
330
C
100
AcDbDictionary
281
     1
  0
ACDBDICTIONARYWDFLT
  5
E
102
{ACAD_REACTORS
330
C
102
}
330
C
100
AcDbDictionary
281
     1
  3
Normal
350
F
100
AcDbDictionaryWithDefault
340
F
  0
DICTIONARY
  5
47
102
{ACAD_REACTORS
330
C
102
}
330
C
100
AcDbDictionary
281
     1
  3
A0
350
48
  3
A1
350
49
  3
A2
350
4A
  3
A3
350
4B
  3
A4
350
4C
  3
A5
350
4D
  3
A6
350
4E
  3
A7
350
4F
  3
A8
350
50
  3
A9
350
51
  3
B0
350
52
  3
B1
350
53
  3
B2
350
54
  3
B3
350
55
  3
B4
350
56
  3
B5
350
57
  3
B6
350
58
  0
XRECORD
  5
23D
102
{ACAD_REACTORS
330
C
102
}
330
C
100
AcDbXrecord
280
     1
  1
DWGPROPS COOKIE
  2

  3

  4

  6

  7

  8
yuta.kunimatsu
  9

300
=
301
=
302
=
303
=
304
=
305
=
306
=
307
=
308
=
309
=
 40
0.0
 41
2460174.417395139
 42
2460174.417398171
  1

 90
        0
  0
LAYOUT
  5
1E
102
{ACAD_REACTORS
330
1A
102
}
330
1A
100
AcDbPlotSettings
  1

  2
none_device
  4

  6

 40
0.0
 41
0.0
 42
0.0
 43
0.0
 44
0.0
 45
0.0
 46
0.0
 47
0.0
 48
0.0
 49
0.0
140
0.0
141
0.0
142
1.0
143
1.0
 70
   688
 72
     1
 73
     0
 74
     5
  7

 75
    16
147
1.0
148
0.0
149
0.0
100
AcDbLayout
  1
Layout1
 70
     1
 71
     1
 10
0.0
 20
0.0
 11
420.0
 21
297.0
 12
0.0
 22
0.0
 32
0.0
 14
1.0000000000E+20
 24
1.0000000000E+20
 34
1.0000000000E+20
 15
-1.0000000000E+20
 25
-1.0000000000E+20
 35
-1.0000000000E+20
146
0.0
 13
0.0
 23
0.0
 33
0.0
 16
1.0
 26
0.0
 36
0.0
 17
0.0
 27
1.0
 37
0.0
 76
     0
330
1B
  0
LAYOUT
  5
26
102
{ACAD_REACTORS
330
1A
102
}
330
1A
100
AcDbPlotSettings
  1

  2
none_device
  4

  6

 40
0.0
 41
0.0
 42
0.0
 43
0.0
 44
0.0
 45
0.0
 46
0.0
 47
0.0
 48
0.0
 49
0.0
140
0.0
141
0.0
142
1.0
143
1.0
 70
   688
 72
     1
 73
     0
 74
     5
  7

 75
    16
147
1.0
148
0.0
149
0.0
100
AcDbLayout
  1
Layout2
 70
     1
 71
     2
 10
0.0
 20
0.0
 11
0.0
 21
0.0
 12
0.0
 22
0.0
 32
0.0
 14
0.0
 24
0.0
 34
0.0
 15
0.0
 25
0.0
 35
0.0
146
0.0
 13
0.0
 23
0.0
 33
0.0
 16
1.0
 26
0.0
 36
0.0
 17
0.0
 27
1.0
 37
0.0
 76
     0
330
23
  0
LAYOUT
  5
22
102
{ACAD_REACTORS
330
1A
102
}
330
1A
100
AcDbPlotSettings
  1

  2
none_device
  4
Letter_(8.50_x_11.00_Inches)
  6

 40
6.35
 41
6.35
 42
6.35000508
 43
6.35000508
 44
215.9
 45
279.4
 46
0.0
 47
0.0
 48
0.0
 49
0.0
140
0.0
141
0.0
142
1.0
143
1.0
 70
  1712
 72
     1
 73
     0
 74
     0
  7

 75
     0
147
1.0
148
0.0
149
0.0
100
AcDbLayout
  1
Model
 70
     1
 71
     0
 10
0.0
 20
0.0
 11
5250.0
 21
7425.0
 12
0.0
 22
0.0
 32
0.0
 14
0.0
 24
0.0
 34
0.0
 15
5250.0
 25
7425.0
 35
0.0
146
0.0
 13
0.0
 23
0.0
 33
0.0
 16
1.0
 26
0.0
 36
0.0
 17
0.0
 27
1.0
 37
0.0
 76
     0
330
1F
331
29
  0
MLINESTYLE
  5
18
102
{ACAD_REACTORS
330
17
102
}
330
17
100
AcDbMlineStyle
  2
Standard
 70
     0
  3

 62
   256
 51
90.0
 52
90.0
 71
     2
 49
0.5
 62
   256
  6
BYLAYER
 49
-0.5
 62
   256
  6
BYLAYER
  0
ACDBPLACEHOLDER
  5
F
102
{ACAD_REACTORS
330
E
102
}
330
E
  0
SCALE
  5
48
102
{ACAD_REACTORS
330
47
102
}
330
47
100
AcDbScale
 70
     0
300
1:1
140
1.0
141
1.0
290
     1
  0
SCALE
  5
49
102
{ACAD_REACTORS
330
47
102
}
330
47
100
AcDbScale
 70
     0
300
1:2
140
1.0
141
2.0
290
     0
  0
SCALE
  5
4A
102
{ACAD_REACTORS
330
47
102
}
330
47
100
AcDbScale
 70
     0
300
1:4
140
1.0
141
4.0
290
     0
  0
SCALE
  5
4B
102
{ACAD_REACTORS
330
47
102
}
330
47
100
AcDbScale
 70
     0
300
1:5
140
1.0
141
5.0
290
     0
  0
SCALE
  5
4C
102
{ACAD_REACTORS
330
47
102
}
330
47
100
AcDbScale
 70
     0
300
1:8
140
1.0
141
8.0
290
     0
  0
SCALE
  5
4D
102
{ACAD_REACTORS
330
47
102
}
330
47
100
AcDbScale
 70
     0
300
1:10
140
1.0
141
10.0
290
     0
  0
SCALE
  5
4E
102
{ACAD_REACTORS
330
47
102
}
330
47
100
AcDbScale
 70
     0
300
1:16
140
1.0
141
16.0
290
     0
  0
SCALE
  5
4F
102
{ACAD_REACTORS
330
47
102
}
330
47
100
AcDbScale
 70
     0
300
1:20
140
1.0
141
20.0
290
     0
  0
SCALE
  5
50
102
{ACAD_REACTORS
330
47
102
}
330
47
100
AcDbScale
 70
     0
300
1:30
140
1.0
141
30.0
290
     0
  0
SCALE
  5
51
102
{ACAD_REACTORS
330
47
102
}
330
47
100
AcDbScale
 70
     0
300
1:40
140
1.0
141
40.0
290
     0
  0
SCALE
  5
52
102
{ACAD_REACTORS
330
47
102
}
330
47
100
AcDbScale
 70
     0
300
1:50
140
1.0
141
50.0
290
     0
  0
SCALE
  5
53
102
{ACAD_REACTORS
330
47
102
}
330
47
100
AcDbScale
 70
     0
300
1:100
140
1.0
141
100.0
290
     0
  0
SCALE
  5
54
102
{ACAD_REACTORS
330
47
102
}
330
47
100
AcDbScale
 70
     0
300
2:1
140
2.0
141
1.0
290
     0
  0
SCALE
  5
55
102
{ACAD_REACTORS
330
47
102
}
330
47
100
AcDbScale
 70
     0
300
4:1
140
4.0
141
1.0
290
     0
  0
SCALE
  5
56
102
{ACAD_REACTORS
330
47
102
}
330
47
100
AcDbScale
 70
     0
300
8:1
140
8.0
141
1.0
290
     0
  0
SCALE
  5
57
102
{ACAD_REACTORS
330
47
102
}
330
47
100
AcDbScale
 70
     0
300
10:1
140
10.0
141
1.0
290
     0
  0
SCALE
  5
58
102
{ACAD_REACTORS
330
47
102
}
330
47
100
AcDbScale
 70
     0
300
100:1
140
100.0
141
1.0
290
     0
  0
ENDSEC
  0
EOF
