  0
SECTION
  2
HEADER
  9
$ACADVER
  1
AC1015
  9
$ACADMAINTVER
 70
     6
  9
$DWGCODEPAGE
  3
DOS932
  9
$INSBASE
 10
0.0
 20
0.0
 30
0.0
  9
$EXTMIN
 10
0.0
 20
0.0
 30
0.0
  9
$EXTMAX
 10
5250.0
 20
7425.0
 30
0.0
  9
$LIMMIN
 10
0.0
 20
0.0
  9
$LIMMAX
 10
5250.0
 20
7425.0
  9
$ORTHOMODE
 70
     0
  9
$REGENMODE
 70
     1
  9
$FILLMODE
 70
     1
  9
$QTEXTMODE
 70
     0
  9
$MIRRTEXT
 70
     1
  9
$LTSCALE
 40
25.0
  9
$ATTMODE
 70
     1
  9
$TEXTSIZE
 40
70.5555555556
  9
$TRACEWID
 40
1.0
  9
$TEXTSTYLE
  7
Standard
  9
$CLAYER
  8
0
  9
$CELTYPE
  6
ByLayer
  9
$CECOLOR
 62
   256
  9
$CELTSCALE
 40
1.0
  9
$DISPSILH
 70
     0
  9
$DIMSCALE
 40
1.0
  9
$DIMASZ
 40
37.5
  9
$DIMEXO
 40
25.0
  9
$DIMDLI
 40
3.75
  9
$DIMRND
 40
0.0
  9
$DIMDLE
 40
0.0
  9
$DIMEXE
 40
25.0
  9
$DIMTP
 40
0.0
  9
$DIMTM
 40
0.0
  9
$DIMTXT
 40
70.5555555556
  9
$DIMCEN
 40
2.5
  9
$DIMTSZ
 40
0.0
  9
$DIMTOL
 70
     0
  9
$DIMLIM
 70
     0
  9
$DIMTIH
 70
     1
  9
$DIMTOH
 70
     1
  9
$DIMSE1
 70
     0
  9
$DIMSE2
 70
     0
  9
$DIMTAD
 70
     1
  9
$DIMZIN
 70
     0
  9
$DIMBLK
  1

  9
$DIMASO
 70
     1
  9
$DIMSHO
 70
     1
  9
$DIMPOST
  1

  9
$DIMAPOST
  1

  9
$DIMALT
 70
     0
  9
$DIMALTD
 70
     3
  9
$DIMALTF
 40
0.0393700787
  9
$DIMLFAC
 40
1.0
  9
$DIMTOFL
 70
     1
  9
$DIMTVP
 40
0.0
  9
$DIMTIX
 70
     0
  9
$DIMSOXD
 70
     0
  9
$DIMSAH
 70
     0
  9
$DIMBLK1
  1

  9
$DIMBLK2
  1

  9
$DIMSTYLE
  2
ISO-25
  9
$DIMCLRD
 70
     0
  9
$DIMCLRE
 70
     0
  9
$DIMCLRT
 70
     0
  9
$DIMTFAC
 40
1.0
  9
$DIMGAP
 40
38.1
  9
$DIMJUST
 70
     0
  9
$DIMSD1
 70
     0
  9
$DIMSD2
 70
     0
  9
$DIMTOLJ
 70
     0
  9
$DIMTZIN
 70
     0
  9
$DIMALTZ
 70
     0
  9
$DIMALTTZ
 70
     0
  9
$DIMUPT
 70
     0
  9
$DIMDEC
 70
     0
  9
$DIMTDEC
 70
     0
  9
$DIMALTU
 70
     2
  9
$DIMALTTD
 70
     3
  9
$DIMTXSTY
  7
Standard
  9
$DIMAUNIT
 70
     0
  9
$DIMADEC
 70
     2
  9
$DIMALTRND
 40
0.0
  9
$DIMAZIN
 70
     0
  9
$DIMDSEP
 70
    44
  9
$DIMATFIT
 70
     3
  9
$DIMFRAC
 70
     0
  9
$DIMLDRBLK
  1

  9
$DIMLUNIT
 70
     2
  9
$DIMLWD
 70
    -2
  9
$DIMLWE
 70
    -2
  9
$DIMTMOVE
 70
     0
  9
$LUNITS
 70
     2
  9
$LUPREC
 70
     2
  9
$SKETCHINC
 40
1.0
  9
$FILLETRAD
 40
0.0
  9
$AUNITS
 70
     0
  9
$AUPREC
 70
     2
  9
$MENU
  1
.
  9
$ELEVATION
 40
0.0
  9
$PELEVATION
 40
0.0
  9
$THICKNESS
 40
0.0
  9
$LIMCHECK
 70
     0
  9
$CHAMFERA
 40
0.0
  9
$CHAMFERB
 40
0.0
  9
$CHAMFERC
 40
0.0
  9
$CHAMFERD
 40
0.0
  9
$SKPOLY
 70
     0
  9
$TDCREATE
 40
2460174.792255648
  9
$TDUCREATE
 40
2460174.417255648
  9
$TDUPDATE
 40
2460174.792258484
  9
$TDUUPDATE
 40
2460174.417258484
  9
$TDINDWG
 40
0.0000000116
  9
$TDUSRTIMER
 40
0.0000000116
  9
$USRTIMER
 70
     1
  9
$ANGBASE
 50
0.0
  9
$ANGDIR
 70
     0
  9
$PDMODE
 70
     0
  9
$PDSIZE
 40
-1.0
  9
$PLINEWID
 40
0.0
  9
$SPLFRAME
 70
     0
  9
$SPLINETYPE
 70
     6
  9
$SPLINESEGS
 70
     8
  9
$HANDSEED
  5
22B
  9
$SURFTAB1
 70
     6
  9
$SURFTAB2
 70
     6
  9
$SURFTYPE
 70
     6
  9
$SURFU
 70
     6
  9
$SURFV
 70
     6
  9
$UCSBASE
  2

  9
$UCSNAME
  2

  9
$UCSORG
 10
0.0
 20
0.0
 30
0.0
  9
$UCSXDIR
 10
1.0
 20
0.0
 30
0.0
  9
$UCSYDIR
 10
0.0
 20
1.0
 30
0.0
  9
$UCSORTHOREF
  2

  9
$UCSORTHOVIEW
 70
     0
  9
$UCSORGTOP
 10
0.0
 20
0.0
 30
0.0
  9
$UCSORGBOTTOM
 10
0.0
 20
0.0
 30
0.0
  9
$UCSORGLEFT
 10
0.0
 20
0.0
 30
0.0
  9
$UCSORGRIGHT
 10
0.0
 20
0.0
 30
0.0
  9
$UCSORGFRONT
 10
0.0
 20
0.0
 30
0.0
  9
$UCSORGBACK
 10
0.0
 20
0.0
 30
0.0
  9
$PUCSBASE
  2

  9
$PUCSNAME
  2

  9
$PUCSORG
 10
0.0
 20
0.0
 30
0.0
  9
$PUCSXDIR
 10
1.0
 20
0.0
 30
0.0
  9
$PUCSYDIR
 10
0.0
 20
1.0
 30
0.0
  9
$PUCSORTHOREF
  2

  9
$PUCSORTHOVIEW
 70
     0
  9
$PUCSORGTOP
 10
0.0
 20
0.0
 30
0.0
  9
$PUCSORGBOTTOM
 10
0.0
 20
0.0
 30
0.0
  9
$PUCSORGLEFT
 10
0.0
 20
0.0
 30
0.0
  9
$PUCSORGRIGHT
 10
0.0
 20
0.0
 30
0.0
  9
$PUCSORGFRONT
 10
0.0
 20
0.0
 30
0.0
  9
$PUCSORGBACK
 10
0.0
 20
0.0
 30
0.0
  9
$USERI1
 70
     0
  9
$USERI2
 70
     0
  9
$USERI3
 70
     0
  9
$USERI4
 70
     0
  9
$USERI5
 70
     0
  9
$USERR1
 40
0.0
  9
$USERR2
 40
0.0
  9
$USERR3
 40
0.0
  9
$USERR4
 40
0.0
  9
$USERR5
 40
0.0
  9
$WORLDVIEW
 70
     1
  9
$SHADEDGE
 70
     3
  9
$SHADEDIF
 70
    70
  9
$TILEMODE
 70
     1
  9
$MAXACTVP
 70
    64
  9
$PINSBASE
 10
0.0
 20
0.0
 30
0.0
  9
$PLIMCHECK
 70
     0
  9
$PEXTMIN
 10
1.0000000000E+20
 20
1.0000000000E+20
 30
1.0000000000E+20
  9
$PEXTMAX
 10
-1.0000000000E+20
 20
-1.0000000000E+20
 30
-1.0000000000E+20
  9
$PLIMMIN
 10
0.0
 20
0.0
  9
$PLIMMAX
 10
420.0
 20
297.0
  9
$UNITMODE
 70
     0
  9
$VISRETAIN
 70
     1
  9
$PLINEGEN
 70
     0
  9
$PSLTSCALE
 70
     1
  9
$TREEDEPTH
 70
  3020
  9
$CMLSTYLE
  2
Standard
  9
$CMLJUST
 70
     0
  9
$CMLSCALE
 40
20.0
  9
$PROXYGRAPHICS
 70
     1
  9
$MEASUREMENT
 70
     1
  9
$CELWEIGHT
370
    -1
  9
$ENDCAPS
280
     0
  9
$JOINSTYLE
280
     0
  9
$LWDISPLAY
290
     1
  9
$INSUNITS
 70
     4
  9
$HYPERLINKBASE
  1

  9
$STYLESHEET
  1

  9
$XEDIT
290
     1
  9
$CEPSNTYPE
380
     0
  9
$PSTYLEMODE
290
     1
  9
$FINGERPRINTGUID
  2
{eba5b004-c55a-4143-ac94-56c0edac4b57}
  9
$VERSIONGUID
  2
{FAEB1C32-E019-11D5-929B-00C0DF256EC4}
  9
$EXTNAMES
290
     1
  9
$PSVPSCALE
 40
0.0
  9
$OLESTARTUP
290
     0
  0
ENDSEC
  0
SECTION
  2
CLASSES
  0
CLASS
  1
ACDBDICTIONARYWDFLT
  2
AcDbDictionaryWithDefault
  3
ObjectDBX Classes
 90
        0
280
     0
281
     0
  0
CLASS
  1
VISUALSTYLE
  2
AcDbVisualStyle
  3
ObjectDBX Classes
 90
     4095
280
     0
281
     0
  0
CLASS
  1
MATERIAL
  2
AcDbMaterial
  3
ObjectDBX Classes
 90
     1153
280
     0
281
     0
  0
CLASS
  1
SCALE
  2
AcDbScale
  3
ObjectDBX Classes
 90
     1153
280
     0
281
     0
  0
CLASS
  1
TABLESTYLE
  2
AcDbTableStyle
  3
ObjectDBX Classes
 90
     4095
280
     0
281
     0
  0
CLASS
  1
MLEADERSTYLE
  2
AcDbMLeaderStyle
  3
ACDB_MLEADERSTYLE_CLASS
 90
     4095
280
     0
281
     0
  0
CLASS
  1
SUN
  2
AcDbSun
  3
SCENEOE
 90
     1153
280
     0
281
     0
  0
CLASS
  1
ACDBPLACEHOLDER
  2
AcDbPlaceHolder
  3
ObjectDBX Classes
 90
        0
280
     0
281
     0
  0
CLASS
  1
LAYOUT
  2
AcDbLayout
  3
ObjectDBX Classes
 90
        0
280
     0
281
     0
  0
ENDSEC
  0
SECTION
  2
TABLES
  0
TABLE
  2
VPORT
  5
8
330
0
100
AcDbSymbolTable
 70
     1
  0
VPORT
  5
29
330
8
100
AcDbSymbolTableRecord
100
AcDbViewportTableRecord
  2
*Active
 70
     0
 10
0.0
 20
0.0
 11
1.0
 21
1.0
 12
2625.0
 22
3712.5
 13
0.0
 23
0.0
 14
10.0
 24
10.0
 15
10.0
 25
10.0
 16
0.0
 26
0.0
 36
1.0
 17
0.0
 27
0.0
 37
0.0
 40
7425.0
 41
0.7070707071
 42
50.0
 43
0.0
 44
0.0
 50
0.0
 51
0.0
 71
     0
 72
  2000
 73
     1
 74
     3
 75
     0
 76
     0
 77
     0
 78
     0
281
     0
 65
     1
110
0.0
120
0.0
130
0.0
111
1.0
121
0.0
131
0.0
112
0.0
122
1.0
132
0.0
 79
     0
146
0.0
  0
ENDTAB
  0
TABLE
  2
LTYPE
  5
5
330
0
100
AcDbSymbolTable
 70
     6
  0
LTYPE
  5
14
330
5
100
AcDbSymbolTableRecord
100
AcDbLinetypeTableRecord
  2
ByBlock
 70
     0
  3

 72
    65
 73
     0
 40
0.0
  0
LTYPE
  5
15
330
5
100
AcDbSymbolTableRecord
100
AcDbLinetypeTableRecord
  2
ByLayer
 70
     0
  3

 72
    65
 73
     0
 40
0.0
  0
LTYPE
  5
16
330
5
100
AcDbSymbolTableRecord
100
AcDbLinetypeTableRecord
  2
Continuous
 70
     0
  3
Solid line
 72
    65
 73
     0
 40
0.0
  0
LTYPE
  5
5E
330
5
100
AcDbSymbolTableRecord
100
AcDbLinetypeTableRecord
  2
HIDDEN
 70
     0
  3
Hidden __ __ __ __ __ __ __ __ __ __ __ __ __ __
 72
    65
 73
     2
 40
1.905
 49
1.27
 74
     0
 49
-0.635
 74
     0
  0
LTYPE
  5
5F
330
5
100
AcDbSymbolTableRecord
100
AcDbLinetypeTableRecord
  2
PHANTOM
 70
     0
  3
Phantom ______  __  __  ______  __  __  ______
 72
    65
 73
     6
 40
12.7
 49
6.35
 74
     0
 49
-1.27
 74
     0
 49
1.27
 74
     0
 49
-1.27
 74
     0
 49
1.27
 74
     0
 49
-1.27
 74
     0
  0
LTYPE
  5
60
330
5
100
AcDbSymbolTableRecord
100
AcDbLinetypeTableRecord
  2
CENTER
 70
     0
  3
Center ____ _ ____ _ ____ _ ____ _ ____ _ ____
 72
    65
 73
     4
 40
10.16
 49
6.35
 74
     0
 49
-1.27
 74
     0
 49
1.27
 74
     0
 49
-1.27
 74
     0
  0
LTYPE
  5
61
330
5
100
AcDbSymbolTableRecord
100
AcDbLinetypeTableRecord
  2
CENTERX2
 70
     0
  3
Center (2x) ________  __  ________  __  _____
 72
    65
 73
     4
 40
20.32
 49
12.7
 74
     0
 49
-2.54
 74
     0
 49
2.54
 74
     0
 49
-2.54
 74
     0
  0
LTYPE
  5
62
330
5
100
AcDbSymbolTableRecord
100
AcDbLinetypeTableRecord
  2
DOT2
 70
     0
  3
Dot (.5x) ........................................
 72
    65
 73
     2
 40
0.635
 49
0.0
 74
     0
 49
-0.635
 74
     0
  0
ENDTAB
  0
TABLE
  2
LAYER
  5
2
330
0
100
AcDbSymbolTable
 70
     6
  0
LAYER
  5
10
330
2
100
AcDbSymbolTableRecord
100
AcDbLayerTableRecord
  2
0
 70
     0
 62
     7
  6
Continuous
370
    -3
390
F
  0
LAYER
  5
63
330
2
100
AcDbSymbolTableRecord
100
AcDbLayerTableRecord
  2
1
 70
     0
 62
     4
  6
Continuous
370
    25
390
F
  0
LAYER
  5
64
330
2
100
AcDbSymbolTableRecord
100
AcDbLayerTableRecord
  2
2
 70
     0
 62
     3
  6
CENTERX2
370
    -3
390
F
  0
LAYER
  5
65
330
2
100
AcDbSymbolTableRecord
100
AcDbLayerTableRecord
  2
3
 70
     0
 62
     2
  6
Continuous
370
    -3
390
F
  0
LAYER
  5
66
330
2
100
AcDbSymbolTableRecord
100
AcDbLayerTableRecord
  2
4
 70
     0
 62
     7
  6
Continuous
370
    -3
390
F
  0
LAYER
  5
67
330
2
100
AcDbSymbolTableRecord
100
AcDbLayerTableRecord
  2
基礎穴
 70
     0
 62
     1
  6
PHANTOM
370
    35
390
F
  0
ENDTAB
  0
TABLE
  2
STYLE
  5
3
330
0
100
AcDbSymbolTable
 70
     2
  0
STYLE
  5
11
330
3
100
AcDbSymbolTableRecord
100
AcDbTextStyleTableRecord
  2
Standard
 70
     0
 40
0.0
 41
1.0
 50
0.0
 71
     0
 42
70.5555555556
  3
txt
  4
bigfont
  0
STYLE
  5
68
330
3
100
AcDbSymbolTableRecord
100
AcDbTextStyleTableRecord
  2
SLDTEXTSTYLE0
 70
     0
 40
0.0
 41
0.7
 50
0.0
 71
     0
 42
70.5555555556
  3
TXT
  4
bigfont
  0
ENDTAB
  0
TABLE
  2
VIEW
  5
6
330
0
100
AcDbSymbolTable
 70
     0
  0
ENDTAB
  0
TABLE
  2
UCS
  5
7
330
0
100
AcDbSymbolTable
 70
     0
  0
ENDTAB
  0
TABLE
  2
APPID
  5
9
330
0
100
AcDbSymbolTable
 70
     1
  0
APPID
  5
12
330
9
100
AcDbSymbolTableRecord
100
AcDbRegAppTableRecord
  2
ACAD
 70
     0
  0
ENDTAB
  0
TABLE
  2
DIMSTYLE
  5
A
330
0
100
AcDbSymbolTable
 70
     1
100
AcDbDimStyleTable
  0
DIMSTYLE
105
27
330
A
100
AcDbSymbolTableRecord
100
AcDbDimStyleTableRecord
  2
ISO-25
 70
     0
 41
2.5
 42
0.625
 43
3.75
 44
1.25
 73
     0
 74
     0
 77
     1
 78
     8
140
2.5
141
2.5
143
0.0393700787
147
0.625
171
     3
172
     1
178
     0
271
     2
272
     2
274
     3
278
    44
283
     0
284
     8
340
11
  0
ENDTAB
  0
TABLE
  2
BLOCK_RECORD
  5
1
330
0
100
AcDbSymbolTable
 70
     2
  0
BLOCK_RECORD
  5
1F
330
1
100
AcDbSymbolTableRecord
100
AcDbBlockTableRecord
  2
*Model_Space
340
22
  0
BLOCK_RECORD
  5
1B
330
1
100
AcDbSymbolTableRecord
100
AcDbBlockTableRecord
  2
*Paper_Space
340
1E
  0
BLOCK_RECORD
  5
23
330
1
100
AcDbSymbolTableRecord
100
AcDbBlockTableRecord
  2
*Paper_Space0
340
26
  0
BLOCK_RECORD
  5
DF
330
1
100
AcDbSymbolTableRecord
100
AcDbBlockTableRecord
  2
SW_CENTERMARKSYMBOL_0
340
0
102
{BLKREFS
331
EA
102
}
  0
ENDTAB
  0
ENDSEC
  0
SECTION
  2
BLOCKS
  0
BLOCK
  5
20
330
1F
100
AcDbEntity
  8
0
100
AcDbBlockBegin
  2
*Model_Space
 70
     0
 10
0.0
 20
0.0
 30
0.0
  3
*Model_Space
  1

  0
ENDBLK
  5
21
330
1F
100
AcDbEntity
  8
0
100
AcDbBlockEnd
  0
BLOCK
  5
1C
330
1B
100
AcDbEntity
 67
     1
  8
0
100
AcDbBlockBegin
  2
*Paper_Space
 70
     0
 10
0.0
 20
0.0
 30
0.0
  3
*Paper_Space
  1

  0
ENDBLK
  5
1D
330
1B
100
AcDbEntity
 67
     1
  8
0
100
AcDbBlockEnd
  0
BLOCK
  5
24
330
23
100
AcDbEntity
  8
0
100
AcDbBlockBegin
  2
*Paper_Space0
 70
     0
 10
0.0
 20
0.0
 30
0.0
  3
*Paper_Space0
  1

  0
ENDBLK
  5
25
330
23
100
AcDbEntity
  8
0
100
AcDbBlockEnd
  0
BLOCK
  5
E0
330
DF
100
AcDbEntity
  8
0
100
AcDbBlockBegin
  2
SW_CENTERMARKSYMBOL_0
 70
     0
 10
0.0
 20
0.0
 30
0.0
  3
SW_CENTERMARKSYMBOL_0
  1

  0
LINE
  5
E2
330
DF
100
AcDbEntity
  8
2
 62
     0
100
AcDbLine
 10
0.0
 20
0.0
 30
0.0
 11
0.0
 21
2.5
 31
0.0
  0
LINE
  5
E3
330
DF
100
AcDbEntity
  8
2
 62
     0
100
AcDbLine
 10
0.0
 20
0.0
 30
0.0
 11
-2.5
 21
0.0
 31
0.0
  0
LINE
  5
E4
330
DF
100
AcDbEntity
  8
2
 62
     0
100
AcDbLine
 10
0.0
 20
0.0
 30
0.0
 11
0.0
 21
-2.5
 31
0.0
  0
LINE
  5
E5
330
DF
100
AcDbEntity
  8
2
 62
     0
100
AcDbLine
 10
0.0
 20
0.0
 30
0.0
 11
2.5
 21
0.0
 31
0.0
  0
LINE
  5
E6
330
DF
100
AcDbEntity
  8
2
 62
     0
100
AcDbLine
 10
0.0
 20
5.0
 30
0.0
 11
0.0
 21
677.5
 31
0.0
  0
LINE
  5
E7
330
DF
100
AcDbEntity
  8
2
 62
     0
100
AcDbLine
 10
-5.0
 20
0.0
 30
0.0
 11
-677.5
 21
0.0
 31
0.0
  0
LINE
  5
E8
330
DF
100
AcDbEntity
  8
2
 62
     0
100
AcDbLine
 10
0.0
 20
-5.0
 30
0.0
 11
0.0
 21
-677.5
 31
0.0
  0
LINE
  5
E9
330
DF
100
AcDbEntity
  8
2
 62
     0
100
AcDbLine
 10
5.0
 20
0.0
 30
0.0
 11
677.5
 21
0.0
 31
0.0
  0
ENDBLK
  5
E1
330
DF
100
AcDbEntity
  8
0
100
AcDbBlockEnd
  0
ENDSEC
  0
SECTION
  2
ENTITIES
  0
MTEXT
  5
69
330
1F
100
AcDbEntity
  8
0
  6
Continuous
 62
     7
370
     0
100
AcDbMText
 10
4239.9903991092
 20
1944.5193808787
 30
0.0
 40
70.5555555556
 41
0.0
 71
     1
 72
     1
  1
LL08040YS01K-L2
  7
SLDTEXTSTYLE0
 73
     1
 44
1.0
  0
LINE
  5
6A
330
1F
100
AcDbEntity
  8
1
100
AcDbLine
 10
576.8813030499
 20
2373.9190414508
 30
0.0
 11
576.8813030499
 21
2268.9190414508
 31
0.0
  0
LINE
  5
6B
330
1F
100
AcDbEntity
  8
1
100
AcDbLine
 10
611.8813030499
 20
2268.9190414508
 30
0.0
 11
611.8813030499
 21
2373.9190414508
 31
0.0
  0
LINE
  5
6C
330
1F
100
AcDbEntity
  8
1
100
AcDbLine
 10
2976.8813030499
 20
2373.9190414508
 30
0.0
 11
2976.8813030499
 21
2268.9190414508
 31
0.0
  0
LINE
  5
6D
330
1F
100
AcDbEntity
  8
1
100
AcDbLine
 10
3011.8813030499
 20
2268.9190414508
 30
0.0
 11
3011.8813030499
 21
2373.9190414508
 31
0.0
  0
LINE
  5
6E
330
1F
100
AcDbEntity
  8
1
100
AcDbLine
 10
2827.3747463803
 20
2941.9317901806
 30
0.0
 11
1434.5477457905
 21
3763.8208924493
 31
0.0
  0
ARC
  5
6F
330
1F
100
AcDbEntity
  8
1
100
AcDbCircle
 10
2719.3813030499
 20
2758.9190414508
 30
0.0
 40
212.5000000000007
100
AcDbArc
 50
247.4141998305
 51
59.4556978153
  0
LINE
  5
70
330
1F
100
AcDbEntity
  8
1
100
AcDbLine
 10
1144.5596878955
 20
3183.8447766591
 30
0.0
 11
2637.7671700643
 21
2562.7166375486
 31
0.0
  0
ARC
  5
71
330
1F
100
AcDbEntity
  8
1
100
AcDbCircle
 10
1269.3813030499
 20
3483.9190414508
 30
0.0
 40
325.0000000000007
100
AcDbArc
 50
59.4556978153
 51
247.4141998305
  0
LINE
  5
72
330
1F
100
AcDbEntity
  8
1
100
AcDbLine
 10
2944.3813030499
 20
2523.9190414508
 30
0.0
 11
2944.3813030499
 21
2578.9190414508
 31
0.0
  0
LINE
  5
73
330
1F
100
AcDbEntity
  8
1
100
AcDbLine
 10
2494.3813030499
 20
2523.9190414508
 30
0.0
 11
2494.3813030499
 21
2578.9190414508
 31
0.0
  0
LINE
  5
74
330
1F
100
AcDbEntity
  8
1
100
AcDbLine
 10
2944.3813030499
 20
2578.9190414508
 30
0.0
 11
2832.3248730307
 21
2578.9190414508
 31
0.0
  0
LINE
  5
75
330
1F
100
AcDbEntity
  8
1
100
AcDbLine
 10
2598.816188435
 20
2578.9190414508
 30
0.0
 11
2494.3813030499
 21
2578.9190414508
 31
0.0
  0
LINE
  5
76
330
1F
100
AcDbEntity
  8
1
100
AcDbLine
 10
2576.3813030499
 20
2588.2512600318
 30
0.0
 11
2576.3813030499
 21
2578.9190414508
 31
0.0
  0
LINE
  5
77
330
1F
100
AcDbEntity
  8
1
100
AcDbLine
 10
2862.3813030499
 20
2578.9190414508
 30
0.0
 11
2862.3813030499
 21
2596.9190414508
 31
0.0
  0
LINE
  5
78
330
1F
100
AcDbEntity
  8
1
100
AcDbLine
 10
2862.3813030499
 20
2596.9190414508
 30
0.0
 11
2856.903119501
 21
2596.9190414508
 31
0.0
  0
LINE
  5
79
330
1F
100
AcDbEntity
  8
1
100
AcDbLine
 10
519.3813030499
 20
2199.9190414508
 30
0.0
 11
3069.3813030499
 21
2199.9190414508
 31
0.0
  0
LINE
  5
7A
330
1F
100
AcDbEntity
  8
1
100
AcDbLine
 10
3069.3813030499
 20
2193.9190414508
 30
0.0
 11
3069.3813030499
 21
2199.9190414508
 31
0.0
  0
LINE
  5
7B
330
1F
100
AcDbEntity
  8
1
100
AcDbLine
 10
519.3813030498
 20
2193.9190414508
 30
0.0
 11
3069.3813030499
 21
2193.9190414508
 31
0.0
  0
LINE
  5
7C
330
1F
100
AcDbEntity
  8
1
100
AcDbLine
 10
519.3813030498
 20
2193.9190414508
 30
0.0
 11
519.3813030499
 21
2199.9190414508
 31
0.0
  0
LINE
  5
7D
330
1F
100
AcDbEntity
  8
1
100
AcDbLine
 10
3069.3813030499
 20
2262.9190414508
 30
0.0
 11
519.3813030499
 21
2262.9190414508
 31
0.0
  0
LINE
  5
7E
330
1F
100
AcDbEntity
  8
1
100
AcDbLine
 10
519.3813030499
 20
2262.9190414508
 30
0.0
 11
519.3813030499
 21
2268.9190414508
 31
0.0
  0
LINE
  5
7F
330
1F
100
AcDbEntity
  8
1
100
AcDbLine
 10
3069.3813030499
 20
2268.9190414508
 30
0.0
 11
519.3813030499
 21
2268.9190414508
 31
0.0
  0
LINE
  5
80
330
1F
100
AcDbEntity
  8
1
100
AcDbLine
 10
3069.3813030499
 20
2262.9190414508
 30
0.0
 11
3069.3813030499
 21
2268.9190414508
 31
0.0
  0
LINE
  5
81
330
1F
100
AcDbEntity
  8
1
100
AcDbLine
 10
3000.3813030499
 20
2199.9190414508
 30
0.0
 11
3000.3813030499
 21
2262.9190414508
 31
0.0
  0
LINE
  5
82
330
1F
100
AcDbEntity
  8
1
100
AcDbLine
 10
588.3813030499
 20
2199.9190414508
 30
0.0
 11
588.3813030499
 21
2262.9190414508
 31
0.0
  0
LINE
  5
83
330
1F
100
AcDbEntity
  8
1
100
AcDbLine
 10
3069.3813030499
 20
2517.4190414508
 30
0.0
 11
519.3813030499
 21
2517.4190414508
 31
0.0
  0
LINE
  5
84
330
1F
100
AcDbEntity
  8
1
100
AcDbLine
 10
519.3813030499
 20
2523.9190414508
 30
0.0
 11
519.3813030499
 21
2517.4190414508
 31
0.0
  0
LINE
  5
85
330
1F
100
AcDbEntity
  8
1
100
AcDbLine
 10
3069.3813030499
 20
2523.9190414508
 30
0.0
 11
519.3813030499
 21
2523.9190414508
 31
0.0
  0
LINE
  5
86
330
1F
100
AcDbEntity
  8
1
100
AcDbLine
 10
3069.3813030499
 20
2523.9190414508
 30
0.0
 11
3069.3813030499
 21
2517.4190414508
 31
0.0
  0
LINE
  5
87
330
1F
100
AcDbEntity
  8
1
100
AcDbLine
 10
3069.3813030499
 20
2380.4190414508
 30
0.0
 11
3069.3813030499
 21
2373.9190414508
 31
0.0
  0
LINE
  5
88
330
1F
100
AcDbEntity
  8
1
100
AcDbLine
 10
3069.3813030499
 20
2373.9190414508
 30
0.0
 11
519.3813030499
 21
2373.9190414508
 31
0.0
  0
LINE
  5
89
330
1F
100
AcDbEntity
  8
1
100
AcDbLine
 10
519.3813030499
 20
2380.4190414508
 30
0.0
 11
519.3813030499
 21
2373.9190414508
 31
0.0
  0
LINE
  5
8A
330
1F
100
AcDbEntity
  8
1
100
AcDbLine
 10
3069.3813030499
 20
2380.4190414508
 30
0.0
 11
519.3813030499
 21
2380.4190414508
 31
0.0
  0
LINE
  5
8B
330
1F
100
AcDbEntity
  8
1
100
AcDbLine
 10
3000.8813030499
 20
2517.4190414508
 30
0.0
 11
3000.8813030499
 21
2380.4190414508
 31
0.0
  0
LINE
  5
8C
330
1F
100
AcDbEntity
  8
1
100
AcDbLine
 10
587.8813030499
 20
2517.4190414508
 30
0.0
 11
587.8813030499
 21
2380.4190414508
 31
0.0
  0
LINE
  5
8D
330
1F
100
AcDbEntity
  8
1
100
AcDbLine
 10
2656.3813030499
 20
4304.9190414508
 30
0.0
 11
2656.3813030499
 21
4308.9190414508
 31
0.0
  0
LINE
  5
8E
330
1F
100
AcDbEntity
  8
1
100
AcDbLine
 10
2656.3813030499
 20
4304.9190414508
 30
0.0
 11
1270.3813030499
 21
4304.9190414508
 31
0.0
  0
LINE
  5
8F
330
1F
100
AcDbEntity
  8
1
100
AcDbLine
 10
1270.3813030499
 20
4304.9190414508
 30
0.0
 11
1270.3813030499
 21
4308.9190414508
 31
0.0
  0
LINE
  5
90
330
1F
100
AcDbEntity
  8
1
100
AcDbLine
 10
2656.3813030499
 20
4308.9190414508
 30
0.0
 11
1270.3813030499
 21
4308.9190414508
 31
0.0
  0
LINE
  5
91
330
1F
100
AcDbEntity
  8
1
100
AcDbLine
 10
2605.3206256678
 20
4304.9190414508
 30
0.0
 11
2527.6839817944
 21
3466.7906631409
 31
0.0
  0
ARC
  5
92
330
1F
100
AcDbEntity
  8
1
100
AcDbCircle
 10
1360.3813030499
 20
3574.9190414508
 30
0.0
 40
1172.299999999999
100
AcDbArc
 50
339.2975755086
 51
354.7077386841
  0
ARC
  5
93
330
1F
100
AcDbEntity
  8
1
100
AcDbCircle
 10
1360.3813030499
 20
3574.9190414508
 30
0.0
 40
1172.299999999999
100
AcDbArc
 50
296.2945990216
 51
315.1599186123
  0
ARC
  5
94
330
1F
100
AcDbEntity
  8
1
100
AcDbCircle
 10
1360.3813030499
 20
3392.9190414508
 30
0.0
 40
990.3000000000002
100
AcDbArc
 50
180.0
 51
241.343662463
  0
LINE
  5
95
330
1F
100
AcDbEntity
  8
1
100
AcDbLine
 10
370.0813030499
 20
3392.9190414508
 30
0.0
 11
370.0813030499
 21
3406.9190414508
 31
0.0
  0
ARC
  5
96
330
1F
100
AcDbEntity
  8
1
100
AcDbCircle
 10
1192.3813030499
 20
3406.9190414508
 30
0.0
 40
822.3000000000006
100
AcDbArc
 50
90.0
 51
180.0
  0
LINE
  5
97
330
1F
100
AcDbEntity
  8
1
100
AcDbLine
 10
1192.3813030499
 20
4229.2190414508
 30
0.0
 11
1321.0813030499
 21
4229.2190414508
 31
0.0
  0
LINE
  5
98
330
1F
100
AcDbEntity
  8
1
100
AcDbLine
 10
1321.0813030499
 20
4229.2190414508
 30
0.0
 11
1321.0813030499
 21
4304.9190414508
 31
0.0
  0
CIRCLE
  5
99
330
1F
100
AcDbEntity
  8
0
  6
HIDDEN
 62
     7
370
    18
100
AcDbCircle
 10
2719.3813030499
 20
2758.9190414508
 30
0.0
 40
23.99999999999955
  0
ARC
  5
9A
330
1F
100
AcDbEntity
  8
0
  6
HIDDEN
 62
     7
370
    18
100
AcDbCircle
 10
2719.3813030499
 20
2758.9190414508
 30
0.0
 40
195.5000000000004
100
AcDbArc
 50
298.9928373896
 51
241.0071626104
  0
LINE
  5
9B
330
1F
100
AcDbEntity
  8
0
  6
HIDDEN
 62
     7
370
    18
100
AcDbLine
 10
2814.1402076447
 20
2587.9190414508
 30
0.0
 11
2624.6223984551
 21
2587.9190414508
 31
0.0
  0
LINE
  5
9C
330
1F
100
AcDbEntity
  8
0
  6
HIDDEN
 62
     7
370
    18
100
AcDbLine
 10
2832.3248730307
 20
2578.9190414508
 30
0.0
 11
2598.816188435
 21
2578.9190414508
 31
0.0
  0
LINE
  5
9D
330
1F
100
AcDbEntity
  8
0
  6
HIDDEN
 62
     7
370
    18
100
AcDbLine
 10
2609.945248662
 20
2596.9190414508
 30
0.0
 11
2576.3813030499
 21
2596.9190414508
 31
0.0
  0
LINE
  5
9E
330
1F
100
AcDbEntity
  8
0
  6
HIDDEN
 62
     7
370
    18
100
AcDbLine
 10
2576.3813030499
 20
2596.9190414508
 30
0.0
 11
2576.3813030499
 21
2588.2512600318
 31
0.0
  0
LINE
  5
9F
330
1F
100
AcDbEntity
  8
0
  6
HIDDEN
 62
     7
370
    18
100
AcDbLine
 10
2856.903119501
 20
2596.9190414508
 30
0.0
 11
2828.8173574378
 21
2596.9190414508
 31
0.0
  0
CIRCLE
  5
A0
330
1F
100
AcDbEntity
  8
0
  6
HIDDEN
 62
     7
370
    18
100
AcDbCircle
 10
2719.3813030499
 20
2758.9190414508
 30
0.0
 40
112.5000000000005
  0
CIRCLE
  5
A1
330
1F
100
AcDbEntity
  8
0
  6
HIDDEN
 62
     7
370
    18
100
AcDbCircle
 10
1269.3813030499
 20
3483.9190414508
 30
0.0
 40
225.0000000000001
  0
LINE
  5
A2
330
1F
100
AcDbEntity
  8
0
  6
HIDDEN
 62
     7
370
    18
100
AcDbLine
 10
594.3813030499
 20
2193.9190414508
 30
0.0
 11
594.3813030499
 21
2268.9190414508
 31
0.0
  0
LINE
  5
A3
330
1F
100
AcDbEntity
  8
0
  6
HIDDEN
 62
     7
370
    18
100
AcDbLine
 10
2994.3813030499
 20
2193.9190414508
 30
0.0
 11
2994.3813030499
 21
2268.9190414508
 31
0.0
  0
LINE
  5
A4
330
1F
100
AcDbEntity
  8
0
  6
HIDDEN
 62
     7
370
    18
100
AcDbLine
 10
594.3813030499
 20
2523.9190414508
 30
0.0
 11
594.3813030499
 21
2373.9190414508
 31
0.0
  0
LINE
  5
A5
330
1F
100
AcDbEntity
  8
0
  6
HIDDEN
 62
     7
370
    18
100
AcDbLine
 10
2994.3813030499
 20
2523.9190414508
 30
0.0
 11
2994.3813030499
 21
2373.9190414508
 31
0.0
  0
ARC
  5
A6
330
1F
100
AcDbEntity
  8
0
  6
HIDDEN
 62
     7
370
    18
100
AcDbCircle
 10
1360.3813030499
 20
3574.9190414508
 30
0.0
 40
1172.299999999999
100
AcDbArc
 50
315.1599186123
 51
339.2975755086
  0
ARC
  5
A7
330
1F
100
AcDbEntity
  8
0
  6
HIDDEN
 62
     7
370
    18
100
AcDbCircle
 10
1360.3813030499
 20
3574.9190414508
 30
0.0
 40
1172.3
100
AcDbArc
 50
270.0
 51
296.2945990216
  0
ARC
  5
A8
330
1F
100
AcDbEntity
  8
0
  6
HIDDEN
 62
     7
370
    18
100
AcDbCircle
 10
1360.3813030499
 20
3392.9190414508
 30
0.0
 40
990.3000000000006
100
AcDbArc
 50
241.343662463
 51
270.0
  0
ARC
  5
A9
330
1F
100
AcDbEntity
  8
0
  6
HIDDEN
 62
     7
370
    18
100
AcDbCircle
 10
1192.3813030499
 20
3406.9190414508
 30
0.0
 40
820.0000000000005
100
AcDbArc
 50
90.0
 51
180.0
  0
LINE
  5
AA
330
1F
100
AcDbEntity
  8
0
  6
HIDDEN
 62
     7
370
    18
100
AcDbLine
 10
1323.3813030499
 20
4226.9190414508
 30
0.0
 11
1323.3813030499
 21
4308.9190414508
 31
0.0
  0
LINE
  5
AB
330
1F
100
AcDbEntity
  8
0
  6
HIDDEN
 62
     7
370
    18
100
AcDbLine
 10
1192.3813030499
 20
4226.9190414508
 30
0.0
 11
1323.3813030499
 21
4226.9190414508
 31
0.0
  0
LINE
  5
AC
330
1F
100
AcDbEntity
  8
0
  6
HIDDEN
 62
     7
370
    18
100
AcDbLine
 10
372.3813030499
 20
3392.9190414508
 30
0.0
 11
372.3813030499
 21
3406.9190414508
 31
0.0
  0
ARC
  5
AD
330
1F
100
AcDbEntity
  8
0
  6
HIDDEN
 62
     7
370
    18
100
AcDbCircle
 10
1360.3813030499
 20
3392.9190414508
 30
0.0
 40
988.0
100
AcDbArc
 50
180.0
 51
270.0
  0
LINE
  5
AE
330
1F
100
AcDbEntity
  8
0
  6
HIDDEN
 62
     7
370
    18
100
AcDbLine
 10
2603.3813030499
 20
4308.9190414508
 30
0.0
 11
2525.3937863145
 21
3467.0028061676
 31
0.0
  0
ARC
  5
AF
330
1F
100
AcDbEntity
  8
0
  6
HIDDEN
 62
     7
370
    18
100
AcDbCircle
 10
1360.3813030499
 20
3574.9190414508
 30
0.0
 40
1170.0
100
AcDbArc
 50
270.0
 51
354.7077386841
  0
CIRCLE
  5
B0
330
1F
100
AcDbEntity
  8
0
  6
HIDDEN
 62
     7
370
    18
100
AcDbCircle
 10
1269.3813030499
 20
3483.9190414508
 30
0.0
 40
625.0
  0
CIRCLE
  5
B1
330
1F
100
AcDbEntity
  8
0
  6
HIDDEN
 62
     7
370
    18
100
AcDbCircle
 10
1269.3813030499
 20
3483.9190414508
 30
0.0
 40
674.9999999999995
  0
CIRCLE
  5
B2
330
1F
100
AcDbEntity
  8
0
  6
HIDDEN
 62
     7
370
    18
100
AcDbCircle
 10
1269.3813030499
 20
3483.9190414508
 30
0.0
 40
627.3000000000002
  0
CIRCLE
  5
B3
330
1F
100
AcDbEntity
  8
0
  6
HIDDEN
 62
     7
370
    18
100
AcDbCircle
 10
1855.2180927038
 20
3782.4177950295
 30
0.0
 40
6.0
  0
CIRCLE
  5
B4
330
1F
100
AcDbEntity
  8
0
  6
HIDDEN
 62
     7
370
    18
100
AcDbCircle
 10
1734.3040116801
 20
3948.8417500809
 30
0.0
 40
6.0
  0
CIRCLE
  5
B5
330
1F
100
AcDbEntity
  8
0
  6
HIDDEN
 62
     7
370
    18
100
AcDbCircle
 10
1567.8800566287
 20
4069.7558311046
 30
0.0
 40
6.000000000000455
  0
CIRCLE
  5
B6
330
1F
100
AcDbEntity
  8
0
  6
HIDDEN
 62
     7
370
    18
100
AcDbCircle
 10
1372.2369638139
 20
4133.3241253921
 30
0.0
 40
6.0
  0
CIRCLE
  5
B7
330
1F
100
AcDbEntity
  8
0
  6
HIDDEN
 62
     7
370
    18
100
AcDbCircle
 10
1166.525642286
 20
4133.3241253921
 30
0.0
 40
6.0
  0
CIRCLE
  5
B8
330
1F
100
AcDbEntity
  8
0
  6
HIDDEN
 62
     7
370
    18
100
AcDbCircle
 10
970.8825494712
 20
4069.7558311046
 30
0.0
 40
6.000000000000455
  0
CIRCLE
  5
B9
330
1F
100
AcDbEntity
  8
0
  6
HIDDEN
 62
     7
370
    18
100
AcDbCircle
 10
804.4585944198
 20
3948.8417500809
 30
0.0
 40
6.0
  0
CIRCLE
  5
BA
330
1F
100
AcDbEntity
  8
0
  6
HIDDEN
 62
     7
370
    18
100
AcDbCircle
 10
683.5445133961
 20
3782.4177950295
 30
0.0
 40
5.999999999999545
  0
CIRCLE
  5
BB
330
1F
100
AcDbEntity
  8
0
  6
HIDDEN
 62
     7
370
    18
100
AcDbCircle
 10
619.9762191086
 20
3586.7747022147
 30
0.0
 40
6.0
  0
CIRCLE
  5
BC
330
1F
100
AcDbEntity
  8
0
  6
HIDDEN
 62
     7
370
    18
100
AcDbCircle
 10
619.9762191086
 20
3381.0633806868
 30
0.0
 40
6.0
  0
CIRCLE
  5
BD
330
1F
100
AcDbEntity
  8
0
  6
HIDDEN
 62
     7
370
    18
100
AcDbCircle
 10
683.5445133961
 20
3185.420287872
 30
0.0
 40
6.000000000000455
  0
CIRCLE
  5
BE
330
1F
100
AcDbEntity
  8
0
  6
HIDDEN
 62
     7
370
    18
100
AcDbCircle
 10
804.4585944198
 20
3018.9963328206
 30
0.0
 40
5.999999999999545
  0
CIRCLE
  5
BF
330
1F
100
AcDbEntity
  8
0
  6
HIDDEN
 62
     7
370
    18
100
AcDbCircle
 10
970.8825494712
 20
2898.0822517969
 30
0.0
 40
5.999999999999545
  0
CIRCLE
  5
C0
330
1F
100
AcDbEntity
  8
0
  6
HIDDEN
 62
     7
370
    18
100
AcDbCircle
 10
1166.525642286
 20
2834.5139575095
 30
0.0
 40
6.0
  0
CIRCLE
  5
C1
330
1F
100
AcDbEntity
  8
0
  6
HIDDEN
 62
     7
370
    18
100
AcDbCircle
 10
1372.2369638139
 20
2834.5139575095
 30
0.0
 40
6.0
  0
CIRCLE
  5
C2
330
1F
100
AcDbEntity
  8
0
  6
HIDDEN
 62
     7
370
    18
100
AcDbCircle
 10
1567.8800566287
 20
2898.0822517969
 30
0.0
 40
6.0
  0
CIRCLE
  5
C3
330
1F
100
AcDbEntity
  8
0
  6
HIDDEN
 62
     7
370
    18
100
AcDbCircle
 10
1734.3040116801
 20
3018.9963328206
 30
0.0
 40
6.0
  0
CIRCLE
  5
C4
330
1F
100
AcDbEntity
  8
0
  6
HIDDEN
 62
     7
370
    18
100
AcDbCircle
 10
1855.2180927038
 20
3185.420287872
 30
0.0
 40
6.0
  0
CIRCLE
  5
C5
330
1F
100
AcDbEntity
  8
0
  6
HIDDEN
 62
     7
370
    18
100
AcDbCircle
 10
1918.7863869912
 20
3381.0633806868
 30
0.0
 40
6.0
  0
CIRCLE
  5
C6
330
1F
100
AcDbEntity
  8
0
  6
HIDDEN
 62
     7
370
    18
100
AcDbCircle
 10
1918.7863869912
 20
3586.7747022147
 30
0.0
 40
6.000000000000455
  0
LINE
  5
C7
330
1F
100
AcDbEntity
  8
0
  6
HIDDEN
 62
     7
370
    18
100
AcDbLine
 10
2961.3813030499
 20
2193.9190414508
 30
0.0
 11
2961.3813030499
 21
2199.9190414508
 31
0.0
  0
LINE
  5
C8
330
1F
100
AcDbEntity
  8
0
  6
HIDDEN
 62
     7
370
    18
100
AcDbLine
 10
2937.3813030499
 20
2199.9190414508
 30
0.0
 11
2937.3813030499
 21
2193.9190414508
 31
0.0
  0
LINE
  5
C9
330
1F
100
AcDbEntity
  8
0
  6
HIDDEN
 62
     7
370
    18
100
AcDbLine
 10
2191.3813030499
 20
2193.9190414508
 30
0.0
 11
2191.3813030499
 21
2199.9190414508
 31
0.0
  0
LINE
  5
CA
330
1F
100
AcDbEntity
  8
0
  6
HIDDEN
 62
     7
370
    18
100
AcDbLine
 10
2167.3813030499
 20
2199.9190414508
 30
0.0
 11
2167.3813030499
 21
2193.9190414508
 31
0.0
  0
LINE
  5
CB
330
1F
100
AcDbEntity
  8
0
  6
HIDDEN
 62
     7
370
    18
100
AcDbLine
 10
1421.3813030499
 20
2193.9190414508
 30
0.0
 11
1421.3813030499
 21
2199.9190414508
 31
0.0
  0
LINE
  5
CC
330
1F
100
AcDbEntity
  8
0
  6
HIDDEN
 62
     7
370
    18
100
AcDbLine
 10
1397.3813030499
 20
2199.9190414508
 30
0.0
 11
1397.3813030499
 21
2193.9190414508
 31
0.0
  0
LINE
  5
CD
330
1F
100
AcDbEntity
  8
0
  6
HIDDEN
 62
     7
370
    18
100
AcDbLine
 10
651.3813030499
 20
2193.9190414508
 30
0.0
 11
651.3813030499
 21
2199.9190414508
 31
0.0
  0
LINE
  5
CE
330
1F
100
AcDbEntity
  8
0
  6
HIDDEN
 62
     7
370
    18
100
AcDbLine
 10
627.3813030499
 20
2199.9190414508
 30
0.0
 11
627.3813030499
 21
2193.9190414508
 31
0.0
  0
LINE
  5
CF
330
1F
100
AcDbEntity
  8
0
  6
HIDDEN
 62
     7
370
    18
100
AcDbLine
 10
1457.3813030499
 20
4308.9190414508
 30
0.0
 11
1457.3813030499
 21
4304.9190414508
 31
0.0
  0
LINE
  5
D0
330
1F
100
AcDbEntity
  8
0
  6
HIDDEN
 62
     7
370
    18
100
AcDbLine
 10
1469.3813030499
 20
4304.9190414508
 30
0.0
 11
1469.3813030499
 21
4308.9190414508
 31
0.0
  0
LINE
  5
D1
330
1F
100
AcDbEntity
  8
0
  6
HIDDEN
 62
     7
370
    18
100
AcDbLine
 10
1284.3813030499
 20
4308.9190414508
 30
0.0
 11
1284.3813030499
 21
4304.9190414508
 31
0.0
  0
LINE
  5
D2
330
1F
100
AcDbEntity
  8
0
  6
HIDDEN
 62
     7
370
    18
100
AcDbLine
 10
1296.3813030499
 20
4304.9190414508
 30
0.0
 11
1296.3813030499
 21
4308.9190414508
 31
0.0
  0
LINE
  5
D3
330
1F
100
AcDbEntity
  8
0
  6
HIDDEN
 62
     7
370
    18
100
AcDbLine
 10
1657.3813030499
 20
4308.9190414508
 30
0.0
 11
1657.3813030499
 21
4304.9190414508
 31
0.0
  0
LINE
  5
D4
330
1F
100
AcDbEntity
  8
0
  6
HIDDEN
 62
     7
370
    18
100
AcDbLine
 10
1669.3813030499
 20
4304.9190414508
 30
0.0
 11
1669.3813030499
 21
4308.9190414508
 31
0.0
  0
LINE
  5
D5
330
1F
100
AcDbEntity
  8
0
  6
HIDDEN
 62
     7
370
    18
100
AcDbLine
 10
1857.3813030499
 20
4308.9190414508
 30
0.0
 11
1857.3813030499
 21
4304.9190414508
 31
0.0
  0
LINE
  5
D6
330
1F
100
AcDbEntity
  8
0
  6
HIDDEN
 62
     7
370
    18
100
AcDbLine
 10
1869.3813030499
 20
4304.9190414508
 30
0.0
 11
1869.3813030499
 21
4308.9190414508
 31
0.0
  0
LINE
  5
D7
330
1F
100
AcDbEntity
  8
0
  6
HIDDEN
 62
     7
370
    18
100
AcDbLine
 10
2057.3813030499
 20
4308.9190414508
 30
0.0
 11
2057.3813030499
 21
4304.9190414508
 31
0.0
  0
LINE
  5
D8
330
1F
100
AcDbEntity
  8
0
  6
HIDDEN
 62
     7
370
    18
100
AcDbLine
 10
2069.3813030499
 20
4304.9190414508
 30
0.0
 11
2069.3813030499
 21
4308.9190414508
 31
0.0
  0
LINE
  5
D9
330
1F
100
AcDbEntity
  8
0
  6
HIDDEN
 62
     7
370
    18
100
AcDbLine
 10
2457.3813030499
 20
4308.9190414508
 30
0.0
 11
2457.3813030499
 21
4304.9190414508
 31
0.0
  0
LINE
  5
DA
330
1F
100
AcDbEntity
  8
0
  6
HIDDEN
 62
     7
370
    18
100
AcDbLine
 10
2469.3813030499
 20
4304.9190414508
 30
0.0
 11
2469.3813030499
 21
4308.9190414508
 31
0.0
  0
LINE
  5
DB
330
1F
100
AcDbEntity
  8
0
  6
HIDDEN
 62
     7
370
    18
100
AcDbLine
 10
2257.3813030499
 20
4308.9190414508
 30
0.0
 11
2257.3813030499
 21
4304.9190414508
 31
0.0
  0
LINE
  5
DC
330
1F
100
AcDbEntity
  8
0
  6
HIDDEN
 62
     7
370
    18
100
AcDbLine
 10
2269.3813030499
 20
4304.9190414508
 30
0.0
 11
2269.3813030499
 21
4308.9190414508
 31
0.0
  0
LINE
  5
DD
330
1F
100
AcDbEntity
  8
0
  6
HIDDEN
 62
     7
370
    18
100
AcDbLine
 10
2630.3813030499
 20
4308.9190414508
 30
0.0
 11
2630.3813030499
 21
4304.9190414508
 31
0.0
  0
LINE
  5
DE
330
1F
100
AcDbEntity
  8
0
  6
HIDDEN
 62
     7
370
    18
100
AcDbLine
 10
2642.3813030499
 20
4304.9190414508
 30
0.0
 11
2642.3813030499
 21
4308.9190414508
 31
0.0
  0
INSERT
  5
EA
330
1F
100
AcDbEntity
  8
2
100
AcDbBlockReference
  2
SW_CENTERMARKSYMBOL_0
 10
1269.3813030499
 20
3483.9190414508
 30
0.0
  0
LINE
  5
EB
330
1F
100
AcDbEntity
  8
1
100
AcDbLine
 10
3472.8698213906
 20
2546.4190414508
 30
0.0
 11
3632.8698213906
 21
2546.4190414508
 31
0.0
  0
LINE
  5
EC
330
1F
100
AcDbEntity
  8
1
100
AcDbLine
 10
3632.8698213906
 20
3808.9190414508
 30
0.0
 11
3472.8698213906
 21
3808.9190414508
 31
0.0
  0
LINE
  5
ED
330
1F
100
AcDbEntity
  8
1
100
AcDbLine
 10
4255.3698213906
 20
2954.4190414508
 30
0.0
 11
3700.3698213906
 21
2954.4190414508
 31
0.0
  0
LINE
  5
EE
330
1F
100
AcDbEntity
  8
1
100
AcDbLine
 10
3632.8698213906
 20
2734.9190414508
 30
0.0
 11
3700.3698213906
 21
2734.9190414508
 31
0.0
  0
LINE
  5
EF
330
1F
100
AcDbEntity
  8
1
100
AcDbLine
 10
3700.3698213906
 20
2782.9190414508
 30
0.0
 11
3632.8698213906
 21
2782.9190414508
 31
0.0
  0
LINE
  5
F0
330
1F
100
AcDbEntity
  8
1
100
AcDbLine
 10
4890.8698213906
 20
2373.9190414508
 30
0.0
 11
4890.8698213906
 21
2268.9190414508
 31
0.0
  0
LINE
  5
F1
330
1F
100
AcDbEntity
  8
1
100
AcDbLine
 10
4925.8698213906
 20
2268.9190414508
 30
0.0
 11
4925.8698213906
 21
2373.9190414508
 31
0.0
  0
LINE
  5
F2
330
1F
100
AcDbEntity
  8
1
100
AcDbLine
 10
3685.8698213906
 20
2373.9190414508
 30
0.0
 11
3685.8698213906
 21
2268.9190414508
 31
0.0
  0
LINE
  5
F3
330
1F
100
AcDbEntity
  8
1
100
AcDbLine
 10
3720.8698213906
 20
2268.9190414508
 30
0.0
 11
3720.8698213906
 21
2373.9190414508
 31
0.0
  0
LINE
  5
F4
330
1F
100
AcDbEntity
  8
1
100
AcDbLine
 10
4970.8698213906
 20
4158.9190414508
 30
0.0
 11
4968.5698213906
 21
4158.9190414508
 31
0.0
  0
LINE
  5
F5
330
1F
100
AcDbEntity
  8
1
100
AcDbLine
 10
4968.5698213906
 20
2808.9190414508
 30
0.0
 11
4970.8698213906
 21
2808.9190414508
 31
0.0
  0
LINE
  5
F6
330
1F
100
AcDbEntity
  8
1
100
AcDbLine
 10
4871.0698213906
 20
2808.9190414508
 30
0.0
 11
4877.8698213906
 21
2808.9190414508
 31
0.0
  0
LINE
  5
F7
330
1F
100
AcDbEntity
  8
1
100
AcDbLine
 10
4877.8698213906
 20
4158.9190414508
 30
0.0
 11
4871.0698213906
 21
4158.9190414508
 31
0.0
  0
LINE
  5
F8
330
1F
100
AcDbEntity
  8
1
100
AcDbLine
 10
4968.5698213906
 20
4111.2190414508
 30
0.0
 11
4877.8698213906
 21
4111.2190414508
 31
0.0
  0
LINE
  5
F9
330
1F
100
AcDbEntity
  8
1
100
AcDbLine
 10
4877.8698213906
 20
2856.6190414508
 30
0.0
 11
4968.5698213906
 21
2856.6190414508
 31
0.0
  0
LINE
  5
FA
330
1F
100
AcDbEntity
  8
1
100
AcDbLine
 10
3472.8698213906
 20
2546.4190414508
 30
0.0
 11
3472.8698213906
 21
2941.9317901806
 31
0.0
  0
LINE
  5
FB
330
1F
100
AcDbEntity
  8
1
100
AcDbLine
 10
3632.8698213906
 20
2546.4190414508
 30
0.0
 11
3632.8698213906
 21
2941.9317901806
 31
0.0
  0
LINE
  5
FC
330
1F
100
AcDbEntity
  8
1
100
AcDbLine
 10
3472.8698213906
 20
2941.9317901806
 30
0.0
 11
3472.8698213906
 21
3763.8208924493
 31
0.0
  0
LINE
  5
FD
330
1F
100
AcDbEntity
  8
1
100
AcDbLine
 10
3632.8698213906
 20
2941.9317901806
 30
0.0
 11
3632.8698213906
 21
3763.8208924493
 31
0.0
  0
LINE
  5
FE
330
1F
100
AcDbEntity
  8
1
100
AcDbLine
 10
3472.8698213906
 20
3763.8208924493
 30
0.0
 11
3472.8698213906
 21
3808.9190414508
 31
0.0
  0
LINE
  5
FF
330
1F
100
AcDbEntity
  8
1
100
AcDbLine
 10
3632.8698213906
 20
3763.8208924493
 30
0.0
 11
3632.8698213906
 21
3808.9190414508
 31
0.0
  0
LINE
  5
100
330
1F
100
AcDbEntity
  8
1
100
AcDbLine
 10
3736.8698213906
 20
2523.9190414508
 30
0.0
 11
3736.8698213906
 21
2578.9190414508
 31
0.0
  0
LINE
  5
101
330
1F
100
AcDbEntity
  8
1
100
AcDbLine
 10
4146.8698213906
 20
2578.9190414508
 30
0.0
 11
3736.8698213906
 21
2578.9190414508
 31
0.0
  0
LINE
  5
102
330
1F
100
AcDbEntity
  8
1
100
AcDbLine
 10
4146.8698213906
 20
2523.9190414508
 30
0.0
 11
4146.8698213906
 21
2578.9190414508
 31
0.0
  0
LINE
  5
103
330
1F
100
AcDbEntity
  8
1
100
AcDbLine
 10
4255.3698213906
 20
2587.9190414508
 30
0.0
 11
4255.3698213906
 21
2954.4190414508
 31
0.0
  0
LINE
  5
104
330
1F
100
AcDbEntity
  8
1
100
AcDbLine
 10
4255.3698213906
 20
2587.9190414508
 30
0.0
 11
4103.8698213906
 21
2587.9190414508
 31
0.0
  0
LINE
  5
105
330
1F
100
AcDbEntity
  8
1
100
AcDbLine
 10
3779.8698213906
 20
2587.9190414508
 30
0.0
 11
3700.3698213906
 21
2587.9190414508
 31
0.0
  0
LINE
  5
106
330
1F
100
AcDbEntity
  8
1
100
AcDbLine
 10
3700.3698213906
 20
2954.4190414508
 30
0.0
 11
3700.3698213906
 21
2587.9190414508
 31
0.0
  0
LINE
  5
107
330
1F
100
AcDbEntity
  8
1
100
AcDbLine
 10
3779.8698213906
 20
2578.9190414508
 30
0.0
 11
3779.8698213906
 21
2596.9190414508
 31
0.0
  0
LINE
  5
108
330
1F
100
AcDbEntity
  8
1
100
AcDbLine
 10
3779.8698213906
 20
2596.9190414508
 30
0.0
 11
4103.8698213906
 21
2596.9190414508
 31
0.0
  0
LINE
  5
109
330
1F
100
AcDbEntity
  8
1
100
AcDbLine
 10
4103.8698213906
 20
2578.9190414508
 30
0.0
 11
4103.8698213906
 21
2596.9190414508
 31
0.0
  0
LINE
  5
10A
330
1F
100
AcDbEntity
  8
1
100
AcDbLine
 10
3665.8698213907
 20
2199.9190414508
 30
0.0
 11
4945.8698213906
 21
2199.9190414508
 31
0.0
  0
LINE
  5
10B
330
1F
100
AcDbEntity
  8
1
100
AcDbLine
 10
4945.8698213906
 20
2193.9190414508
 30
0.0
 11
4945.8698213906
 21
2199.9190414508
 31
0.0
  0
LINE
  5
10C
330
1F
100
AcDbEntity
  8
1
100
AcDbLine
 10
3665.8698213907
 20
2193.9190414508
 30
0.0
 11
3665.8698213907
 21
2199.9190414508
 31
0.0
  0
LINE
  5
10D
330
1F
100
AcDbEntity
  8
1
100
AcDbLine
 10
3665.8698213907
 20
2193.9190414508
 30
0.0
 11
4945.8698213906
 21
2193.9190414508
 31
0.0
  0
LINE
  5
10E
330
1F
100
AcDbEntity
  8
1
100
AcDbLine
 10
4945.8698213906
 20
2262.9190414508
 30
0.0
 11
3665.8698213907
 21
2262.9190414508
 31
0.0
  0
LINE
  5
10F
330
1F
100
AcDbEntity
  8
1
100
AcDbLine
 10
3665.8698213907
 20
2262.9190414508
 30
0.0
 11
3665.8698213907
 21
2268.9190414508
 31
0.0
  0
LINE
  5
110
330
1F
100
AcDbEntity
  8
1
100
AcDbLine
 10
4945.8698213906
 20
2262.9190414508
 30
0.0
 11
4945.8698213906
 21
2268.9190414508
 31
0.0
  0
LINE
  5
111
330
1F
100
AcDbEntity
  8
1
100
AcDbLine
 10
4945.8698213906
 20
2268.9190414508
 30
0.0
 11
3665.8698213907
 21
2268.9190414508
 31
0.0
  0
LINE
  5
112
330
1F
100
AcDbEntity
  8
1
100
AcDbLine
 10
3734.8698213906
 20
2199.9190414508
 30
0.0
 11
3734.8698213906
 21
2262.9190414508
 31
0.0
  0
LINE
  5
113
330
1F
100
AcDbEntity
  8
1
100
AcDbLine
 10
4876.8698213906
 20
2199.9190414508
 30
0.0
 11
4876.8698213906
 21
2262.9190414508
 31
0.0
  0
LINE
  5
114
330
1F
100
AcDbEntity
  8
1
100
AcDbLine
 10
3665.8698213906
 20
2523.9190414508
 30
0.0
 11
3665.8698213906
 21
2517.4190414508
 31
0.0
  0
LINE
  5
115
330
1F
100
AcDbEntity
  8
1
100
AcDbLine
 10
4945.8698213906
 20
2523.9190414508
 30
0.0
 11
3665.8698213906
 21
2523.9190414508
 31
0.0
  0
LINE
  5
116
330
1F
100
AcDbEntity
  8
1
100
AcDbLine
 10
4945.8698213906
 20
2523.9190414508
 30
0.0
 11
4945.8698213906
 21
2517.4190414508
 31
0.0
  0
LINE
  5
117
330
1F
100
AcDbEntity
  8
1
100
AcDbLine
 10
4945.8698213906
 20
2517.4190414508
 30
0.0
 11
3665.8698213906
 21
2517.4190414508
 31
0.0
  0
LINE
  5
118
330
1F
100
AcDbEntity
  8
1
100
AcDbLine
 10
4945.8698213906
 20
2380.4190414508
 30
0.0
 11
4945.8698213906
 21
2373.9190414508
 31
0.0
  0
LINE
  5
119
330
1F
100
AcDbEntity
  8
1
100
AcDbLine
 10
3665.8698213906
 20
2380.4190414508
 30
0.0
 11
3665.8698213906
 21
2373.9190414508
 31
0.0
  0
LINE
  5
11A
330
1F
100
AcDbEntity
  8
1
100
AcDbLine
 10
4945.8698213906
 20
2380.4190414508
 30
0.0
 11
3665.8698213906
 21
2380.4190414508
 31
0.0
  0
LINE
  5
11B
330
1F
100
AcDbEntity
  8
1
100
AcDbLine
 10
4945.8698213906
 20
2373.9190414508
 30
0.0
 11
3665.8698213906
 21
2373.9190414508
 31
0.0
  0
LINE
  5
11C
330
1F
100
AcDbEntity
  8
1
100
AcDbLine
 10
3734.3698213906
 20
2517.4190414508
 30
0.0
 11
3734.3698213906
 21
2380.4190414508
 31
0.0
  0
LINE
  5
11D
330
1F
100
AcDbEntity
  8
1
100
AcDbLine
 10
4877.3698213906
 20
2517.4190414508
 30
0.0
 11
4877.3698213906
 21
2380.4190414508
 31
0.0
  0
LINE
  5
11E
330
1F
100
AcDbEntity
  8
1
100
AcDbLine
 10
4920.8698213906
 20
4304.9190414508
 30
0.0
 11
4920.8698213906
 21
4308.9190414508
 31
0.0
  0
LINE
  5
11F
330
1F
100
AcDbEntity
  8
1
100
AcDbLine
 10
4920.8698213906
 20
4304.9190414508
 30
0.0
 11
3864.8698213906
 21
4304.9190414508
 31
0.0
  0
LINE
  5
120
330
1F
100
AcDbEntity
  8
1
100
AcDbLine
 10
3864.8698213906
 20
4304.9190414508
 30
0.0
 11
3864.8698213906
 21
4308.9190414508
 31
0.0
  0
LINE
  5
121
330
1F
100
AcDbEntity
  8
1
100
AcDbLine
 10
4920.8698213906
 20
4308.9190414508
 30
0.0
 11
3864.8698213906
 21
4308.9190414508
 31
0.0
  0
LINE
  5
122
330
1F
100
AcDbEntity
  8
1
100
AcDbLine
 10
3914.6698213906
 20
4304.9190414508
 30
0.0
 11
3914.6698213906
 21
3466.7906631409
 31
0.0
  0
LINE
  5
123
330
1F
100
AcDbEntity
  8
1
100
AcDbLine
 10
4871.0698213906
 20
4304.9190414508
 30
0.0
 11
4871.0698213906
 21
3466.7906631409
 31
0.0
  0
LINE
  5
124
330
1F
100
AcDbEntity
  8
1
100
AcDbLine
 10
3914.6698213906
 20
3466.7906631409
 30
0.0
 11
3914.6698213906
 21
2954.4190414508
 31
0.0
  0
LINE
  5
125
330
1F
100
AcDbEntity
  8
1
100
AcDbLine
 10
4871.0698213906
 20
3466.7906631409
 30
0.0
 11
4871.0698213906
 21
2523.9190414508
 31
0.0
  0
LINE
  5
126
330
1F
100
AcDbEntity
  8
1
100
AcDbLine
 10
4970.8698213906
 20
2808.9190414508
 30
0.0
 11
4970.8698213906
 21
4158.9190414508
 31
0.0
  0
LINE
  5
127
330
1F
100
AcDbEntity
  8
1
100
AcDbLine
 10
4968.5698213906
 20
2808.9190414508
 30
0.0
 11
4968.5698213906
 21
4158.9190414508
 31
0.0
  0
LINE
  5
128
330
1F
100
AcDbEntity
  8
1
100
AcDbLine
 10
4877.8698213906
 20
4158.9190414508
 30
0.0
 11
4877.8698213906
 21
2808.9190414508
 31
0.0
  0
LINE
  5
129
330
1F
100
AcDbEntity
  8
0
  6
HIDDEN
 62
     7
370
    18
100
AcDbLine
 10
3515.3698213906
 20
2815.2065772231
 30
0.0
 11
3515.3698213906
 21
2646.4190414508
 31
0.0
  0
LINE
  5
12A
330
1F
100
AcDbEntity
  8
0
  6
HIDDEN
 62
     7
370
    18
100
AcDbLine
 10
3515.3698213906
 20
2871.4190414508
 30
0.0
 11
3515.3698213906
 21
2815.2065772231
 31
0.0
  0
LINE
  5
12B
330
1F
100
AcDbEntity
  8
0
  6
HIDDEN
 62
     7
370
    18
100
AcDbLine
 10
3590.3698213906
 20
2815.2065772231
 30
0.0
 11
3590.3698213906
 21
2646.4190414508
 31
0.0
  0
LINE
  5
12C
330
1F
100
AcDbEntity
  8
0
  6
HIDDEN
 62
     7
370
    18
100
AcDbLine
 10
3590.3698213906
 20
2871.4190414508
 30
0.0
 11
3590.3698213906
 21
2815.2065772231
 31
0.0
  0
LINE
  5
12D
330
1F
100
AcDbEntity
  8
0
  6
HIDDEN
 62
     7
370
    18
100
AcDbLine
 10
3590.3698213906
 20
3282.7943068306
 30
0.0
 11
3590.3698213906
 21
3708.9190414508
 31
0.0
  0
LINE
  5
12E
330
1F
100
AcDbEntity
  8
0
  6
HIDDEN
 62
     7
370
    18
100
AcDbLine
 10
3590.3698213906
 20
3258.9190414508
 30
0.0
 11
3590.3698213906
 21
3282.7943068306
 31
0.0
  0
LINE
  5
12F
330
1F
100
AcDbEntity
  8
0
  6
HIDDEN
 62
     7
370
    18
100
AcDbLine
 10
3515.3698213906
 20
3282.7943068306
 30
0.0
 11
3515.3698213906
 21
3708.9190414508
 31
0.0
  0
LINE
  5
130
330
1F
100
AcDbEntity
  8
0
  6
HIDDEN
 62
     7
370
    18
100
AcDbLine
 10
3515.3698213906
 20
3258.9190414508
 30
0.0
 11
3515.3698213906
 21
3282.7943068306
 31
0.0
  0
LINE
  5
131
330
1F
100
AcDbEntity
  8
0
  6
HIDDEN
 62
     7
370
    18
100
AcDbLine
 10
4870.8698213906
 20
2193.9190414508
 30
0.0
 11
4870.8698213906
 21
2268.9190414508
 31
0.0
  0
LINE
  5
132
330
1F
100
AcDbEntity
  8
0
  6
HIDDEN
 62
     7
370
    18
100
AcDbLine
 10
3740.8698213906
 20
2193.9190414508
 30
0.0
 11
3740.8698213906
 21
2268.9190414508
 31
0.0
  0
LINE
  5
133
330
1F
100
AcDbEntity
  8
0
  6
HIDDEN
 62
     7
370
    18
100
AcDbLine
 10
4870.8698213906
 20
2523.9190414508
 30
0.0
 11
4870.8698213906
 21
2373.9190414508
 31
0.0
  0
LINE
  5
134
330
1F
100
AcDbEntity
  8
0
  6
HIDDEN
 62
     7
370
    18
100
AcDbLine
 10
3740.8698213906
 20
2523.9190414508
 30
0.0
 11
3740.8698213906
 21
2373.9190414508
 31
0.0
  0
LINE
  5
135
330
1F
100
AcDbEntity
  8
0
  6
HIDDEN
 62
     7
370
    18
100
AcDbLine
 10
4867.8698213906
 20
4308.9190414508
 30
0.0
 11
4867.8698213906
 21
3467.0028061676
 31
0.0
  0
LINE
  5
136
330
1F
100
AcDbEntity
  8
0
  6
HIDDEN
 62
     7
370
    18
100
AcDbLine
 10
3917.8698213906
 20
4308.9190414508
 30
0.0
 11
3917.8698213906
 21
3467.0028061676
 31
0.0
  0
LINE
  5
137
330
1F
100
AcDbEntity
  8
0
  6
HIDDEN
 62
     7
370
    18
100
AcDbLine
 10
3914.6698213906
 20
2402.6190414508
 30
0.0
 11
4871.0698213906
 21
2402.6190414508
 31
0.0
  0
LINE
  5
138
330
1F
100
AcDbEntity
  8
0
  6
HIDDEN
 62
     7
370
    18
100
AcDbLine
 10
3914.6698213906
 20
2954.4190414508
 30
0.0
 11
3914.6698213906
 21
2402.6190414508
 31
0.0
  0
LINE
  5
139
330
1F
100
AcDbEntity
  8
0
  6
HIDDEN
 62
     7
370
    18
100
AcDbLine
 10
4871.0698213906
 20
2523.9190414508
 30
0.0
 11
4871.0698213906
 21
2402.6190414508
 31
0.0
  0
LINE
  5
13A
330
1F
100
AcDbEntity
  8
0
  6
HIDDEN
 62
     7
370
    18
100
AcDbLine
 10
3917.8698213906
 20
2404.9190414508
 30
0.0
 11
4867.8698213906
 21
2404.9190414508
 31
0.0
  0
LINE
  5
13B
330
1F
100
AcDbEntity
  8
0
  6
HIDDEN
 62
     7
370
    18
100
AcDbLine
 10
3917.8698213906
 20
3467.0028061676
 30
0.0
 11
3917.8698213906
 21
2404.9190414508
 31
0.0
  0
LINE
  5
13C
330
1F
100
AcDbEntity
  8
0
  6
HIDDEN
 62
     7
370
    18
100
AcDbLine
 10
4867.8698213906
 20
3467.0028061676
 30
0.0
 11
4867.8698213906
 21
2404.9190414508
 31
0.0
  0
LINE
  5
13D
330
1F
100
AcDbEntity
  8
0
  6
HIDDEN
 62
     7
370
    18
100
AcDbLine
 10
3917.8698213906
 20
4226.9190414508
 30
0.0
 11
4867.8698213906
 21
4226.9190414508
 31
0.0
  0
LINE
  5
13E
330
1F
100
AcDbEntity
  8
0
  6
HIDDEN
 62
     7
370
    18
100
AcDbLine
 10
3914.6698213906
 20
4229.2190414508
 30
0.0
 11
4871.0698213906
 21
4229.2190414508
 31
0.0
  0
LINE
  5
13F
330
1F
100
AcDbEntity
  8
0
  6
HIDDEN
 62
     7
370
    18
100
AcDbLine
 10
3590.3698213906
 20
2734.9190414508
 30
0.0
 11
3632.8698213906
 21
2734.9190414508
 31
0.0
  0
LINE
  5
140
330
1F
100
AcDbEntity
  8
0
  6
HIDDEN
 62
     7
370
    18
100
AcDbLine
 10
3632.8698213906
 20
2782.9190414508
 30
0.0
 11
3590.3698213906
 21
2782.9190414508
 31
0.0
  0
LINE
  5
141
330
1F
100
AcDbEntity
  8
0
  6
HIDDEN
 62
     7
370
    18
100
AcDbLine
 10
3515.3698213906
 20
2646.4190414508
 30
0.0
 11
3590.3698213906
 21
2646.4190414508
 31
0.0
  0
LINE
  5
142
330
1F
100
AcDbEntity
  8
0
  6
HIDDEN
 62
     7
370
    18
100
AcDbLine
 10
3590.3698213906
 20
2871.4190414508
 30
0.0
 11
3515.3698213906
 21
2871.4190414508
 31
0.0
  0
LINE
  5
143
330
1F
100
AcDbEntity
  8
0
  6
HIDDEN
 62
     7
370
    18
100
AcDbLine
 10
3590.3698213906
 20
3708.9190414508
 30
0.0
 11
3515.3698213906
 21
3708.9190414508
 31
0.0
  0
LINE
  5
144
330
1F
100
AcDbEntity
  8
0
  6
HIDDEN
 62
     7
370
    18
100
AcDbLine
 10
3515.3698213906
 20
3258.9190414508
 30
0.0
 11
3590.3698213906
 21
3258.9190414508
 31
0.0
  0
LINE
  5
145
330
1F
100
AcDbEntity
  8
0
  6
HIDDEN
 62
     7
370
    18
100
AcDbLine
 10
4922.8698213906
 20
2193.9190414508
 30
0.0
 11
4922.8698213906
 21
2199.9190414508
 31
0.0
  0
LINE
  5
146
330
1F
100
AcDbEntity
  8
0
  6
HIDDEN
 62
     7
370
    18
100
AcDbLine
 10
4898.8698213906
 20
2199.9190414508
 30
0.0
 11
4898.8698213906
 21
2193.9190414508
 31
0.0
  0
LINE
  5
147
330
1F
100
AcDbEntity
  8
0
  6
HIDDEN
 62
     7
370
    18
100
AcDbLine
 10
3712.8698213906
 20
2193.9190414508
 30
0.0
 11
3712.8698213906
 21
2199.9190414508
 31
0.0
  0
LINE
  5
148
330
1F
100
AcDbEntity
  8
0
  6
HIDDEN
 62
     7
370
    18
100
AcDbLine
 10
3688.8698213906
 20
2199.9190414508
 30
0.0
 11
3688.8698213906
 21
2193.9190414508
 31
0.0
  0
LINE
  5
149
330
1F
100
AcDbEntity
  8
0
  6
HIDDEN
 62
     7
370
    18
100
AcDbLine
 10
4894.8698213906
 20
4308.9190414508
 30
0.0
 11
4894.8698213906
 21
4304.9190414508
 31
0.0
  0
LINE
  5
14A
330
1F
100
AcDbEntity
  8
0
  6
HIDDEN
 62
     7
370
    18
100
AcDbLine
 10
4906.8698213906
 20
4304.9190414508
 30
0.0
 11
4906.8698213906
 21
4308.9190414508
 31
0.0
  0
LINE
  5
14B
330
1F
100
AcDbEntity
  8
0
  6
HIDDEN
 62
     7
370
    18
100
AcDbLine
 10
4786.8698213906
 20
4308.9190414508
 30
0.0
 11
4786.8698213906
 21
4304.9190414508
 31
0.0
  0
LINE
  5
14C
330
1F
100
AcDbEntity
  8
0
  6
HIDDEN
 62
     7
370
    18
100
AcDbLine
 10
4798.8698213906
 20
4304.9190414508
 30
0.0
 11
4798.8698213906
 21
4308.9190414508
 31
0.0
  0
LINE
  5
14D
330
1F
100
AcDbEntity
  8
0
  6
HIDDEN
 62
     7
370
    18
100
AcDbLine
 10
4586.8698213906
 20
4308.9190414508
 30
0.0
 11
4586.8698213906
 21
4304.9190414508
 31
0.0
  0
LINE
  5
14E
330
1F
100
AcDbEntity
  8
0
  6
HIDDEN
 62
     7
370
    18
100
AcDbLine
 10
4598.8698213906
 20
4304.9190414508
 30
0.0
 11
4598.8698213906
 21
4308.9190414508
 31
0.0
  0
LINE
  5
14F
330
1F
100
AcDbEntity
  8
0
  6
HIDDEN
 62
     7
370
    18
100
AcDbLine
 10
4386.8698213906
 20
4308.9190414508
 30
0.0
 11
4386.8698213906
 21
4304.9190414508
 31
0.0
  0
LINE
  5
150
330
1F
100
AcDbEntity
  8
0
  6
HIDDEN
 62
     7
370
    18
100
AcDbLine
 10
4398.8698213906
 20
4304.9190414508
 30
0.0
 11
4398.8698213906
 21
4308.9190414508
 31
0.0
  0
LINE
  5
151
330
1F
100
AcDbEntity
  8
0
  6
HIDDEN
 62
     7
370
    18
100
AcDbLine
 10
4186.8698213906
 20
4308.9190414508
 30
0.0
 11
4186.8698213906
 21
4304.9190414508
 31
0.0
  0
LINE
  5
152
330
1F
100
AcDbEntity
  8
0
  6
HIDDEN
 62
     7
370
    18
100
AcDbLine
 10
4198.8698213906
 20
4304.9190414508
 30
0.0
 11
4198.8698213906
 21
4308.9190414508
 31
0.0
  0
LINE
  5
153
330
1F
100
AcDbEntity
  8
0
  6
HIDDEN
 62
     7
370
    18
100
AcDbLine
 10
3986.8698213906
 20
4308.9190414508
 30
0.0
 11
3986.8698213906
 21
4304.9190414508
 31
0.0
  0
LINE
  5
154
330
1F
100
AcDbEntity
  8
0
  6
HIDDEN
 62
     7
370
    18
100
AcDbLine
 10
3998.8698213906
 20
4304.9190414508
 30
0.0
 11
3998.8698213906
 21
4308.9190414508
 31
0.0
  0
LINE
  5
155
330
1F
100
AcDbEntity
  8
0
  6
HIDDEN
 62
     7
370
    18
100
AcDbLine
 10
3878.8698213906
 20
4308.9190414508
 30
0.0
 11
3878.8698213906
 21
4304.9190414508
 31
0.0
  0
LINE
  5
156
330
1F
100
AcDbEntity
  8
0
  6
HIDDEN
 62
     7
370
    18
100
AcDbLine
 10
3890.8698213906
 20
4304.9190414508
 30
0.0
 11
3890.8698213906
 21
4308.9190414508
 31
0.0
  0
LINE
  5
157
330
1F
100
AcDbEntity
  8
0
  6
HIDDEN
 62
     7
370
    18
100
AcDbLine
 10
4970.8698213906
 20
3592.7747022147
 30
0.0
 11
4968.5698213906
 21
3592.7747022147
 31
0.0
  0
LINE
  5
158
330
1F
100
AcDbEntity
  8
0
  6
HIDDEN
 62
     7
370
    18
100
AcDbLine
 10
4968.5698213906
 20
3580.7747022147
 30
0.0
 11
4970.8698213906
 21
3580.7747022147
 31
0.0
  0
LINE
  5
159
330
1F
100
AcDbEntity
  8
0
  6
HIDDEN
 62
     7
370
    18
100
AcDbLine
 10
4970.8698213906
 20
3387.0633806868
 30
0.0
 11
4968.5698213906
 21
3387.0633806868
 31
0.0
  0
LINE
  5
15A
330
1F
100
AcDbEntity
  8
0
  6
HIDDEN
 62
     7
370
    18
100
AcDbLine
 10
4968.5698213906
 20
3375.0633806868
 30
0.0
 11
4970.8698213906
 21
3375.0633806868
 31
0.0
  0
LINE
  5
15B
330
1F
100
AcDbEntity
  8
0
  6
HIDDEN
 62
     7
370
    18
100
AcDbLine
 10
4867.8698213906
 20
2858.9190414508
 30
0.0
 11
4970.8698213906
 21
2858.9190414508
 31
0.0
  0
LINE
  5
15C
330
1F
100
AcDbEntity
  8
0
  6
HIDDEN
 62
     7
370
    18
100
AcDbLine
 10
4970.8698213906
 20
4108.9190414508
 30
0.0
 11
4867.8698213906
 21
4108.9190414508
 31
0.0
  0
LINE
  5
15D
330
1F
100
AcDbEntity
  8
0
  6
HIDDEN
 62
     7
370
    18
100
AcDbLine
 10
4970.8698213906
 20
3788.4177950295
 30
0.0
 11
4968.5698213906
 21
3788.4177950295
 31
0.0
  0
LINE
  5
15E
330
1F
100
AcDbEntity
  8
0
  6
HIDDEN
 62
     7
370
    18
100
AcDbLine
 10
4968.5698213906
 20
3776.4177950295
 30
0.0
 11
4970.8698213906
 21
3776.4177950295
 31
0.0
  0
LINE
  5
15F
330
1F
100
AcDbEntity
  8
0
  6
HIDDEN
 62
     7
370
    18
100
AcDbLine
 10
4970.8698213906
 20
3191.420287872
 30
0.0
 11
4968.5698213906
 21
3191.420287872
 31
0.0
  0
LINE
  5
160
330
1F
100
AcDbEntity
  8
0
  6
HIDDEN
 62
     7
370
    18
100
AcDbLine
 10
4968.5698213906
 20
3179.420287872
 30
0.0
 11
4970.8698213906
 21
3179.420287872
 31
0.0
  0
LINE
  5
161
330
1F
100
AcDbEntity
  8
0
  6
HIDDEN
 62
     7
370
    18
100
AcDbLine
 10
4970.8698213906
 20
3954.8417500809
 30
0.0
 11
4968.5698213906
 21
3954.8417500809
 31
0.0
  0
LINE
  5
162
330
1F
100
AcDbEntity
  8
0
  6
HIDDEN
 62
     7
370
    18
100
AcDbLine
 10
4968.5698213906
 20
3942.8417500809
 30
0.0
 11
4970.8698213906
 21
3942.8417500809
 31
0.0
  0
LINE
  5
163
330
1F
100
AcDbEntity
  8
0
  6
HIDDEN
 62
     7
370
    18
100
AcDbLine
 10
4970.8698213906
 20
3024.9963328206
 30
0.0
 11
4968.5698213906
 21
3024.9963328206
 31
0.0
  0
LINE
  5
164
330
1F
100
AcDbEntity
  8
0
  6
HIDDEN
 62
     7
370
    18
100
AcDbLine
 10
4968.5698213906
 20
3012.9963328206
 30
0.0
 11
4970.8698213906
 21
3012.9963328206
 31
0.0
  0
LINE
  5
165
330
1F
100
AcDbEntity
  8
0
  6
HIDDEN
 62
     7
370
    18
100
AcDbLine
 10
4970.8698213906
 20
2904.0822517969
 30
0.0
 11
4968.5698213906
 21
2904.0822517969
 31
0.0
  0
LINE
  5
166
330
1F
100
AcDbEntity
  8
0
  6
HIDDEN
 62
     7
370
    18
100
AcDbLine
 10
4968.5698213906
 20
2892.0822517969
 30
0.0
 11
4970.8698213906
 21
2892.0822517969
 31
0.0
  0
LINE
  5
167
330
1F
100
AcDbEntity
  8
0
  6
HIDDEN
 62
     7
370
    18
100
AcDbLine
 10
4970.8698213906
 20
4075.7558311046
 30
0.0
 11
4968.5698213906
 21
4075.7558311046
 31
0.0
  0
LINE
  5
168
330
1F
100
AcDbEntity
  8
0
  6
HIDDEN
 62
     7
370
    18
100
AcDbLine
 10
4968.5698213906
 20
4063.7558311046
 30
0.0
 11
4970.8698213906
 21
4063.7558311046
 31
0.0
  0
LINE
  5
169
330
1F
100
AcDbEntity
  8
0
  6
HIDDEN
 62
     7
370
    18
100
AcDbLine
 10
4970.8698213906
 20
2840.5139575095
 30
0.0
 11
4968.5698213906
 21
2840.5139575095
 31
0.0
  0
LINE
  5
16A
330
1F
100
AcDbEntity
  8
0
  6
HIDDEN
 62
     7
370
    18
100
AcDbLine
 10
4968.5698213906
 20
2828.5139575095
 30
0.0
 11
4970.8698213906
 21
2828.5139575095
 31
0.0
  0
LINE
  5
16B
330
1F
100
AcDbEntity
  8
0
  6
HIDDEN
 62
     7
370
    18
100
AcDbLine
 10
4970.8698213906
 20
4139.3241253921
 30
0.0
 11
4968.5698213906
 21
4139.3241253921
 31
0.0
  0
LINE
  5
16C
330
1F
100
AcDbEntity
  8
0
  6
HIDDEN
 62
     7
370
    18
100
AcDbLine
 10
4968.5698213906
 20
4127.3241253921
 30
0.0
 11
4970.8698213906
 21
4127.3241253921
 31
0.0
  0
LINE
  5
16D
330
1F
100
AcDbEntity
  8
2
100
AcDbLine
 10
3836.5008970607
 20
3483.9190414508
 30
0.0
 11
4607.7158356479
 21
3483.9190414508
 31
0.0
  0
LINE
  5
16E
330
1F
100
AcDbEntity
  8
2
100
AcDbLine
 10
4392.8698213906
 20
3701.4893071774
 30
0.0
 11
4392.8698213906
 21
2811.2277673318
 31
0.0
  0
LINE
  5
16F
330
1F
100
AcDbEntity
  8
1
100
AcDbLine
 10
944.3813030499
 20
5311.6979562825
 30
0.0
 11
944.3813030499
 21
5151.6979562825
 31
0.0
  0
LINE
  5
170
330
1F
100
AcDbEntity
  8
1
100
AcDbLine
 10
2931.8813030499
 20
5151.6979562825
 30
0.0
 11
2931.8813030499
 21
5311.6979562825
 31
0.0
  0
LINE
  5
171
330
1F
100
AcDbEntity
  8
1
100
AcDbLine
 10
2914.8813030499
 20
5379.1979562825
 30
0.0
 11
2914.8813030499
 21
5934.1979562825
 31
0.0
  0
LINE
  5
172
330
1F
100
AcDbEntity
  8
1
100
AcDbLine
 10
2523.8813030499
 20
5543.6979562825
 30
0.0
 11
2523.8813030499
 21
5379.1979562825
 31
0.0
  0
LINE
  5
173
330
1F
100
AcDbEntity
  8
1
100
AcDbLine
 10
2743.3813030499
 20
5311.6979562825
 30
0.0
 11
2743.3813030499
 21
5379.1979562825
 31
0.0
  0
LINE
  5
174
330
1F
100
AcDbEntity
  8
1
100
AcDbLine
 10
2695.3813030499
 20
5379.1979562825
 30
0.0
 11
2695.3813030499
 21
5311.6979562825
 31
0.0
  0
LINE
  5
175
330
1F
100
AcDbEntity
  8
1
100
AcDbLine
 10
594.3813030499
 20
6649.6979562825
 30
0.0
 11
594.3813030499
 21
6647.3979562825
 31
0.0
  0
LINE
  5
176
330
1F
100
AcDbEntity
  8
1
100
AcDbLine
 10
1944.3813030499
 20
6647.3979562825
 30
0.0
 11
1944.3813030499
 21
6649.6979562825
 31
0.0
  0
LINE
  5
177
330
1F
100
AcDbEntity
  8
1
100
AcDbLine
 10
594.3813030499
 20
6556.6979562825
 30
0.0
 11
594.3813030499
 21
6549.8979562825
 31
0.0
  0
LINE
  5
178
330
1F
100
AcDbEntity
  8
1
100
AcDbLine
 10
642.0813030499
 20
6647.3979562825
 30
0.0
 11
642.0813030499
 21
6556.6979562825
 31
0.0
  0
LINE
  5
179
330
1F
100
AcDbEntity
  8
1
100
AcDbLine
 10
1896.6813030499
 20
6599.6979562825
 30
0.0
 11
1896.6813030499
 21
6647.3979562825
 31
0.0
  0
LINE
  5
17A
330
1F
100
AcDbEntity
  8
1
100
AcDbLine
 10
1434.5477457905
 20
5151.6979562825
 30
0.0
 11
944.3813030499
 21
5151.6979562825
 31
0.0
  0
LINE
  5
17B
330
1F
100
AcDbEntity
  8
1
100
AcDbLine
 10
1434.5477457905
 20
5311.6979562825
 30
0.0
 11
944.3813030499
 21
5311.6979562825
 31
0.0
  0
LINE
  5
17C
330
1F
100
AcDbEntity
  8
1
100
AcDbLine
 10
2827.3747463803
 20
5151.6979562825
 30
0.0
 11
1434.5477457905
 21
5151.6979562825
 31
0.0
  0
LINE
  5
17D
330
1F
100
AcDbEntity
  8
1
100
AcDbLine
 10
2827.3747463803
 20
5311.6979562825
 30
0.0
 11
1434.5477457905
 21
5311.6979562825
 31
0.0
  0
LINE
  5
17E
330
1F
100
AcDbEntity
  8
1
100
AcDbLine
 10
2931.8813030499
 20
5151.6979562825
 30
0.0
 11
2827.3747463803
 21
5151.6979562825
 31
0.0
  0
LINE
  5
17F
330
1F
100
AcDbEntity
  8
1
100
AcDbLine
 10
2931.8813030499
 20
5311.6979562825
 30
0.0
 11
2827.3747463803
 21
5311.6979562825
 31
0.0
  0
LINE
  5
180
330
1F
100
AcDbEntity
  8
1
100
AcDbLine
 10
2523.8813030499
 20
5379.1979562825
 30
0.0
 11
2914.8813030499
 21
5379.1979562825
 31
0.0
  0
LINE
  5
181
330
1F
100
AcDbEntity
  8
1
100
AcDbLine
 10
2914.8813030499
 20
5934.1979562825
 30
0.0
 11
2656.3813030499
 21
5934.1979562825
 31
0.0
  0
LINE
  5
182
330
1F
100
AcDbEntity
  8
1
100
AcDbLine
 10
2914.8813030499
 20
5825.6979562825
 30
0.0
 11
2944.3813030499
 21
5825.6979562825
 31
0.0
  0
LINE
  5
183
330
1F
100
AcDbEntity
  8
1
100
AcDbLine
 10
2944.3813030499
 20
5825.6979562825
 30
0.0
 11
2944.3813030499
 21
5415.6979562825
 31
0.0
  0
LINE
  5
184
330
1F
100
AcDbEntity
  8
1
100
AcDbLine
 10
2944.3813030499
 20
5415.6979562825
 30
0.0
 11
2914.8813030499
 21
5415.6979562825
 31
0.0
  0
LINE
  5
185
330
1F
100
AcDbEntity
  8
1
100
AcDbLine
 10
2523.8813030499
 20
5415.6979562825
 30
0.0
 11
2494.3813030499
 21
5415.6979562825
 31
0.0
  0
LINE
  5
186
330
1F
100
AcDbEntity
  8
1
100
AcDbLine
 10
2494.3813030499
 20
5415.6979562825
 30
0.0
 11
2494.3813030499
 21
5543.6979562825
 31
0.0
  0
LINE
  5
187
330
1F
100
AcDbEntity
  8
1
100
AcDbLine
 10
3069.3813030499
 20
6624.6979562825
 30
0.0
 11
3069.3813030499
 21
5344.6979562825
 31
0.0
  0
LINE
  5
188
330
1F
100
AcDbEntity
  8
1
100
AcDbLine
 10
3069.3813030499
 20
5344.6979562825
 30
0.0
 11
2743.3813030499
 21
5344.6979562825
 31
0.0
  0
LINE
  5
189
330
1F
100
AcDbEntity
  8
1
100
AcDbLine
 10
2695.3813030499
 20
5344.6979562825
 30
0.0
 11
519.3813030499
 21
5344.6979562825
 31
0.0
  0
LINE
  5
18A
330
1F
100
AcDbEntity
  8
1
100
AcDbLine
 10
519.3813030499
 20
6624.6979562825
 30
0.0
 11
642.0813030499
 21
6624.6979562825
 31
0.0
  0
LINE
  5
18B
330
1F
100
AcDbEntity
  8
1
100
AcDbLine
 10
1896.6813030499
 20
6624.6979562825
 30
0.0
 11
3069.3813030499
 21
6624.6979562825
 31
0.0
  0
LINE
  5
18C
330
1F
100
AcDbEntity
  8
1
100
AcDbLine
 10
2656.3813030499
 20
6549.6979562825
 30
0.0
 11
2994.3813030499
 21
6549.6979562825
 31
0.0
  0
LINE
  5
18D
330
1F
100
AcDbEntity
  8
1
100
AcDbLine
 10
594.3813030499
 20
5419.6979562825
 30
0.0
 11
594.3813030499
 21
5593.4979562825
 31
0.0
  0
LINE
  5
18E
330
1F
100
AcDbEntity
  8
1
100
AcDbLine
 10
2994.3813030499
 20
5419.6979562825
 30
0.0
 11
2944.3813030499
 21
5419.6979562825
 31
0.0
  0
LINE
  5
18F
330
1F
100
AcDbEntity
  8
1
100
AcDbLine
 10
2494.3813030499
 20
5419.6979562825
 30
0.0
 11
594.3813030499
 21
5419.6979562825
 31
0.0
  0
LINE
  5
190
330
1F
100
AcDbEntity
  8
1
100
AcDbLine
 10
2994.3813030499
 20
6549.6979562825
 30
0.0
 11
2994.3813030499
 21
5419.6979562825
 31
0.0
  0
LINE
  5
191
330
1F
100
AcDbEntity
  8
1
100
AcDbLine
 10
519.3813030499
 20
5344.6979562825
 30
0.0
 11
519.3813030499
 21
5593.4979562825
 31
0.0
  0
LINE
  5
192
330
1F
100
AcDbEntity
  8
1
100
AcDbLine
 10
519.3813030499
 20
6549.8979562825
 30
0.0
 11
519.3813030499
 21
6624.6979562825
 31
0.0
  0
CIRCLE
  5
193
330
1F
100
AcDbEntity
  8
1
100
AcDbCircle
 10
2636.3813030499
 20
5563.6979562825
 30
0.0
 40
6.0
  0
CIRCLE
  5
194
330
1F
100
AcDbEntity
  8
1
100
AcDbCircle
 10
2636.3813030499
 20
5671.6979562825
 30
0.0
 40
6.0
  0
CIRCLE
  5
195
330
1F
100
AcDbEntity
  8
1
100
AcDbCircle
 10
2636.3813030499
 20
5871.6979562825
 30
0.0
 40
6.0
  0
CIRCLE
  5
196
330
1F
100
AcDbEntity
  8
1
100
AcDbCircle
 10
2636.3813030499
 20
6071.6979562825
 30
0.0
 40
6.0
  0
CIRCLE
  5
197
330
1F
100
AcDbEntity
  8
1
100
AcDbCircle
 10
2463.3813030499
 20
5563.6979562825
 30
0.0
 40
6.0
  0
CIRCLE
  5
198
330
1F
100
AcDbEntity
  8
1
100
AcDbCircle
 10
2263.3813030499
 20
5563.6979562825
 30
0.0
 40
6.0
  0
CIRCLE
  5
199
330
1F
100
AcDbEntity
  8
1
100
AcDbCircle
 10
2063.3813030499
 20
5563.6979562825
 30
0.0
 40
6.000000000000909
  0
CIRCLE
  5
19A
330
1F
100
AcDbEntity
  8
1
100
AcDbCircle
 10
2063.3813030499
 20
6579.6979562825
 30
0.0
 40
6.0
  0
CIRCLE
  5
19B
330
1F
100
AcDbEntity
  8
1
100
AcDbCircle
 10
2263.3813030499
 20
6579.6979562825
 30
0.0
 40
6.0
  0
CIRCLE
  5
19C
330
1F
100
AcDbEntity
  8
1
100
AcDbCircle
 10
2463.3813030499
 20
6579.6979562825
 30
0.0
 40
6.0
  0
CIRCLE
  5
19D
330
1F
100
AcDbEntity
  8
1
100
AcDbCircle
 10
2636.3813030499
 20
6271.6979562825
 30
0.0
 40
6.0
  0
CIRCLE
  5
19E
330
1F
100
AcDbEntity
  8
1
100
AcDbCircle
 10
2636.3813030499
 20
6471.6979562825
 30
0.0
 40
6.0
  0
CIRCLE
  5
19F
330
1F
100
AcDbEntity
  8
1
100
AcDbCircle
 10
1290.3813030499
 20
6579.6979562825
 30
0.0
 40
6.0
  0
CIRCLE
  5
1A0
330
1F
100
AcDbEntity
  8
1
100
AcDbCircle
 10
1290.3813030499
 20
6471.6979562825
 30
0.0
 40
6.0
  0
CIRCLE
  5
1A1
330
1F
100
AcDbEntity
  8
1
100
AcDbCircle
 10
1290.3813030499
 20
6271.6979562825
 30
0.0
 40
6.0
  0
CIRCLE
  5
1A2
330
1F
100
AcDbEntity
  8
1
100
AcDbCircle
 10
1463.3813030499
 20
6579.6979562825
 30
0.0
 40
6.0
  0
CIRCLE
  5
1A3
330
1F
100
AcDbEntity
  8
1
100
AcDbCircle
 10
1663.3813030499
 20
6579.6979562825
 30
0.0
 40
6.0
  0
CIRCLE
  5
1A4
330
1F
100
AcDbEntity
  8
1
100
AcDbCircle
 10
1863.3813030499
 20
6579.6979562825
 30
0.0
 40
6.0
  0
CIRCLE
  5
1A5
330
1F
100
AcDbEntity
  8
1
100
AcDbCircle
 10
1863.3813030499
 20
5563.6979562825
 30
0.0
 40
6.000000000000909
  0
CIRCLE
  5
1A6
330
1F
100
AcDbEntity
  8
1
100
AcDbCircle
 10
1663.3813030499
 20
5563.6979562825
 30
0.0
 40
6.000000000000909
  0
CIRCLE
  5
1A7
330
1F
100
AcDbEntity
  8
1
100
AcDbCircle
 10
1463.3813030499
 20
5563.6979562825
 30
0.0
 40
6.000000000000909
  0
CIRCLE
  5
1A8
330
1F
100
AcDbEntity
  8
1
100
AcDbCircle
 10
1290.3813030499
 20
6071.6979562825
 30
0.0
 40
6.000000000000909
  0
CIRCLE
  5
1A9
330
1F
100
AcDbEntity
  8
1
100
AcDbCircle
 10
1290.3813030499
 20
5871.6979562825
 30
0.0
 40
6.000000000000909
  0
CIRCLE
  5
1AA
330
1F
100
AcDbEntity
  8
1
100
AcDbCircle
 10
1290.3813030499
 20
5671.6979562825
 30
0.0
 40
5.999999999999091
  0
LINE
  5
1AB
330
1F
100
AcDbEntity
  8
1
100
AcDbLine
 10
1270.3813030499
 20
6599.6979562825
 30
0.0
 11
2656.3813030499
 21
6599.6979562825
 31
0.0
  0
LINE
  5
1AC
330
1F
100
AcDbEntity
  8
1
100
AcDbLine
 10
2656.3813030499
 20
6599.6979562825
 30
0.0
 11
2656.3813030499
 21
5543.6979562825
 31
0.0
  0
LINE
  5
1AD
330
1F
100
AcDbEntity
  8
1
100
AcDbLine
 10
2656.3813030499
 20
5543.6979562825
 30
0.0
 11
1270.3813030499
 21
5543.6979562825
 31
0.0
  0
LINE
  5
1AE
330
1F
100
AcDbEntity
  8
1
100
AcDbLine
 10
1323.3813030499
 20
5596.6979562825
 30
0.0
 11
1323.3813030499
 21
6546.6979562825
 31
0.0
  0
LINE
  5
1AF
330
1F
100
AcDbEntity
  8
1
100
AcDbLine
 10
1323.3813030499
 20
5596.6979562825
 30
0.0
 11
2603.3813030499
 21
5596.6979562825
 31
0.0
  0
LINE
  5
1B0
330
1F
100
AcDbEntity
  8
1
100
AcDbLine
 10
2603.3813030499
 20
5596.6979562825
 30
0.0
 11
2603.3813030499
 21
6546.6979562825
 31
0.0
  0
LINE
  5
1B1
330
1F
100
AcDbEntity
  8
1
100
AcDbLine
 10
1323.3813030499
 20
6546.6979562825
 30
0.0
 11
2603.3813030499
 21
6546.6979562825
 31
0.0
  0
CIRCLE
  5
1B2
330
1F
100
AcDbEntity
  8
1
100
AcDbCircle
 10
1290.3813030499
 20
5563.6979562825
 30
0.0
 40
6.000000000000909
  0
CIRCLE
  5
1B3
330
1F
100
AcDbEntity
  8
1
100
AcDbCircle
 10
2636.3813030499
 20
6579.6979562825
 30
0.0
 40
6.0
  0
LINE
  5
1B4
330
1F
100
AcDbEntity
  8
1
100
AcDbLine
 10
1270.3813030499
 20
5543.6979562825
 30
0.0
 11
1270.3813030499
 21
6599.6979562825
 31
0.0
  0
LINE
  5
1B5
330
1F
100
AcDbEntity
  8
1
100
AcDbLine
 10
370.0813030499
 20
5593.4979562825
 30
0.0
 11
370.0813030499
 21
6549.8979562825
 31
0.0
  0
LINE
  5
1B6
330
1F
100
AcDbEntity
  8
1
100
AcDbLine
 10
370.0813030499
 20
5593.4979562825
 30
0.0
 11
1192.3813030499
 21
5593.4979562825
 31
0.0
  0
LINE
  5
1B7
330
1F
100
AcDbEntity
  8
1
100
AcDbLine
 10
370.0813030499
 20
6549.8979562825
 30
0.0
 11
1192.3813030499
 21
6549.8979562825
 31
0.0
  0
LINE
  5
1B8
330
1F
100
AcDbEntity
  8
1
100
AcDbLine
 10
1192.3813030499
 20
5593.4979562825
 30
0.0
 11
1270.3813030499
 21
5593.4979562825
 31
0.0
  0
LINE
  5
1B9
330
1F
100
AcDbEntity
  8
1
100
AcDbLine
 10
1192.3813030499
 20
6549.8979562825
 30
0.0
 11
1270.3813030499
 21
6549.8979562825
 31
0.0
  0
LINE
  5
1BA
330
1F
100
AcDbEntity
  8
1
100
AcDbLine
 10
1944.3813030499
 20
6649.6979562825
 30
0.0
 11
594.3813030499
 21
6649.6979562825
 31
0.0
  0
LINE
  5
1BB
330
1F
100
AcDbEntity
  8
1
100
AcDbLine
 10
1944.3813030499
 20
6647.3979562825
 30
0.0
 11
594.3813030499
 21
6647.3979562825
 31
0.0
  0
LINE
  5
1BC
330
1F
100
AcDbEntity
  8
1
100
AcDbLine
 10
1269.3813030499
 20
6556.6979562825
 30
0.0
 11
1270.3813030499
 21
6556.6979562825
 31
0.0
  0
LINE
  5
1BD
330
1F
100
AcDbEntity
  8
1
100
AcDbLine
 10
594.3813030499
 20
6556.6979562825
 30
0.0
 11
1269.3813030499
 21
6556.6979562825
 31
0.0
  0
LINE
  5
1BE
330
1F
100
AcDbEntity
  8
0
  6
HIDDEN
 62
     7
370
    18
100
AcDbLine
 10
2609.945248662
 20
5458.6979562825
 30
0.0
 11
2624.6223984551
 21
5458.6979562825
 31
0.0
  0
LINE
  5
1BF
330
1F
100
AcDbEntity
  8
0
  6
HIDDEN
 62
     7
370
    18
100
AcDbLine
 10
2609.945248662
 20
5458.6979562825
 30
0.0
 11
2609.945248662
 21
5782.6979562825
 31
0.0
  0
LINE
  5
1C0
330
1F
100
AcDbEntity
  8
0
  6
HIDDEN
 62
     7
370
    18
100
AcDbLine
 10
2609.945248662
 20
5782.6979562825
 30
0.0
 11
2624.6223984551
 21
5782.6979562825
 31
0.0
  0
LINE
  5
1C1
330
1F
100
AcDbEntity
  8
0
  6
HIDDEN
 62
     7
370
    18
100
AcDbLine
 10
2624.6223984551
 20
5934.1979562825
 30
0.0
 11
2624.6223984551
 21
5782.6979562825
 31
0.0
  0
LINE
  5
1C2
330
1F
100
AcDbEntity
  8
0
  6
HIDDEN
 62
     7
370
    18
100
AcDbLine
 10
2814.1402076447
 20
5934.1979562825
 30
0.0
 11
2814.1402076447
 21
5782.6979562825
 31
0.0
  0
LINE
  5
1C3
330
1F
100
AcDbEntity
  8
0
  6
HIDDEN
 62
     7
370
    18
100
AcDbLine
 10
2814.1402076447
 20
5782.6979562825
 30
0.0
 11
2828.8173574378
 21
5782.6979562825
 31
0.0
  0
LINE
  5
1C4
330
1F
100
AcDbEntity
  8
0
  6
HIDDEN
 62
     7
370
    18
100
AcDbLine
 10
2828.8173574378
 20
5782.6979562825
 30
0.0
 11
2828.8173574378
 21
5458.6979562825
 31
0.0
  0
LINE
  5
1C5
330
1F
100
AcDbEntity
  8
0
  6
HIDDEN
 62
     7
370
    18
100
AcDbLine
 10
2814.1402076447
 20
5458.6979562825
 30
0.0
 11
2828.8173574378
 21
5458.6979562825
 31
0.0
  0
LINE
  5
1C6
330
1F
100
AcDbEntity
  8
0
  6
HIDDEN
 62
     7
370
    18
100
AcDbLine
 10
2814.1402076447
 20
5458.6979562825
 30
0.0
 11
2814.1402076447
 21
5379.1979562825
 31
0.0
  0
LINE
  5
1C7
330
1F
100
AcDbEntity
  8
0
  6
HIDDEN
 62
     7
370
    18
100
AcDbLine
 10
2624.6223984551
 20
5458.6979562825
 30
0.0
 11
2624.6223984551
 21
5379.1979562825
 31
0.0
  0
LINE
  5
1C8
330
1F
100
AcDbEntity
  8
0
  6
HIDDEN
 62
     7
370
    18
100
AcDbLine
 10
2656.3813030499
 20
5934.1979562825
 30
0.0
 11
2523.8813030499
 21
5934.1979562825
 31
0.0
  0
LINE
  5
1C9
330
1F
100
AcDbEntity
  8
0
  6
HIDDEN
 62
     7
370
    18
100
AcDbLine
 10
2576.3813030499
 20
5458.6979562825
 30
0.0
 11
2576.3813030499
 21
5782.6979562825
 31
0.0
  0
LINE
  5
1CA
330
1F
100
AcDbEntity
  8
0
  6
HIDDEN
 62
     7
370
    18
100
AcDbLine
 10
2609.945248662
 20
5782.6979562825
 30
0.0
 11
2576.3813030499
 21
5782.6979562825
 31
0.0
  0
LINE
  5
1CB
330
1F
100
AcDbEntity
  8
0
  6
HIDDEN
 62
     7
370
    18
100
AcDbLine
 10
2609.945248662
 20
5458.6979562825
 30
0.0
 11
2576.3813030499
 21
5458.6979562825
 31
0.0
  0
LINE
  5
1CC
330
1F
100
AcDbEntity
  8
0
  6
HIDDEN
 62
     7
370
    18
100
AcDbLine
 10
2862.3813030499
 20
5458.6979562825
 30
0.0
 11
2862.3813030499
 21
5782.6979562825
 31
0.0
  0
LINE
  5
1CD
330
1F
100
AcDbEntity
  8
0
  6
HIDDEN
 62
     7
370
    18
100
AcDbLine
 10
2862.3813030499
 20
5458.6979562825
 30
0.0
 11
2828.8173574378
 21
5458.6979562825
 31
0.0
  0
LINE
  5
1CE
330
1F
100
AcDbEntity
  8
0
  6
HIDDEN
 62
     7
370
    18
100
AcDbLine
 10
2862.3813030499
 20
5782.6979562825
 30
0.0
 11
2828.8173574378
 21
5782.6979562825
 31
0.0
  0
LINE
  5
1CF
330
1F
100
AcDbEntity
  8
0
  6
HIDDEN
 62
     7
370
    18
100
AcDbLine
 10
2624.6223984551
 20
5782.6979562825
 30
0.0
 11
2814.1402076447
 21
5782.6979562825
 31
0.0
  0
LINE
  5
1D0
330
1F
100
AcDbEntity
  8
0
  6
HIDDEN
 62
     7
370
    18
100
AcDbLine
 10
2624.6223984551
 20
5458.6979562825
 30
0.0
 11
2814.1402076447
 21
5458.6979562825
 31
0.0
  0
LINE
  5
1D1
330
1F
100
AcDbEntity
  8
0
  6
HIDDEN
 62
     7
370
    18
100
AcDbLine
 10
2494.3813030499
 20
5825.6979562825
 30
0.0
 11
2914.8813030499
 21
5825.6979562825
 31
0.0
  0
LINE
  5
1D2
330
1F
100
AcDbEntity
  8
0
  6
HIDDEN
 62
     7
370
    18
100
AcDbLine
 10
2914.8813030499
 20
5415.6979562825
 30
0.0
 11
2523.8813030499
 21
5415.6979562825
 31
0.0
  0
LINE
  5
1D3
330
1F
100
AcDbEntity
  8
0
  6
HIDDEN
 62
     7
370
    18
100
AcDbLine
 10
2494.3813030499
 20
5543.6979562825
 30
0.0
 11
2494.3813030499
 21
5825.6979562825
 31
0.0
  0
LINE
  5
1D4
330
1F
100
AcDbEntity
  8
0
  6
HIDDEN
 62
     7
370
    18
100
AcDbLine
 10
2816.7874800444
 20
5194.1979562825
 30
0.0
 11
2831.8813030499
 21
5194.1979562825
 31
0.0
  0
LINE
  5
1D5
330
1F
100
AcDbEntity
  8
0
  6
HIDDEN
 62
     7
370
    18
100
AcDbLine
 10
2606.8813030499
 20
5194.1979562825
 30
0.0
 11
2816.7874800444
 21
5194.1979562825
 31
0.0
  0
LINE
  5
1D6
330
1F
100
AcDbEntity
  8
0
  6
HIDDEN
 62
     7
370
    18
100
AcDbLine
 10
2816.7874800444
 20
5269.1979562825
 30
0.0
 11
2831.8813030499
 21
5269.1979562825
 31
0.0
  0
LINE
  5
1D7
330
1F
100
AcDbEntity
  8
0
  6
HIDDEN
 62
     7
370
    18
100
AcDbLine
 10
2606.8813030499
 20
5269.1979562825
 30
0.0
 11
2816.7874800444
 21
5269.1979562825
 31
0.0
  0
LINE
  5
1D8
330
1F
100
AcDbEntity
  8
0
  6
HIDDEN
 62
     7
370
    18
100
AcDbLine
 10
1494.3813030499
 20
5269.1979562825
 30
0.0
 11
1044.3813030499
 21
5269.1979562825
 31
0.0
  0
LINE
  5
1D9
330
1F
100
AcDbEntity
  8
0
  6
HIDDEN
 62
     7
370
    18
100
AcDbLine
 10
1494.3813030499
 20
5194.1979562825
 30
0.0
 11
1044.3813030499
 21
5194.1979562825
 31
0.0
  0
LINE
  5
1DA
330
1F
100
AcDbEntity
  8
0
  6
HIDDEN
 62
     7
370
    18
100
AcDbLine
 10
588.3813030499
 20
5413.6979562825
 30
0.0
 11
588.3813030499
 21
6555.6979562825
 31
0.0
  0
LINE
  5
1DB
330
1F
100
AcDbEntity
  8
0
  6
HIDDEN
 62
     7
370
    18
100
AcDbLine
 10
588.3813030499
 20
6555.6979562825
 30
0.0
 11
3000.3813030499
 21
6555.6979562825
 31
0.0
  0
LINE
  5
1DC
330
1F
100
AcDbEntity
  8
0
  6
HIDDEN
 62
     7
370
    18
100
AcDbLine
 10
3000.3813030499
 20
6555.6979562825
 30
0.0
 11
3000.3813030499
 21
5413.6979562825
 31
0.0
  0
LINE
  5
1DD
330
1F
100
AcDbEntity
  8
0
  6
HIDDEN
 62
     7
370
    18
100
AcDbLine
 10
3000.3813030499
 20
5413.6979562825
 30
0.0
 11
588.3813030499
 21
5413.6979562825
 31
0.0
  0
CIRCLE
  5
1DE
330
1F
100
AcDbEntity
  8
0
  6
HIDDEN
 62
     7
370
    18
100
AcDbCircle
 10
2949.3813030499
 20
6589.6979562825
 30
0.0
 40
12.00000000000091
  0
CIRCLE
  5
1DF
330
1F
100
AcDbEntity
  8
0
  6
HIDDEN
 62
     7
370
    18
100
AcDbCircle
 10
2179.3813030499
 20
6589.6979562825
 30
0.0
 40
12.00000000000091
  0
CIRCLE
  5
1E0
330
1F
100
AcDbEntity
  8
0
  6
HIDDEN
 62
     7
370
    18
100
AcDbCircle
 10
1409.3813030499
 20
6589.6979562825
 30
0.0
 40
12.0
  0
CIRCLE
  5
1E1
330
1F
100
AcDbEntity
  8
0
  6
HIDDEN
 62
     7
370
    18
100
AcDbCircle
 10
639.3813030499
 20
6589.6979562825
 30
0.0
 40
12.0
  0
CIRCLE
  5
1E2
330
1F
100
AcDbEntity
  8
0
  6
HIDDEN
 62
     7
370
    18
100
AcDbCircle
 10
639.3813030499
 20
5379.6979562825
 30
0.0
 40
12.0
  0
CIRCLE
  5
1E3
330
1F
100
AcDbEntity
  8
0
  6
HIDDEN
 62
     7
370
    18
100
AcDbCircle
 10
1409.3813030499
 20
5379.6979562825
 30
0.0
 40
12.0
  0
CIRCLE
  5
1E4
330
1F
100
AcDbEntity
  8
0
  6
HIDDEN
 62
     7
370
    18
100
AcDbCircle
 10
2179.3813030499
 20
5379.6979562825
 30
0.0
 40
12.0
  0
CIRCLE
  5
1E5
330
1F
100
AcDbEntity
  8
0
  6
HIDDEN
 62
     7
370
    18
100
AcDbCircle
 10
2949.3813030499
 20
5379.6979562825
 30
0.0
 40
12.0
  0
LINE
  5
1E6
330
1F
100
AcDbEntity
  8
0
  6
HIDDEN
 62
     7
370
    18
100
AcDbLine
 10
2743.3813030499
 20
5344.6979562825
 30
0.0
 11
2695.3813030499
 21
5344.6979562825
 31
0.0
  0
LINE
  5
1E7
330
1F
100
AcDbEntity
  8
0
  6
HIDDEN
 62
     7
370
    18
100
AcDbLine
 10
642.0813030499
 20
6624.6979562825
 30
0.0
 11
1896.6813030499
 21
6624.6979562825
 31
0.0
  0
LINE
  5
1E8
330
1F
100
AcDbEntity
  8
0
  6
HIDDEN
 62
     7
370
    18
100
AcDbLine
 10
594.3813030499
 20
6549.6979562825
 30
0.0
 11
2656.3813030499
 21
6549.6979562825
 31
0.0
  0
LINE
  5
1E9
330
1F
100
AcDbEntity
  8
0
  6
HIDDEN
 62
     7
370
    18
100
AcDbLine
 10
594.3813030499
 20
5593.4979562825
 30
0.0
 11
594.3813030499
 21
6549.6979562825
 31
0.0
  0
LINE
  5
1EA
330
1F
100
AcDbEntity
  8
0
  6
HIDDEN
 62
     7
370
    18
100
AcDbLine
 10
2944.3813030499
 20
5419.6979562825
 30
0.0
 11
2494.3813030499
 21
5419.6979562825
 31
0.0
  0
LINE
  5
1EB
330
1F
100
AcDbEntity
  8
0
  6
HIDDEN
 62
     7
370
    18
100
AcDbLine
 10
519.3813030499
 20
5593.4979562825
 30
0.0
 11
519.3813030499
 21
6549.8979562825
 31
0.0
  0
LINE
  5
1EC
330
1F
100
AcDbEntity
  8
0
  6
HIDDEN
 62
     7
370
    18
100
AcDbLine
 10
587.8813030499
 20
6556.1979562825
 30
0.0
 11
3000.8813030499
 21
6556.1979562825
 31
0.0
  0
LINE
  5
1ED
330
1F
100
AcDbEntity
  8
0
  6
HIDDEN
 62
     7
370
    18
100
AcDbLine
 10
587.8813030499
 20
5413.1979562825
 30
0.0
 11
587.8813030499
 21
6556.1979562825
 31
0.0
  0
LINE
  5
1EE
330
1F
100
AcDbEntity
  8
0
  6
HIDDEN
 62
     7
370
    18
100
AcDbLine
 10
3000.8813030499
 20
6556.1979562825
 30
0.0
 11
3000.8813030499
 21
5413.1979562825
 31
0.0
  0
LINE
  5
1EF
330
1F
100
AcDbEntity
  8
0
  6
HIDDEN
 62
     7
370
    18
100
AcDbLine
 10
3000.8813030499
 20
5413.1979562825
 30
0.0
 11
587.8813030499
 21
5413.1979562825
 31
0.0
  0
CIRCLE
  5
1F0
330
1F
100
AcDbEntity
  8
0
  6
HIDDEN
 62
     7
370
    18
100
AcDbCircle
 10
2994.3813030499
 20
6587.1979562825
 30
0.0
 40
17.49999999999909
  0
CIRCLE
  5
1F1
330
1F
100
AcDbEntity
  8
0
  6
HIDDEN
 62
     7
370
    18
100
AcDbCircle
 10
594.3813030499
 20
6587.1979562825
 30
0.0
 40
17.49999999999909
  0
CIRCLE
  5
1F2
330
1F
100
AcDbEntity
  8
0
  6
HIDDEN
 62
     7
370
    18
100
AcDbCircle
 10
594.3813030499
 20
5382.1979562825
 30
0.0
 40
17.5
  0
CIRCLE
  5
1F3
330
1F
100
AcDbEntity
  8
0
  6
HIDDEN
 62
     7
370
    18
100
AcDbCircle
 10
2994.3813030499
 20
5382.1979562825
 30
0.0
 40
17.5
  0
LINE
  5
1F4
330
1F
100
AcDbEntity
  8
0
  6
HIDDEN
 62
     7
370
    18
100
AcDbLine
 10
2605.3206256678
 20
6549.8979562825
 30
0.0
 11
1321.0813030499
 21
6549.8979562825
 31
0.0
  0
LINE
  5
1F5
330
1F
100
AcDbEntity
  8
0
  6
HIDDEN
 62
     7
370
    18
100
AcDbLine
 10
1321.0813030499
 20
5593.4979562825
 30
0.0
 11
1321.0813030499
 21
6549.8979562825
 31
0.0
  0
LINE
  5
1F6
330
1F
100
AcDbEntity
  8
0
  6
HIDDEN
 62
     7
370
    18
100
AcDbLine
 10
2605.3206256678
 20
6549.8979562825
 30
0.0
 11
2605.3206256678
 21
5593.4979562825
 31
0.0
  0
LINE
  5
1F7
330
1F
100
AcDbEntity
  8
0
  6
HIDDEN
 62
     7
370
    18
100
AcDbLine
 10
2605.3206256678
 20
5593.4979562825
 30
0.0
 11
1321.0813030499
 21
5593.4979562825
 31
0.0
  0
LINE
  5
1F8
330
1F
100
AcDbEntity
  8
0
  6
HIDDEN
 62
     7
370
    18
100
AcDbLine
 10
1270.3813030499
 20
5593.4979562825
 30
0.0
 11
1321.0813030499
 21
5593.4979562825
 31
0.0
  0
LINE
  5
1F9
330
1F
100
AcDbEntity
  8
0
  6
HIDDEN
 62
     7
370
    18
100
AcDbLine
 10
1270.3813030499
 20
6549.8979562825
 30
0.0
 11
1321.0813030499
 21
6549.8979562825
 31
0.0
  0
LINE
  5
1FA
330
1F
100
AcDbEntity
  8
0
  6
HIDDEN
 62
     7
370
    18
100
AcDbLine
 10
372.3813030499
 20
5596.6979562825
 30
0.0
 11
372.3813030499
 21
6546.6979562825
 31
0.0
  0
LINE
  5
1FB
330
1F
100
AcDbEntity
  8
0
  6
HIDDEN
 62
     7
370
    18
100
AcDbLine
 10
372.3813030499
 20
5596.6979562825
 30
0.0
 11
1192.3813030499
 21
5596.6979562825
 31
0.0
  0
LINE
  5
1FC
330
1F
100
AcDbEntity
  8
0
  6
HIDDEN
 62
     7
370
    18
100
AcDbLine
 10
372.3813030499
 20
6546.6979562825
 30
0.0
 11
1192.3813030499
 21
6546.6979562825
 31
0.0
  0
LINE
  5
1FD
330
1F
100
AcDbEntity
  8
0
  6
HIDDEN
 62
     7
370
    18
100
AcDbLine
 10
1192.3813030499
 20
5596.6979562825
 30
0.0
 11
1323.3813030499
 21
5596.6979562825
 31
0.0
  0
LINE
  5
1FE
330
1F
100
AcDbEntity
  8
0
  6
HIDDEN
 62
     7
370
    18
100
AcDbLine
 10
1192.3813030499
 20
6546.6979562825
 30
0.0
 11
1323.3813030499
 21
6546.6979562825
 31
0.0
  0
LINE
  5
1FF
330
1F
100
AcDbEntity
  8
0
  6
HIDDEN
 62
     7
370
    18
100
AcDbLine
 10
1270.3813030499
 20
6556.6979562825
 30
0.0
 11
1944.3813030499
 21
6556.6979562825
 31
0.0
  0
LINE
  5
200
330
1F
100
AcDbEntity
  8
0
  6
HIDDEN
 62
     7
370
    18
100
AcDbLine
 10
2523.8813030499
 20
5934.1979562825
 30
0.0
 11
2523.8813030499
 21
5543.6979562825
 31
0.0
  0
LINE
  5
201
330
1F
100
AcDbEntity
  8
0
  6
HIDDEN
 62
     7
370
    18
100
AcDbLine
 10
2743.3813030499
 20
5269.1979562825
 30
0.0
 11
2743.3813030499
 21
5311.6979562825
 31
0.0
  0
LINE
  5
202
330
1F
100
AcDbEntity
  8
0
  6
HIDDEN
 62
     7
370
    18
100
AcDbLine
 10
2695.3813030499
 20
5311.6979562825
 30
0.0
 11
2695.3813030499
 21
5269.1979562825
 31
0.0
  0
LINE
  5
203
330
1F
100
AcDbEntity
  8
0
  6
HIDDEN
 62
     7
370
    18
100
AcDbLine
 10
2831.8813030499
 20
5194.1979562825
 30
0.0
 11
2831.8813030499
 21
5269.1979562825
 31
0.0
  0
LINE
  5
204
330
1F
100
AcDbEntity
  8
0
  6
HIDDEN
 62
     7
370
    18
100
AcDbLine
 10
2606.8813030499
 20
5269.1979562825
 30
0.0
 11
2606.8813030499
 21
5194.1979562825
 31
0.0
  0
LINE
  5
205
330
1F
100
AcDbEntity
  8
0
  6
HIDDEN
 62
     7
370
    18
100
AcDbLine
 10
1044.3813030499
 20
5269.1979562825
 30
0.0
 11
1044.3813030499
 21
5194.1979562825
 31
0.0
  0
LINE
  5
206
330
1F
100
AcDbEntity
  8
0
  6
HIDDEN
 62
     7
370
    18
100
AcDbLine
 10
1494.3813030499
 20
5194.1979562825
 30
0.0
 11
1494.3813030499
 21
5269.1979562825
 31
0.0
  0
LINE
  5
207
330
1F
100
AcDbEntity
  8
0
  6
HIDDEN
 62
     7
370
    18
100
AcDbLine
 10
1944.3813030499
 20
6549.8979562825
 30
0.0
 11
1944.3813030499
 21
6556.6979562825
 31
0.0
  0
LINE
  5
208
330
1F
100
AcDbEntity
  8
0
  6
HIDDEN
 62
     7
370
    18
100
AcDbLine
 10
1366.2369638139
 20
6649.6979562825
 30
0.0
 11
1366.2369638139
 21
6647.3979562825
 31
0.0
  0
LINE
  5
209
330
1F
100
AcDbEntity
  8
0
  6
HIDDEN
 62
     7
370
    18
100
AcDbLine
 10
1378.2369638139
 20
6647.3979562825
 30
0.0
 11
1378.2369638139
 21
6649.6979562825
 31
0.0
  0
LINE
  5
20A
330
1F
100
AcDbEntity
  8
0
  6
HIDDEN
 62
     7
370
    18
100
AcDbLine
 10
1160.525642286
 20
6649.6979562825
 30
0.0
 11
1160.525642286
 21
6647.3979562825
 31
0.0
  0
LINE
  5
20B
330
1F
100
AcDbEntity
  8
0
  6
HIDDEN
 62
     7
370
    18
100
AcDbLine
 10
1172.525642286
 20
6647.3979562825
 30
0.0
 11
1172.525642286
 21
6649.6979562825
 31
0.0
  0
LINE
  5
20C
330
1F
100
AcDbEntity
  8
0
  6
HIDDEN
 62
     7
370
    18
100
AcDbLine
 10
1896.6813030499
 20
6556.6979562825
 30
0.0
 11
1896.6813030499
 21
6599.6979562825
 31
0.0
  0
LINE
  5
20D
330
1F
100
AcDbEntity
  8
0
  6
HIDDEN
 62
     7
370
    18
100
AcDbLine
 10
1894.3813030499
 20
6546.6979562825
 30
0.0
 11
1894.3813030499
 21
6649.6979562825
 31
0.0
  0
LINE
  5
20E
330
1F
100
AcDbEntity
  8
0
  6
HIDDEN
 62
     7
370
    18
100
AcDbLine
 10
644.3813030499
 20
6649.6979562825
 30
0.0
 11
644.3813030499
 21
6546.6979562825
 31
0.0
  0
LINE
  5
20F
330
1F
100
AcDbEntity
  8
0
  6
HIDDEN
 62
     7
370
    18
100
AcDbLine
 10
964.8825494712
 20
6649.6979562825
 30
0.0
 11
964.8825494712
 21
6647.3979562825
 31
0.0
  0
LINE
  5
210
330
1F
100
AcDbEntity
  8
0
  6
HIDDEN
 62
     7
370
    18
100
AcDbLine
 10
976.8825494712
 20
6647.3979562825
 30
0.0
 11
976.8825494712
 21
6649.6979562825
 31
0.0
  0
LINE
  5
211
330
1F
100
AcDbEntity
  8
0
  6
HIDDEN
 62
     7
370
    18
100
AcDbLine
 10
1561.8800566287
 20
6649.6979562825
 30
0.0
 11
1561.8800566287
 21
6647.3979562825
 31
0.0
  0
LINE
  5
212
330
1F
100
AcDbEntity
  8
0
  6
HIDDEN
 62
     7
370
    18
100
AcDbLine
 10
1573.8800566287
 20
6647.3979562825
 30
0.0
 11
1573.8800566287
 21
6649.6979562825
 31
0.0
  0
LINE
  5
213
330
1F
100
AcDbEntity
  8
0
  6
HIDDEN
 62
     7
370
    18
100
AcDbLine
 10
798.4585944198
 20
6649.6979562825
 30
0.0
 11
798.4585944198
 21
6647.3979562825
 31
0.0
  0
LINE
  5
214
330
1F
100
AcDbEntity
  8
0
  6
HIDDEN
 62
     7
370
    18
100
AcDbLine
 10
810.4585944198
 20
6647.3979562825
 30
0.0
 11
810.4585944198
 21
6649.6979562825
 31
0.0
  0
LINE
  5
215
330
1F
100
AcDbEntity
  8
0
  6
HIDDEN
 62
     7
370
    18
100
AcDbLine
 10
1728.3040116801
 20
6649.6979562825
 30
0.0
 11
1728.3040116801
 21
6647.3979562825
 31
0.0
  0
LINE
  5
216
330
1F
100
AcDbEntity
  8
0
  6
HIDDEN
 62
     7
370
    18
100
AcDbLine
 10
1740.3040116801
 20
6647.3979562825
 30
0.0
 11
1740.3040116801
 21
6649.6979562825
 31
0.0
  0
LINE
  5
217
330
1F
100
AcDbEntity
  8
0
  6
HIDDEN
 62
     7
370
    18
100
AcDbLine
 10
677.5445133961
 20
6649.6979562825
 30
0.0
 11
677.5445133961
 21
6647.3979562825
 31
0.0
  0
LINE
  5
218
330
1F
100
AcDbEntity
  8
0
  6
HIDDEN
 62
     7
370
    18
100
AcDbLine
 10
689.5445133961
 20
6647.3979562825
 30
0.0
 11
689.5445133961
 21
6649.6979562825
 31
0.0
  0
LINE
  5
219
330
1F
100
AcDbEntity
  8
0
  6
HIDDEN
 62
     7
370
    18
100
AcDbLine
 10
1849.2180927038
 20
6649.6979562825
 30
0.0
 11
1849.2180927038
 21
6647.3979562825
 31
0.0
  0
LINE
  5
21A
330
1F
100
AcDbEntity
  8
0
  6
HIDDEN
 62
     7
370
    18
100
AcDbLine
 10
1861.2180927038
 20
6647.3979562825
 30
0.0
 11
1861.2180927038
 21
6649.6979562825
 31
0.0
  0
LINE
  5
21B
330
1F
100
AcDbEntity
  8
0
  6
HIDDEN
 62
     7
370
    18
100
AcDbLine
 10
613.9762191086
 20
6649.6979562825
 30
0.0
 11
613.9762191086
 21
6647.3979562825
 31
0.0
  0
LINE
  5
21C
330
1F
100
AcDbEntity
  8
0
  6
HIDDEN
 62
     7
370
    18
100
AcDbLine
 10
625.9762191086
 20
6647.3979562825
 30
0.0
 11
625.9762191086
 21
6649.6979562825
 31
0.0
  0
LINE
  5
21D
330
1F
100
AcDbEntity
  8
0
  6
HIDDEN
 62
     7
370
    18
100
AcDbLine
 10
1912.7863869912
 20
6649.6979562825
 30
0.0
 11
1912.7863869912
 21
6647.3979562825
 31
0.0
  0
LINE
  5
21E
330
1F
100
AcDbEntity
  8
0
  6
HIDDEN
 62
     7
370
    18
100
AcDbLine
 10
1924.7863869912
 20
6647.3979562825
 30
0.0
 11
1924.7863869912
 21
6649.6979562825
 31
0.0
  0
CIRCLE
  5
21F
330
1F
100
AcDbEntity
  8
基礎穴
100
AcDbCircle
 10
639.3813030499
 20
6589.6979562825
 30
0.0
 40
12.0000000000002
  0
CIRCLE
  5
220
330
1F
100
AcDbEntity
  8
基礎穴
100
AcDbCircle
 10
1409.3813030499
 20
6589.6979562825
 30
0.0
 40
12.00000000000031
  0
CIRCLE
  5
221
330
1F
100
AcDbEntity
  8
基礎穴
100
AcDbCircle
 10
2179.3813030499
 20
6589.6979562825
 30
0.0
 40
12.00000000000009
  0
CIRCLE
  5
222
330
1F
100
AcDbEntity
  8
基礎穴
100
AcDbCircle
 10
2949.3813030499
 20
6589.6979562825
 30
0.0
 40
12.00000000000009
  0
CIRCLE
  5
223
330
1F
100
AcDbEntity
  8
基礎穴
100
AcDbCircle
 10
2949.3813030499
 20
5379.6979562825
 30
0.0
 40
12.00000000000026
  0
CIRCLE
  5
224
330
1F
100
AcDbEntity
  8
基礎穴
100
AcDbCircle
 10
2179.3813030499
 20
5379.6979562825
 30
0.0
 40
12.00000000000009
  0
CIRCLE
  5
225
330
1F
100
AcDbEntity
  8
基礎穴
100
AcDbCircle
 10
1409.3813030499
 20
5379.6979562825
 30
0.0
 40
12.00000000000005
  0
CIRCLE
  5
226
330
1F
100
AcDbEntity
  8
基礎穴
100
AcDbCircle
 10
639.3813030499
 20
5379.6979562825
 30
0.0
 40
11.99999999999994
  0
LINE
  5
227
330
1F
100
AcDbEntity
  8
2
100
AcDbLine
 10
2079.8313030499
 20
6071.6979562825
 30
0.0
 11
1025.8148426021
 21
6071.6979562825
 31
0.0
  0
LINE
  5
228
330
1F
100
AcDbEntity
  8
2
100
AcDbLine
 10
1269.3813030499
 20
5522.337077049
 30
0.0
 11
1269.3813030499
 21
6295.8988151531
 31
0.0
  0
LINE
  5
229
330
1F
100
AcDbEntity
  8
2
100
AcDbLine
 10
1963.3813030499
 20
6263.4672255717
 30
0.0
 11
1963.3813030499
 21
5792.065906569
 31
0.0
  0
ENDSEC
  0
SECTION
  2
OBJECTS
  0
DICTIONARY
  5
C
330
0
100
AcDbDictionary
281
     1
  3
ACAD_GROUP
350
D
  3
ACAD_LAYOUT
350
1A
  3
ACAD_MLINESTYLE
350
17
  3
ACAD_PLOTSETTINGS
350
19
  3
ACAD_PLOTSTYLENAME
350
E
  3
ACAD_SCALELIST
350
47
  3
DWGPROPS
350
22A
  0
DICTIONARY
  5
D
102
{ACAD_REACTORS
330
C
102
}
330
C
100
AcDbDictionary
281
     1
  0
DICTIONARY
  5
1A
102
{ACAD_REACTORS
330
C
102
}
330
C
100
AcDbDictionary
281
     1
  3
Layout1
350
1E
  3
Layout2
350
26
  3
Model
350
22
  0
DICTIONARY
  5
17
102
{ACAD_REACTORS
330
C
102
}
330
C
100
AcDbDictionary
281
     1
  3
Standard
350
18
  0
DICTIONARY
  5
19
102
{ACAD_REACTORS
330
C
102
}
330
C
100
AcDbDictionary
281
     1
  0
ACDBDICTIONARYWDFLT
  5
E
102
{ACAD_REACTORS
330
C
102
}
330
C
100
AcDbDictionary
281
     1
  3
Normal
350
F
100
AcDbDictionaryWithDefault
340
F
  0
DICTIONARY
  5
47
102
{ACAD_REACTORS
330
C
102
}
330
C
100
AcDbDictionary
281
     1
  3
A0
350
48
  3
A1
350
49
  3
A2
350
4A
  3
A3
350
4B
  3
A4
350
4C
  3
A5
350
4D
  3
A6
350
4E
  3
A7
350
4F
  3
A8
350
50
  3
A9
350
51
  3
B0
350
52
  3
B1
350
53
  3
B2
350
54
  3
B3
350
55
  3
B4
350
56
  3
B5
350
57
  3
B6
350
58
  0
XRECORD
  5
22A
102
{ACAD_REACTORS
330
C
102
}
330
C
100
AcDbXrecord
280
     1
  1
DWGPROPS COOKIE
  2

  3

  4

  6

  7

  8
yuta.kunimatsu
  9

300
=
301
=
302
=
303
=
304
=
305
=
306
=
307
=
308
=
309
=
 40
0.0
 41
2460174.417255648
 42
2460174.417258484
  1

 90
        0
  0
LAYOUT
  5
1E
102
{ACAD_REACTORS
330
1A
102
}
330
1A
100
AcDbPlotSettings
  1

  2
none_device
  4

  6

 40
0.0
 41
0.0
 42
0.0
 43
0.0
 44
0.0
 45
0.0
 46
0.0
 47
0.0
 48
0.0
 49
0.0
140
0.0
141
0.0
142
1.0
143
1.0
 70
   688
 72
     1
 73
     0
 74
     5
  7

 75
    16
147
1.0
148
0.0
149
0.0
100
AcDbLayout
  1
Layout1
 70
     1
 71
     1
 10
0.0
 20
0.0
 11
420.0
 21
297.0
 12
0.0
 22
0.0
 32
0.0
 14
1.0000000000E+20
 24
1.0000000000E+20
 34
1.0000000000E+20
 15
-1.0000000000E+20
 25
-1.0000000000E+20
 35
-1.0000000000E+20
146
0.0
 13
0.0
 23
0.0
 33
0.0
 16
1.0
 26
0.0
 36
0.0
 17
0.0
 27
1.0
 37
0.0
 76
     0
330
1B
  0
LAYOUT
  5
26
102
{ACAD_REACTORS
330
1A
102
}
330
1A
100
AcDbPlotSettings
  1

  2
none_device
  4

  6

 40
0.0
 41
0.0
 42
0.0
 43
0.0
 44
0.0
 45
0.0
 46
0.0
 47
0.0
 48
0.0
 49
0.0
140
0.0
141
0.0
142
1.0
143
1.0
 70
   688
 72
     1
 73
     0
 74
     5
  7

 75
    16
147
1.0
148
0.0
149
0.0
100
AcDbLayout
  1
Layout2
 70
     1
 71
     2
 10
0.0
 20
0.0
 11
0.0
 21
0.0
 12
0.0
 22
0.0
 32
0.0
 14
0.0
 24
0.0
 34
0.0
 15
0.0
 25
0.0
 35
0.0
146
0.0
 13
0.0
 23
0.0
 33
0.0
 16
1.0
 26
0.0
 36
0.0
 17
0.0
 27
1.0
 37
0.0
 76
     0
330
23
  0
LAYOUT
  5
22
102
{ACAD_REACTORS
330
1A
102
}
330
1A
100
AcDbPlotSettings
  1

  2
none_device
  4
Letter_(8.50_x_11.00_Inches)
  6

 40
6.35
 41
6.35
 42
6.35000508
 43
6.35000508
 44
215.9
 45
279.4
 46
0.0
 47
0.0
 48
0.0
 49
0.0
140
0.0
141
0.0
142
1.0
143
1.0
 70
  1712
 72
     1
 73
     0
 74
     0
  7

 75
     0
147
1.0
148
0.0
149
0.0
100
AcDbLayout
  1
Model
 70
     1
 71
     0
 10
0.0
 20
0.0
 11
5250.0
 21
7425.0
 12
0.0
 22
0.0
 32
0.0
 14
0.0
 24
0.0
 34
0.0
 15
5250.0
 25
7425.0
 35
0.0
146
0.0
 13
0.0
 23
0.0
 33
0.0
 16
1.0
 26
0.0
 36
0.0
 17
0.0
 27
1.0
 37
0.0
 76
     0
330
1F
331
29
  0
MLINESTYLE
  5
18
102
{ACAD_REACTORS
330
17
102
}
330
17
100
AcDbMlineStyle
  2
Standard
 70
     0
  3

 62
   256
 51
90.0
 52
90.0
 71
     2
 49
0.5
 62
   256
  6
BYLAYER
 49
-0.5
 62
   256
  6
BYLAYER
  0
ACDBPLACEHOLDER
  5
F
102
{ACAD_REACTORS
330
E
102
}
330
E
  0
SCALE
  5
48
102
{ACAD_REACTORS
330
47
102
}
330
47
100
AcDbScale
 70
     0
300
1:1
140
1.0
141
1.0
290
     1
  0
SCALE
  5
49
102
{ACAD_REACTORS
330
47
102
}
330
47
100
AcDbScale
 70
     0
300
1:2
140
1.0
141
2.0
290
     0
  0
SCALE
  5
4A
102
{ACAD_REACTORS
330
47
102
}
330
47
100
AcDbScale
 70
     0
300
1:4
140
1.0
141
4.0
290
     0
  0
SCALE
  5
4B
102
{ACAD_REACTORS
330
47
102
}
330
47
100
AcDbScale
 70
     0
300
1:5
140
1.0
141
5.0
290
     0
  0
SCALE
  5
4C
102
{ACAD_REACTORS
330
47
102
}
330
47
100
AcDbScale
 70
     0
300
1:8
140
1.0
141
8.0
290
     0
  0
SCALE
  5
4D
102
{ACAD_REACTORS
330
47
102
}
330
47
100
AcDbScale
 70
     0
300
1:10
140
1.0
141
10.0
290
     0
  0
SCALE
  5
4E
102
{ACAD_REACTORS
330
47
102
}
330
47
100
AcDbScale
 70
     0
300
1:16
140
1.0
141
16.0
290
     0
  0
SCALE
  5
4F
102
{ACAD_REACTORS
330
47
102
}
330
47
100
AcDbScale
 70
     0
300
1:20
140
1.0
141
20.0
290
     0
  0
SCALE
  5
50
102
{ACAD_REACTORS
330
47
102
}
330
47
100
AcDbScale
 70
     0
300
1:30
140
1.0
141
30.0
290
     0
  0
SCALE
  5
51
102
{ACAD_REACTORS
330
47
102
}
330
47
100
AcDbScale
 70
     0
300
1:40
140
1.0
141
40.0
290
     0
  0
SCALE
  5
52
102
{ACAD_REACTORS
330
47
102
}
330
47
100
AcDbScale
 70
     0
300
1:50
140
1.0
141
50.0
290
     0
  0
SCALE
  5
53
102
{ACAD_REACTORS
330
47
102
}
330
47
100
AcDbScale
 70
     0
300
1:100
140
1.0
141
100.0
290
     0
  0
SCALE
  5
54
102
{ACAD_REACTORS
330
47
102
}
330
47
100
AcDbScale
 70
     0
300
2:1
140
2.0
141
1.0
290
     0
  0
SCALE
  5
55
102
{ACAD_REACTORS
330
47
102
}
330
47
100
AcDbScale
 70
     0
300
4:1
140
4.0
141
1.0
290
     0
  0
SCALE
  5
56
102
{ACAD_REACTORS
330
47
102
}
330
47
100
AcDbScale
 70
     0
300
8:1
140
8.0
141
1.0
290
     0
  0
SCALE
  5
57
102
{ACAD_REACTORS
330
47
102
}
330
47
100
AcDbScale
 70
     0
300
10:1
140
10.0
141
1.0
290
     0
  0
SCALE
  5
58
102
{ACAD_REACTORS
330
47
102
}
330
47
100
AcDbScale
 70
     0
300
100:1
140
100.0
141
1.0
290
     0
  0
ENDSEC
  0
EOF
