  0
SECTION
  2
HEADER
  9
$ACADVER
  1
AC1015
  9
$ACADMAINTVER
 70
     6
  9
$DWGCODEPAGE
  3
DOS932
  9
$INSBASE
 10
0.0
 20
0.0
 30
0.0
  9
$EXTMIN
 10
0.0
 20
0.0
 30
0.0
  9
$EXTMAX
 10
5250.0
 20
7425.0
 30
0.0
  9
$LIMMIN
 10
0.0
 20
0.0
  9
$LIMMAX
 10
5250.0
 20
7425.0
  9
$ORTHOMODE
 70
     0
  9
$REGENMODE
 70
     1
  9
$FILLMODE
 70
     1
  9
$QTEXTMODE
 70
     0
  9
$MIRRTEXT
 70
     1
  9
$LTSCALE
 40
25.0
  9
$ATTMODE
 70
     1
  9
$TEXTSIZE
 40
70.5555555556
  9
$TRACEWID
 40
1.0
  9
$TEXTSTYLE
  7
Standard
  9
$CLAYER
  8
0
  9
$CELTYPE
  6
ByLayer
  9
$CECOLOR
 62
   256
  9
$CELTSCALE
 40
1.0
  9
$DISPSILH
 70
     0
  9
$DIMSCALE
 40
1.0
  9
$DIMASZ
 40
37.5
  9
$DIMEXO
 40
25.0
  9
$DIMDLI
 40
3.75
  9
$DIMRND
 40
0.0
  9
$DIMDLE
 40
0.0
  9
$DIMEXE
 40
25.0
  9
$DIMTP
 40
0.0
  9
$DIMTM
 40
0.0
  9
$DIMTXT
 40
70.5555555556
  9
$DIMCEN
 40
2.5
  9
$DIMTSZ
 40
0.0
  9
$DIMTOL
 70
     0
  9
$DIMLIM
 70
     0
  9
$DIMTIH
 70
     1
  9
$DIMTOH
 70
     1
  9
$DIMSE1
 70
     0
  9
$DIMSE2
 70
     0
  9
$DIMTAD
 70
     1
  9
$DIMZIN
 70
     0
  9
$DIMBLK
  1

  9
$DIMASO
 70
     1
  9
$DIMSHO
 70
     1
  9
$DIMPOST
  1

  9
$DIMAPOST
  1

  9
$DIMALT
 70
     0
  9
$DIMALTD
 70
     3
  9
$DIMALTF
 40
0.0393700787
  9
$DIMLFAC
 40
1.0
  9
$DIMTOFL
 70
     1
  9
$DIMTVP
 40
0.0
  9
$DIMTIX
 70
     0
  9
$DIMSOXD
 70
     0
  9
$DIMSAH
 70
     0
  9
$DIMBLK1
  1

  9
$DIMBLK2
  1

  9
$DIMSTYLE
  2
ISO-25
  9
$DIMCLRD
 70
     0
  9
$DIMCLRE
 70
     0
  9
$DIMCLRT
 70
     0
  9
$DIMTFAC
 40
1.0
  9
$DIMGAP
 40
38.1
  9
$DIMJUST
 70
     0
  9
$DIMSD1
 70
     0
  9
$DIMSD2
 70
     0
  9
$DIMTOLJ
 70
     0
  9
$DIMTZIN
 70
     0
  9
$DIMALTZ
 70
     0
  9
$DIMALTTZ
 70
     0
  9
$DIMUPT
 70
     0
  9
$DIMDEC
 70
     0
  9
$DIMTDEC
 70
     0
  9
$DIMALTU
 70
     2
  9
$DIMALTTD
 70
     3
  9
$DIMTXSTY
  7
Standard
  9
$DIMAUNIT
 70
     0
  9
$DIMADEC
 70
     2
  9
$DIMALTRND
 40
0.0
  9
$DIMAZIN
 70
     0
  9
$DIMDSEP
 70
    44
  9
$DIMATFIT
 70
     3
  9
$DIMFRAC
 70
     0
  9
$DIMLDRBLK
  1

  9
$DIMLUNIT
 70
     2
  9
$DIMLWD
 70
    -2
  9
$DIMLWE
 70
    -2
  9
$DIMTMOVE
 70
     0
  9
$LUNITS
 70
     2
  9
$LUPREC
 70
     2
  9
$SKETCHINC
 40
1.0
  9
$FILLETRAD
 40
0.0
  9
$AUNITS
 70
     0
  9
$AUPREC
 70
     2
  9
$MENU
  1
.
  9
$ELEVATION
 40
0.0
  9
$PELEVATION
 40
0.0
  9
$THICKNESS
 40
0.0
  9
$LIMCHECK
 70
     0
  9
$CHAMFERA
 40
0.0
  9
$CHAMFERB
 40
0.0
  9
$CHAMFERC
 40
0.0
  9
$CHAMFERD
 40
0.0
  9
$SKPOLY
 70
     0
  9
$TDCREATE
 40
2460174.79204956
  9
$TDUCREATE
 40
2460174.41704956
  9
$TDUPDATE
 40
2460174.792052882
  9
$TDUUPDATE
 40
2460174.417052882
  9
$TDINDWG
 40
0.0000000116
  9
$TDUSRTIMER
 40
0.0000000116
  9
$USRTIMER
 70
     1
  9
$ANGBASE
 50
0.0
  9
$ANGDIR
 70
     0
  9
$PDMODE
 70
     0
  9
$PDSIZE
 40
-1.0
  9
$PLINEWID
 40
0.0
  9
$SPLFRAME
 70
     0
  9
$SPLINETYPE
 70
     6
  9
$SPLINESEGS
 70
     8
  9
$HANDSEED
  5
234
  9
$SURFTAB1
 70
     6
  9
$SURFTAB2
 70
     6
  9
$SURFTYPE
 70
     6
  9
$SURFU
 70
     6
  9
$SURFV
 70
     6
  9
$UCSBASE
  2

  9
$UCSNAME
  2

  9
$UCSORG
 10
0.0
 20
0.0
 30
0.0
  9
$UCSXDIR
 10
1.0
 20
0.0
 30
0.0
  9
$UCSYDIR
 10
0.0
 20
1.0
 30
0.0
  9
$UCSORTHOREF
  2

  9
$UCSORTHOVIEW
 70
     0
  9
$UCSORGTOP
 10
0.0
 20
0.0
 30
0.0
  9
$UCSORGBOTTOM
 10
0.0
 20
0.0
 30
0.0
  9
$UCSORGLEFT
 10
0.0
 20
0.0
 30
0.0
  9
$UCSORGRIGHT
 10
0.0
 20
0.0
 30
0.0
  9
$UCSORGFRONT
 10
0.0
 20
0.0
 30
0.0
  9
$UCSORGBACK
 10
0.0
 20
0.0
 30
0.0
  9
$PUCSBASE
  2

  9
$PUCSNAME
  2

  9
$PUCSORG
 10
0.0
 20
0.0
 30
0.0
  9
$PUCSXDIR
 10
1.0
 20
0.0
 30
0.0
  9
$PUCSYDIR
 10
0.0
 20
1.0
 30
0.0
  9
$PUCSORTHOREF
  2

  9
$PUCSORTHOVIEW
 70
     0
  9
$PUCSORGTOP
 10
0.0
 20
0.0
 30
0.0
  9
$PUCSORGBOTTOM
 10
0.0
 20
0.0
 30
0.0
  9
$PUCSORGLEFT
 10
0.0
 20
0.0
 30
0.0
  9
$PUCSORGRIGHT
 10
0.0
 20
0.0
 30
0.0
  9
$PUCSORGFRONT
 10
0.0
 20
0.0
 30
0.0
  9
$PUCSORGBACK
 10
0.0
 20
0.0
 30
0.0
  9
$USERI1
 70
     0
  9
$USERI2
 70
     0
  9
$USERI3
 70
     0
  9
$USERI4
 70
     0
  9
$USERI5
 70
     0
  9
$USERR1
 40
0.0
  9
$USERR2
 40
0.0
  9
$USERR3
 40
0.0
  9
$USERR4
 40
0.0
  9
$USERR5
 40
0.0
  9
$WORLDVIEW
 70
     1
  9
$SHADEDGE
 70
     3
  9
$SHADEDIF
 70
    70
  9
$TILEMODE
 70
     1
  9
$MAXACTVP
 70
    64
  9
$PINSBASE
 10
0.0
 20
0.0
 30
0.0
  9
$PLIMCHECK
 70
     0
  9
$PEXTMIN
 10
1.0000000000E+20
 20
1.0000000000E+20
 30
1.0000000000E+20
  9
$PEXTMAX
 10
-1.0000000000E+20
 20
-1.0000000000E+20
 30
-1.0000000000E+20
  9
$PLIMMIN
 10
0.0
 20
0.0
  9
$PLIMMAX
 10
420.0
 20
297.0
  9
$UNITMODE
 70
     0
  9
$VISRETAIN
 70
     1
  9
$PLINEGEN
 70
     0
  9
$PSLTSCALE
 70
     1
  9
$TREEDEPTH
 70
  3020
  9
$CMLSTYLE
  2
Standard
  9
$CMLJUST
 70
     0
  9
$CMLSCALE
 40
20.0
  9
$PROXYGRAPHICS
 70
     1
  9
$MEASUREMENT
 70
     1
  9
$CELWEIGHT
370
    -1
  9
$ENDCAPS
280
     0
  9
$JOINSTYLE
280
     0
  9
$LWDISPLAY
290
     1
  9
$INSUNITS
 70
     4
  9
$HYPERLINKBASE
  1

  9
$STYLESHEET
  1

  9
$XEDIT
290
     1
  9
$CEPSNTYPE
380
     0
  9
$PSTYLEMODE
290
     1
  9
$FINGERPRINTGUID
  2
{4c9a1275-8f90-49e3-8eea-c8fc7ad45585}
  9
$VERSIONGUID
  2
{FAEB1C32-E019-11D5-929B-00C0DF256EC4}
  9
$EXTNAMES
290
     1
  9
$PSVPSCALE
 40
0.0
  9
$OLESTARTUP
290
     0
  0
ENDSEC
  0
SECTION
  2
CLASSES
  0
CLASS
  1
ACDBDICTIONARYWDFLT
  2
AcDbDictionaryWithDefault
  3
ObjectDBX Classes
 90
        0
280
     0
281
     0
  0
CLASS
  1
VISUALSTYLE
  2
AcDbVisualStyle
  3
ObjectDBX Classes
 90
     4095
280
     0
281
     0
  0
CLASS
  1
MATERIAL
  2
AcDbMaterial
  3
ObjectDBX Classes
 90
     1153
280
     0
281
     0
  0
CLASS
  1
SCALE
  2
AcDbScale
  3
ObjectDBX Classes
 90
     1153
280
     0
281
     0
  0
CLASS
  1
TABLESTYLE
  2
AcDbTableStyle
  3
ObjectDBX Classes
 90
     4095
280
     0
281
     0
  0
CLASS
  1
MLEADERSTYLE
  2
AcDbMLeaderStyle
  3
ACDB_MLEADERSTYLE_CLASS
 90
     4095
280
     0
281
     0
  0
CLASS
  1
SUN
  2
AcDbSun
  3
SCENEOE
 90
     1153
280
     0
281
     0
  0
CLASS
  1
ACDBPLACEHOLDER
  2
AcDbPlaceHolder
  3
ObjectDBX Classes
 90
        0
280
     0
281
     0
  0
CLASS
  1
LAYOUT
  2
AcDbLayout
  3
ObjectDBX Classes
 90
        0
280
     0
281
     0
  0
ENDSEC
  0
SECTION
  2
TABLES
  0
TABLE
  2
VPORT
  5
8
330
0
100
AcDbSymbolTable
 70
     1
  0
VPORT
  5
29
330
8
100
AcDbSymbolTableRecord
100
AcDbViewportTableRecord
  2
*Active
 70
     0
 10
0.0
 20
0.0
 11
1.0
 21
1.0
 12
2625.0
 22
3712.5
 13
0.0
 23
0.0
 14
10.0
 24
10.0
 15
10.0
 25
10.0
 16
0.0
 26
0.0
 36
1.0
 17
0.0
 27
0.0
 37
0.0
 40
7425.0
 41
0.7070707071
 42
50.0
 43
0.0
 44
0.0
 50
0.0
 51
0.0
 71
     0
 72
  2000
 73
     1
 74
     3
 75
     0
 76
     0
 77
     0
 78
     0
281
     0
 65
     1
110
0.0
120
0.0
130
0.0
111
1.0
121
0.0
131
0.0
112
0.0
122
1.0
132
0.0
 79
     0
146
0.0
  0
ENDTAB
  0
TABLE
  2
LTYPE
  5
5
330
0
100
AcDbSymbolTable
 70
     6
  0
LTYPE
  5
14
330
5
100
AcDbSymbolTableRecord
100
AcDbLinetypeTableRecord
  2
ByBlock
 70
     0
  3

 72
    65
 73
     0
 40
0.0
  0
LTYPE
  5
15
330
5
100
AcDbSymbolTableRecord
100
AcDbLinetypeTableRecord
  2
ByLayer
 70
     0
  3

 72
    65
 73
     0
 40
0.0
  0
LTYPE
  5
16
330
5
100
AcDbSymbolTableRecord
100
AcDbLinetypeTableRecord
  2
Continuous
 70
     0
  3
Solid line
 72
    65
 73
     0
 40
0.0
  0
LTYPE
  5
5E
330
5
100
AcDbSymbolTableRecord
100
AcDbLinetypeTableRecord
  2
HIDDEN
 70
     0
  3
Hidden __ __ __ __ __ __ __ __ __ __ __ __ __ __
 72
    65
 73
     2
 40
1.905
 49
1.27
 74
     0
 49
-0.635
 74
     0
  0
LTYPE
  5
5F
330
5
100
AcDbSymbolTableRecord
100
AcDbLinetypeTableRecord
  2
PHANTOM
 70
     0
  3
Phantom ______  __  __  ______  __  __  ______
 72
    65
 73
     6
 40
12.7
 49
6.35
 74
     0
 49
-1.27
 74
     0
 49
1.27
 74
     0
 49
-1.27
 74
     0
 49
1.27
 74
     0
 49
-1.27
 74
     0
  0
LTYPE
  5
60
330
5
100
AcDbSymbolTableRecord
100
AcDbLinetypeTableRecord
  2
CENTER
 70
     0
  3
Center ____ _ ____ _ ____ _ ____ _ ____ _ ____
 72
    65
 73
     4
 40
10.16
 49
6.35
 74
     0
 49
-1.27
 74
     0
 49
1.27
 74
     0
 49
-1.27
 74
     0
  0
LTYPE
  5
61
330
5
100
AcDbSymbolTableRecord
100
AcDbLinetypeTableRecord
  2
CENTERX2
 70
     0
  3
Center (2x) ________  __  ________  __  _____
 72
    65
 73
     4
 40
20.32
 49
12.7
 74
     0
 49
-2.54
 74
     0
 49
2.54
 74
     0
 49
-2.54
 74
     0
  0
LTYPE
  5
62
330
5
100
AcDbSymbolTableRecord
100
AcDbLinetypeTableRecord
  2
DOT2
 70
     0
  3
Dot (.5x) ........................................
 72
    65
 73
     2
 40
0.635
 49
0.0
 74
     0
 49
-0.635
 74
     0
  0
ENDTAB
  0
TABLE
  2
LAYER
  5
2
330
0
100
AcDbSymbolTable
 70
     6
  0
LAYER
  5
10
330
2
100
AcDbSymbolTableRecord
100
AcDbLayerTableRecord
  2
0
 70
     0
 62
     7
  6
Continuous
370
    -3
390
F
  0
LAYER
  5
63
330
2
100
AcDbSymbolTableRecord
100
AcDbLayerTableRecord
  2
1
 70
     0
 62
     4
  6
Continuous
370
    25
390
F
  0
LAYER
  5
64
330
2
100
AcDbSymbolTableRecord
100
AcDbLayerTableRecord
  2
2
 70
     0
 62
     3
  6
CENTERX2
370
    -3
390
F
  0
LAYER
  5
65
330
2
100
AcDbSymbolTableRecord
100
AcDbLayerTableRecord
  2
3
 70
     0
 62
     2
  6
Continuous
370
    -3
390
F
  0
LAYER
  5
66
330
2
100
AcDbSymbolTableRecord
100
AcDbLayerTableRecord
  2
4
 70
     0
 62
     7
  6
Continuous
370
    -3
390
F
  0
LAYER
  5
67
330
2
100
AcDbSymbolTableRecord
100
AcDbLayerTableRecord
  2
基礎穴
 70
     0
 62
     1
  6
PHANTOM
370
    35
390
F
  0
ENDTAB
  0
TABLE
  2
STYLE
  5
3
330
0
100
AcDbSymbolTable
 70
     2
  0
STYLE
  5
11
330
3
100
AcDbSymbolTableRecord
100
AcDbTextStyleTableRecord
  2
Standard
 70
     0
 40
0.0
 41
1.0
 50
0.0
 71
     0
 42
70.5555555556
  3
txt
  4
bigfont
  0
STYLE
  5
68
330
3
100
AcDbSymbolTableRecord
100
AcDbTextStyleTableRecord
  2
SLDTEXTSTYLE0
 70
     0
 40
0.0
 41
0.7
 50
0.0
 71
     0
 42
70.5555555556
  3
TXT
  4
bigfont
  0
ENDTAB
  0
TABLE
  2
VIEW
  5
6
330
0
100
AcDbSymbolTable
 70
     0
  0
ENDTAB
  0
TABLE
  2
UCS
  5
7
330
0
100
AcDbSymbolTable
 70
     0
  0
ENDTAB
  0
TABLE
  2
APPID
  5
9
330
0
100
AcDbSymbolTable
 70
     1
  0
APPID
  5
12
330
9
100
AcDbSymbolTableRecord
100
AcDbRegAppTableRecord
  2
ACAD
 70
     0
  0
ENDTAB
  0
TABLE
  2
DIMSTYLE
  5
A
330
0
100
AcDbSymbolTable
 70
     1
100
AcDbDimStyleTable
  0
DIMSTYLE
105
27
330
A
100
AcDbSymbolTableRecord
100
AcDbDimStyleTableRecord
  2
ISO-25
 70
     0
 41
2.5
 42
0.625
 43
3.75
 44
1.25
 73
     0
 74
     0
 77
     1
 78
     8
140
2.5
141
2.5
143
0.0393700787
147
0.625
171
     3
172
     1
178
     0
271
     2
272
     2
274
     3
278
    44
283
     0
284
     8
340
11
  0
ENDTAB
  0
TABLE
  2
BLOCK_RECORD
  5
1
330
0
100
AcDbSymbolTable
 70
     2
  0
BLOCK_RECORD
  5
1F
330
1
100
AcDbSymbolTableRecord
100
AcDbBlockTableRecord
  2
*Model_Space
340
22
  0
BLOCK_RECORD
  5
1B
330
1
100
AcDbSymbolTableRecord
100
AcDbBlockTableRecord
  2
*Paper_Space
340
1E
  0
BLOCK_RECORD
  5
23
330
1
100
AcDbSymbolTableRecord
100
AcDbBlockTableRecord
  2
*Paper_Space0
340
26
  0
BLOCK_RECORD
  5
DF
330
1
100
AcDbSymbolTableRecord
100
AcDbBlockTableRecord
  2
SW_CENTERMARKSYMBOL_0
340
0
102
{BLKREFS
331
EA
102
}
  0
ENDTAB
  0
ENDSEC
  0
SECTION
  2
BLOCKS
  0
BLOCK
  5
20
330
1F
100
AcDbEntity
  8
0
100
AcDbBlockBegin
  2
*Model_Space
 70
     0
 10
0.0
 20
0.0
 30
0.0
  3
*Model_Space
  1

  0
ENDBLK
  5
21
330
1F
100
AcDbEntity
  8
0
100
AcDbBlockEnd
  0
BLOCK
  5
1C
330
1B
100
AcDbEntity
 67
     1
  8
0
100
AcDbBlockBegin
  2
*Paper_Space
 70
     0
 10
0.0
 20
0.0
 30
0.0
  3
*Paper_Space
  1

  0
ENDBLK
  5
1D
330
1B
100
AcDbEntity
 67
     1
  8
0
100
AcDbBlockEnd
  0
BLOCK
  5
24
330
23
100
AcDbEntity
  8
0
100
AcDbBlockBegin
  2
*Paper_Space0
 70
     0
 10
0.0
 20
0.0
 30
0.0
  3
*Paper_Space0
  1

  0
ENDBLK
  5
25
330
23
100
AcDbEntity
  8
0
100
AcDbBlockEnd
  0
BLOCK
  5
E0
330
DF
100
AcDbEntity
  8
0
100
AcDbBlockBegin
  2
SW_CENTERMARKSYMBOL_0
 70
     0
 10
0.0
 20
0.0
 30
0.0
  3
SW_CENTERMARKSYMBOL_0
  1

  0
LINE
  5
E2
330
DF
100
AcDbEntity
  8
2
 62
     0
100
AcDbLine
 10
0.0
 20
0.0
 30
0.0
 11
0.0
 21
2.5
 31
0.0
  0
LINE
  5
E3
330
DF
100
AcDbEntity
  8
2
 62
     0
100
AcDbLine
 10
0.0
 20
0.0
 30
0.0
 11
-2.5
 21
0.0
 31
0.0
  0
LINE
  5
E4
330
DF
100
AcDbEntity
  8
2
 62
     0
100
AcDbLine
 10
0.0
 20
0.0
 30
0.0
 11
0.0
 21
-2.5
 31
0.0
  0
LINE
  5
E5
330
DF
100
AcDbEntity
  8
2
 62
     0
100
AcDbLine
 10
0.0
 20
0.0
 30
0.0
 11
2.5
 21
0.0
 31
0.0
  0
LINE
  5
E6
330
DF
100
AcDbEntity
  8
2
 62
     0
100
AcDbLine
 10
0.0
 20
5.0
 30
0.0
 11
0.0
 21
677.5
 31
0.0
  0
LINE
  5
E7
330
DF
100
AcDbEntity
  8
2
 62
     0
100
AcDbLine
 10
-5.0
 20
0.0
 30
0.0
 11
-677.5
 21
0.0
 31
0.0
  0
LINE
  5
E8
330
DF
100
AcDbEntity
  8
2
 62
     0
100
AcDbLine
 10
0.0
 20
-5.0
 30
0.0
 11
0.0
 21
-677.5
 31
0.0
  0
LINE
  5
E9
330
DF
100
AcDbEntity
  8
2
 62
     0
100
AcDbLine
 10
5.0
 20
0.0
 30
0.0
 11
677.5
 21
0.0
 31
0.0
  0
ENDBLK
  5
E1
330
DF
100
AcDbEntity
  8
0
100
AcDbBlockEnd
  0
ENDSEC
  0
SECTION
  2
ENTITIES
  0
MTEXT
  5
69
330
1F
100
AcDbEntity
  8
0
  6
Continuous
 62
     7
370
     0
100
AcDbMText
 10
3858.1558479709
 20
1681.8632261242
 30
0.0
 40
70.5555555556
 41
0.0
 71
     1
 72
     1
  1
LL08040YG01K-R2
  7
SLDTEXTSTYLE0
 73
     1
 44
1.0
  0
LINE
  5
6A
330
1F
100
AcDbEntity
  8
1
100
AcDbLine
 10
2633.2881018633
 20
2059.3031642936
 30
0.0
 11
2633.2881018633
 21
2014.3031642936
 31
0.0
  0
LINE
  5
6B
330
1F
100
AcDbEntity
  8
1
100
AcDbLine
 10
2668.2881018633
 20
2014.3031642936
 30
0.0
 11
2668.2881018633
 21
2059.3031642936
 31
0.0
  0
LINE
  5
6C
330
1F
100
AcDbEntity
  8
1
100
AcDbLine
 10
233.2881018633
 20
2059.3031642936
 30
0.0
 11
233.2881018633
 21
2014.3031642936
 31
0.0
  0
LINE
  5
6D
330
1F
100
AcDbEntity
  8
1
100
AcDbLine
 10
268.2881018633
 20
2014.3031642936
 30
0.0
 11
268.2881018633
 21
2059.3031642936
 31
0.0
  0
LINE
  5
6E
330
1F
100
AcDbEntity
  8
1
100
AcDbLine
 10
1810.6216591227
 20
3449.2050152921
 30
0.0
 11
417.7946585329
 21
2627.3159130234
 31
0.0
  0
ARC
  5
6F
330
1F
100
AcDbEntity
  8
1
100
AcDbCircle
 10
1975.7881018633
 20
3169.3031642936
 30
0.0
 40
325.0000000000015
100
AcDbArc
 50
292.5858001695
 51
120.5443021847
  0
LINE
  5
70
330
1F
100
AcDbEntity
  8
1
100
AcDbLine
 10
607.4022348489
 20
2248.1007603913
 30
0.0
 11
2100.6097170178
 21
2869.2288995019
 31
0.0
  0
ARC
  5
71
330
1F
100
AcDbEntity
  8
1
100
AcDbCircle
 10
525.7881018633
 20
2444.3031642936
 30
0.0
 40
212.5000000000002
100
AcDbArc
 50
120.5443021847
 51
292.5858001695
  0
LINE
  5
72
330
1F
100
AcDbEntity
  8
1
100
AcDbLine
 10
750.7881018633
 20
2209.3031642936
 30
0.0
 11
750.7881018633
 21
2264.3031642936
 31
0.0
  0
LINE
  5
73
330
1F
100
AcDbEntity
  8
1
100
AcDbLine
 10
300.7881018633
 20
2209.3031642936
 30
0.0
 11
300.7881018633
 21
2264.3031642936
 31
0.0
  0
LINE
  5
74
330
1F
100
AcDbEntity
  8
1
100
AcDbLine
 10
750.7881018633
 20
2264.3031642936
 30
0.0
 11
646.3532164782
 21
2264.3031642936
 31
0.0
  0
LINE
  5
75
330
1F
100
AcDbEntity
  8
1
100
AcDbLine
 10
412.8445318826
 20
2264.3031642936
 30
0.0
 11
300.7881018633
 21
2264.3031642936
 31
0.0
  0
LINE
  5
76
330
1F
100
AcDbEntity
  8
1
100
AcDbLine
 10
388.2662854123
 20
2282.3031642936
 30
0.0
 11
382.7881018633
 21
2282.3031642936
 31
0.0
  0
LINE
  5
77
330
1F
100
AcDbEntity
  8
1
100
AcDbLine
 10
382.7881018633
 20
2282.3031642936
 30
0.0
 11
382.7881018633
 21
2264.3031642936
 31
0.0
  0
LINE
  5
78
330
1F
100
AcDbEntity
  8
1
100
AcDbLine
 10
668.7881018633
 20
2264.3031642936
 30
0.0
 11
668.7881018633
 21
2273.6353828746
 31
0.0
  0
LINE
  5
79
330
1F
100
AcDbEntity
  8
1
100
AcDbLine
 10
2725.7881018634
 20
1939.3031642936
 30
0.0
 11
175.7881018633
 21
1939.3031642936
 31
0.0
  0
LINE
  5
7A
330
1F
100
AcDbEntity
  8
1
100
AcDbLine
 10
175.7881018633
 20
1939.3031642936
 30
0.0
 11
175.7881018633
 21
1945.3031642936
 31
0.0
  0
LINE
  5
7B
330
1F
100
AcDbEntity
  8
1
100
AcDbLine
 10
2725.7881018633
 20
1945.3031642936
 30
0.0
 11
175.7881018633
 21
1945.3031642936
 31
0.0
  0
LINE
  5
7C
330
1F
100
AcDbEntity
  8
1
100
AcDbLine
 10
2725.7881018634
 20
1939.3031642936
 30
0.0
 11
2725.7881018633
 21
1945.3031642936
 31
0.0
  0
LINE
  5
7D
330
1F
100
AcDbEntity
  8
1
100
AcDbLine
 10
175.7881018633
 20
2014.3031642936
 30
0.0
 11
2725.7881018633
 21
2014.3031642936
 31
0.0
  0
LINE
  5
7E
330
1F
100
AcDbEntity
  8
1
100
AcDbLine
 10
2725.7881018633
 20
2008.3031642936
 30
0.0
 11
2725.7881018633
 21
2014.3031642936
 31
0.0
  0
LINE
  5
7F
330
1F
100
AcDbEntity
  8
1
100
AcDbLine
 10
175.7881018633
 20
2008.3031642936
 30
0.0
 11
2725.7881018633
 21
2008.3031642936
 31
0.0
  0
LINE
  5
80
330
1F
100
AcDbEntity
  8
1
100
AcDbLine
 10
175.7881018633
 20
2008.3031642936
 30
0.0
 11
175.7881018633
 21
2014.3031642936
 31
0.0
  0
LINE
  5
81
330
1F
100
AcDbEntity
  8
1
100
AcDbLine
 10
244.7881018633
 20
1945.3031642936
 30
0.0
 11
244.7881018633
 21
2008.3031642936
 31
0.0
  0
LINE
  5
82
330
1F
100
AcDbEntity
  8
1
100
AcDbLine
 10
2656.7881018633
 20
1945.3031642936
 30
0.0
 11
2656.7881018633
 21
2008.3031642936
 31
0.0
  0
LINE
  5
83
330
1F
100
AcDbEntity
  8
1
100
AcDbLine
 10
175.7881018633
 20
2209.3031642936
 30
0.0
 11
2725.7881018633
 21
2209.3031642936
 31
0.0
  0
LINE
  5
84
330
1F
100
AcDbEntity
  8
1
100
AcDbLine
 10
2725.7881018633
 20
2209.3031642936
 30
0.0
 11
2725.7881018633
 21
2202.8031642936
 31
0.0
  0
LINE
  5
85
330
1F
100
AcDbEntity
  8
1
100
AcDbLine
 10
175.7881018633
 20
2202.8031642936
 30
0.0
 11
2725.7881018633
 21
2202.8031642936
 31
0.0
  0
LINE
  5
86
330
1F
100
AcDbEntity
  8
1
100
AcDbLine
 10
175.7881018633
 20
2209.3031642936
 30
0.0
 11
175.7881018633
 21
2202.8031642936
 31
0.0
  0
LINE
  5
87
330
1F
100
AcDbEntity
  8
1
100
AcDbLine
 10
175.7881018633
 20
2059.3031642936
 30
0.0
 11
2725.7881018633
 21
2059.3031642936
 31
0.0
  0
LINE
  5
88
330
1F
100
AcDbEntity
  8
1
100
AcDbLine
 10
175.7881018633
 20
2065.8031642936
 30
0.0
 11
175.7881018633
 21
2059.3031642936
 31
0.0
  0
LINE
  5
89
330
1F
100
AcDbEntity
  8
1
100
AcDbLine
 10
2725.7881018633
 20
2065.8031642936
 30
0.0
 11
2725.7881018633
 21
2059.3031642936
 31
0.0
  0
LINE
  5
8A
330
1F
100
AcDbEntity
  8
1
100
AcDbLine
 10
175.7881018633
 20
2065.8031642936
 30
0.0
 11
2725.7881018633
 21
2065.8031642936
 31
0.0
  0
LINE
  5
8B
330
1F
100
AcDbEntity
  8
1
100
AcDbLine
 10
244.2881018633
 20
2202.8031642936
 30
0.0
 11
244.2881018633
 21
2065.8031642936
 31
0.0
  0
LINE
  5
8C
330
1F
100
AcDbEntity
  8
1
100
AcDbLine
 10
2657.2881018633
 20
2202.8031642936
 30
0.0
 11
2657.2881018633
 21
2065.8031642936
 31
0.0
  0
LINE
  5
8D
330
1F
100
AcDbEntity
  8
1
100
AcDbLine
 10
1974.7881018633
 20
3990.3031642936
 30
0.0
 11
1974.7881018633
 21
3994.3031642936
 31
0.0
  0
LINE
  5
8E
330
1F
100
AcDbEntity
  8
1
100
AcDbLine
 10
588.7881018633
 20
3990.3031642936
 30
0.0
 11
1974.7881018633
 21
3990.3031642936
 31
0.0
  0
LINE
  5
8F
330
1F
100
AcDbEntity
  8
1
100
AcDbLine
 10
588.7881018633
 20
3990.3031642936
 30
0.0
 11
588.7881018633
 21
3994.3031642936
 31
0.0
  0
LINE
  5
90
330
1F
100
AcDbEntity
  8
1
100
AcDbLine
 10
588.7881018633
 20
3994.3031642936
 30
0.0
 11
1974.7881018633
 21
3994.3031642936
 31
0.0
  0
LINE
  5
91
330
1F
100
AcDbEntity
  8
1
100
AcDbLine
 10
1924.0881018633
 20
3914.6031642936
 30
0.0
 11
1924.0881018633
 21
3990.3031642936
 31
0.0
  0
LINE
  5
92
330
1F
100
AcDbEntity
  8
1
100
AcDbLine
 10
2052.7881018633
 20
3914.6031642936
 30
0.0
 11
1924.0881018633
 21
3914.6031642936
 31
0.0
  0
ARC
  5
93
330
1F
100
AcDbEntity
  8
1
100
AcDbCircle
 10
2052.7881018633
 20
3092.3031642936
 30
0.0
 40
822.3000000000002
100
AcDbArc
 50
0.0
 51
90.0
  0
LINE
  5
94
330
1F
100
AcDbEntity
  8
1
100
AcDbLine
 10
2875.0881018633
 20
3078.3031642936
 30
0.0
 11
2875.0881018633
 21
3092.3031642936
 31
0.0
  0
ARC
  5
95
330
1F
100
AcDbEntity
  8
1
100
AcDbCircle
 10
1884.7881018633
 20
3260.3031642936
 30
0.0
 40
1172.3
100
AcDbArc
 50
185.2922613159
 51
200.7024244914
  0
ARC
  5
96
330
1F
100
AcDbEntity
  8
1
100
AcDbCircle
 10
1884.7881018633
 20
3260.3031642936
 30
0.0
 40
1172.3
100
AcDbArc
 50
224.8400813877
 51
243.7054009784
  0
LINE
  5
97
330
1F
100
AcDbEntity
  8
1
100
AcDbLine
 10
639.8487792455
 20
3990.3031642936
 30
0.0
 11
717.4854231188
 21
3152.1747859837
 31
0.0
  0
ARC
  5
98
330
1F
100
AcDbEntity
  8
1
100
AcDbCircle
 10
1884.7881018633
 20
3078.3031642936
 30
0.0
 40
990.3
100
AcDbArc
 50
298.656337537
 51
0.0
  0
CIRCLE
  5
99
330
1F
100
AcDbEntity
  8
0
  6
HIDDEN
 62
     7
370
    18
100
AcDbCircle
 10
525.7881018633
 20
2444.3031642936
 30
0.0
 40
23.99999999999989
  0
ARC
  5
9A
330
1F
100
AcDbEntity
  8
0
  6
HIDDEN
 62
     7
370
    18
100
AcDbCircle
 10
525.7881018633
 20
2444.3031642936
 30
0.0
 40
195.5
100
AcDbArc
 50
298.9928373896
 51
241.0071626104
  0
LINE
  5
9B
330
1F
100
AcDbEntity
  8
0
  6
HIDDEN
 62
     7
370
    18
100
AcDbLine
 10
620.5470064581
 20
2273.3031642936
 30
0.0
 11
431.0291972686
 21
2273.3031642936
 31
0.0
  0
LINE
  5
9C
330
1F
100
AcDbEntity
  8
0
  6
HIDDEN
 62
     7
370
    18
100
AcDbLine
 10
646.3532164782
 20
2264.3031642936
 30
0.0
 11
412.8445318826
 21
2264.3031642936
 31
0.0
  0
LINE
  5
9D
330
1F
100
AcDbEntity
  8
0
  6
HIDDEN
 62
     7
370
    18
100
AcDbLine
 10
416.3520474754
 20
2282.3031642936
 30
0.0
 11
388.2662854123
 21
2282.3031642936
 31
0.0
  0
LINE
  5
9E
330
1F
100
AcDbEntity
  8
0
  6
HIDDEN
 62
     7
370
    18
100
AcDbLine
 10
668.7881018633
 20
2273.6353828746
 30
0.0
 11
668.7881018633
 21
2282.3031642936
 31
0.0
  0
LINE
  5
9F
330
1F
100
AcDbEntity
  8
0
  6
HIDDEN
 62
     7
370
    18
100
AcDbLine
 10
668.7881018633
 20
2282.3031642936
 30
0.0
 11
635.2241562513
 21
2282.3031642936
 31
0.0
  0
CIRCLE
  5
A0
330
1F
100
AcDbEntity
  8
0
  6
HIDDEN
 62
     7
370
    18
100
AcDbCircle
 10
525.7881018633
 20
2444.3031642936
 30
0.0
 40
112.5000000000001
  0
CIRCLE
  5
A1
330
1F
100
AcDbEntity
  8
0
  6
HIDDEN
 62
     7
370
    18
100
AcDbCircle
 10
1975.7881018633
 20
3169.3031642936
 30
0.0
 40
225.0000000000001
  0
LINE
  5
A2
330
1F
100
AcDbEntity
  8
0
  6
HIDDEN
 62
     7
370
    18
100
AcDbLine
 10
2650.7881018633
 20
1939.3031642936
 30
0.0
 11
2650.7881018633
 21
2014.3031642936
 31
0.0
  0
LINE
  5
A3
330
1F
100
AcDbEntity
  8
0
  6
HIDDEN
 62
     7
370
    18
100
AcDbLine
 10
250.7881018633
 20
1939.3031642936
 30
0.0
 11
250.7881018633
 21
2014.3031642936
 31
0.0
  0
LINE
  5
A4
330
1F
100
AcDbEntity
  8
0
  6
HIDDEN
 62
     7
370
    18
100
AcDbLine
 10
2650.7881018633
 20
2209.3031642936
 30
0.0
 11
2650.7881018633
 21
2059.3031642936
 31
0.0
  0
LINE
  5
A5
330
1F
100
AcDbEntity
  8
0
  6
HIDDEN
 62
     7
370
    18
100
AcDbLine
 10
250.7881018633
 20
2209.3031642936
 30
0.0
 11
250.7881018633
 21
2059.3031642936
 31
0.0
  0
ARC
  5
A6
330
1F
100
AcDbEntity
  8
0
  6
HIDDEN
 62
     7
370
    18
100
AcDbCircle
 10
1884.7881018633
 20
3260.3031642936
 30
0.0
 40
1172.3
100
AcDbArc
 50
200.7024244914
 51
224.8400813877
  0
ARC
  5
A7
330
1F
100
AcDbEntity
  8
0
  6
HIDDEN
 62
     7
370
    18
100
AcDbCircle
 10
1884.7881018633
 20
3260.3031642936
 30
0.0
 40
1172.3
100
AcDbArc
 50
243.7054009784
 51
270.0
  0
ARC
  5
A8
330
1F
100
AcDbEntity
  8
0
  6
HIDDEN
 62
     7
370
    18
100
AcDbCircle
 10
1884.7881018633
 20
3078.3031642936
 30
0.0
 40
990.2999999999997
100
AcDbArc
 50
270.0
 51
298.656337537
  0
ARC
  5
A9
330
1F
100
AcDbEntity
  8
0
  6
HIDDEN
 62
     7
370
    18
100
AcDbCircle
 10
2052.7881018633
 20
3092.3031642936
 30
0.0
 40
820.0000000000005
100
AcDbArc
 50
0.0
 51
90.0
  0
LINE
  5
AA
330
1F
100
AcDbEntity
  8
0
  6
HIDDEN
 62
     7
370
    18
100
AcDbLine
 10
2052.7881018633
 20
3912.3031642936
 30
0.0
 11
1921.7881018633
 21
3912.3031642936
 31
0.0
  0
ARC
  5
AB
330
1F
100
AcDbEntity
  8
0
  6
HIDDEN
 62
     7
370
    18
100
AcDbCircle
 10
1884.7881018633
 20
3260.3031642936
 30
0.0
 40
1170.0
100
AcDbArc
 50
185.2922613159
 51
270.0
  0
LINE
  5
AC
330
1F
100
AcDbEntity
  8
0
  6
HIDDEN
 62
     7
370
    18
100
AcDbLine
 10
641.7881018633
 20
3994.3031642936
 30
0.0
 11
719.7756185987
 21
3152.3869290104
 31
0.0
  0
LINE
  5
AD
330
1F
100
AcDbEntity
  8
0
  6
HIDDEN
 62
     7
370
    18
100
AcDbLine
 10
1921.7881018633
 20
3912.3031642936
 30
0.0
 11
1921.7881018633
 21
3994.3031642936
 31
0.0
  0
ARC
  5
AE
330
1F
100
AcDbEntity
  8
0
  6
HIDDEN
 62
     7
370
    18
100
AcDbCircle
 10
1884.7881018633
 20
3078.3031642936
 30
0.0
 40
987.9999999999998
100
AcDbArc
 50
270.0
 51
0.0
  0
LINE
  5
AF
330
1F
100
AcDbEntity
  8
0
  6
HIDDEN
 62
     7
370
    18
100
AcDbLine
 10
2872.7881018633
 20
3078.3031642936
 30
0.0
 11
2872.7881018633
 21
3092.3031642936
 31
0.0
  0
CIRCLE
  5
B0
330
1F
100
AcDbEntity
  8
0
  6
HIDDEN
 62
     7
370
    18
100
AcDbCircle
 10
1975.7881018633
 20
3169.3031642936
 30
0.0
 40
624.9999999999995
  0
CIRCLE
  5
B1
330
1F
100
AcDbEntity
  8
0
  6
HIDDEN
 62
     7
370
    18
100
AcDbCircle
 10
1975.7881018633
 20
3169.3031642936
 30
0.0
 40
675.0000000000009
  0
CIRCLE
  5
B2
330
1F
100
AcDbEntity
  8
0
  6
HIDDEN
 62
     7
370
    18
100
AcDbCircle
 10
1975.7881018633
 20
3169.3031642936
 30
0.0
 40
627.2999999999997
  0
CIRCLE
  5
B3
330
1F
100
AcDbEntity
  8
0
  6
HIDDEN
 62
     7
370
    18
100
AcDbCircle
 10
1389.9513122095
 20
3467.8019178723
 30
0.0
 40
6.000000000000455
  0
CIRCLE
  5
B4
330
1F
100
AcDbEntity
  8
0
  6
HIDDEN
 62
     7
370
    18
100
AcDbCircle
 10
1510.8653932332
 20
3634.2258729237
 30
0.0
 40
5.999999999999545
  0
CIRCLE
  5
B5
330
1F
100
AcDbEntity
  8
0
  6
HIDDEN
 62
     7
370
    18
100
AcDbCircle
 10
1677.2893482846
 20
3755.1399539474
 30
0.0
 40
6.000000000000455
  0
CIRCLE
  5
B6
330
1F
100
AcDbEntity
  8
0
  6
HIDDEN
 62
     7
370
    18
100
AcDbCircle
 10
1872.9324410994
 20
3818.7082482349
 30
0.0
 40
6.000000000000455
  0
CIRCLE
  5
B7
330
1F
100
AcDbEntity
  8
0
  6
HIDDEN
 62
     7
370
    18
100
AcDbCircle
 10
2274.2868554421
 20
3755.1399539474
 30
0.0
 40
6.000000000000455
  0
CIRCLE
  5
B8
330
1F
100
AcDbEntity
  8
0
  6
HIDDEN
 62
     7
370
    18
100
AcDbCircle
 10
2440.7108104935
 20
3634.2258729237
 30
0.0
 40
5.999999999999545
  0
CIRCLE
  5
B9
330
1F
100
AcDbEntity
  8
0
  6
HIDDEN
 62
     7
370
    18
100
AcDbCircle
 10
2561.6248915172
 20
3467.8019178723
 30
0.0
 40
6.0
  0
CIRCLE
  5
BA
330
1F
100
AcDbEntity
  8
0
  6
HIDDEN
 62
     7
370
    18
100
AcDbCircle
 10
2625.1931858046
 20
3272.1588250575
 30
0.0
 40
5.999999999999545
  0
CIRCLE
  5
BB
330
1F
100
AcDbEntity
  8
0
  6
HIDDEN
 62
     7
370
    18
100
AcDbCircle
 10
2625.1931858046
 20
3066.4475035296
 30
0.0
 40
6.0
  0
CIRCLE
  5
BC
330
1F
100
AcDbEntity
  8
0
  6
HIDDEN
 62
     7
370
    18
100
AcDbCircle
 10
2561.6248915172
 20
2870.8044107148
 30
0.0
 40
6.0
  0
CIRCLE
  5
BD
330
1F
100
AcDbEntity
  8
0
  6
HIDDEN
 62
     7
370
    18
100
AcDbCircle
 10
2440.7108104935
 20
2704.3804556634
 30
0.0
 40
6.0
  0
CIRCLE
  5
BE
330
1F
100
AcDbEntity
  8
0
  6
HIDDEN
 62
     7
370
    18
100
AcDbCircle
 10
2274.2868554421
 20
2583.4663746397
 30
0.0
 40
6.000000000000455
  0
CIRCLE
  5
BF
330
1F
100
AcDbEntity
  8
0
  6
HIDDEN
 62
     7
370
    18
100
AcDbCircle
 10
2078.6437626273
 20
2519.8980803523
 30
0.0
 40
6.0
  0
CIRCLE
  5
C0
330
1F
100
AcDbEntity
  8
0
  6
HIDDEN
 62
     7
370
    18
100
AcDbCircle
 10
1872.9324410994
 20
2519.8980803523
 30
0.0
 40
6.0
  0
CIRCLE
  5
C1
330
1F
100
AcDbEntity
  8
0
  6
HIDDEN
 62
     7
370
    18
100
AcDbCircle
 10
1677.2893482846
 20
2583.4663746397
 30
0.0
 40
6.0
  0
CIRCLE
  5
C2
330
1F
100
AcDbEntity
  8
0
  6
HIDDEN
 62
     7
370
    18
100
AcDbCircle
 10
1510.8653932332
 20
2704.3804556634
 30
0.0
 40
5.999999999999545
  0
CIRCLE
  5
C3
330
1F
100
AcDbEntity
  8
0
  6
HIDDEN
 62
     7
370
    18
100
AcDbCircle
 10
1389.9513122095
 20
2870.8044107148
 30
0.0
 40
6.0
  0
CIRCLE
  5
C4
330
1F
100
AcDbEntity
  8
0
  6
HIDDEN
 62
     7
370
    18
100
AcDbCircle
 10
1326.383017922
 20
3066.4475035296
 30
0.0
 40
6.0
  0
CIRCLE
  5
C5
330
1F
100
AcDbEntity
  8
0
  6
HIDDEN
 62
     7
370
    18
100
AcDbCircle
 10
1326.383017922
 20
3272.1588250575
 30
0.0
 40
5.999999999999545
  0
CIRCLE
  5
C6
330
1F
100
AcDbEntity
  8
0
  6
HIDDEN
 62
     7
370
    18
100
AcDbCircle
 10
2078.6437626273
 20
3818.7082482349
 30
0.0
 40
6.000000000000455
  0
LINE
  5
C7
330
1F
100
AcDbEntity
  8
0
  6
HIDDEN
 62
     7
370
    18
100
AcDbLine
 10
307.7881018633
 20
1939.3031642936
 30
0.0
 11
307.7881018633
 21
1945.3031642936
 31
0.0
  0
LINE
  5
C8
330
1F
100
AcDbEntity
  8
0
  6
HIDDEN
 62
     7
370
    18
100
AcDbLine
 10
283.7881018633
 20
1945.3031642936
 30
0.0
 11
283.7881018633
 21
1939.3031642936
 31
0.0
  0
LINE
  5
C9
330
1F
100
AcDbEntity
  8
0
  6
HIDDEN
 62
     7
370
    18
100
AcDbLine
 10
1077.7881018633
 20
1939.3031642936
 30
0.0
 11
1077.7881018633
 21
1945.3031642936
 31
0.0
  0
LINE
  5
CA
330
1F
100
AcDbEntity
  8
0
  6
HIDDEN
 62
     7
370
    18
100
AcDbLine
 10
1053.7881018633
 20
1945.3031642936
 30
0.0
 11
1053.7881018633
 21
1939.3031642936
 31
0.0
  0
LINE
  5
CB
330
1F
100
AcDbEntity
  8
0
  6
HIDDEN
 62
     7
370
    18
100
AcDbLine
 10
1847.7881018633
 20
1939.3031642936
 30
0.0
 11
1847.7881018633
 21
1945.3031642936
 31
0.0
  0
LINE
  5
CC
330
1F
100
AcDbEntity
  8
0
  6
HIDDEN
 62
     7
370
    18
100
AcDbLine
 10
1823.7881018633
 20
1945.3031642936
 30
0.0
 11
1823.7881018633
 21
1939.3031642936
 31
0.0
  0
LINE
  5
CD
330
1F
100
AcDbEntity
  8
0
  6
HIDDEN
 62
     7
370
    18
100
AcDbLine
 10
2617.7881018633
 20
1939.3031642936
 30
0.0
 11
2617.7881018633
 21
1945.3031642936
 31
0.0
  0
LINE
  5
CE
330
1F
100
AcDbEntity
  8
0
  6
HIDDEN
 62
     7
370
    18
100
AcDbLine
 10
2593.7881018633
 20
1945.3031642936
 30
0.0
 11
2593.7881018633
 21
1939.3031642936
 31
0.0
  0
LINE
  5
CF
330
1F
100
AcDbEntity
  8
0
  6
HIDDEN
 62
     7
370
    18
100
AcDbLine
 10
1175.7881018633
 20
3994.3031642936
 30
0.0
 11
1175.7881018633
 21
3990.3031642936
 31
0.0
  0
LINE
  5
D0
330
1F
100
AcDbEntity
  8
0
  6
HIDDEN
 62
     7
370
    18
100
AcDbLine
 10
1187.7881018633
 20
3990.3031642936
 30
0.0
 11
1187.7881018633
 21
3994.3031642936
 31
0.0
  0
LINE
  5
D1
330
1F
100
AcDbEntity
  8
0
  6
HIDDEN
 62
     7
370
    18
100
AcDbLine
 10
1375.7881018633
 20
3994.3031642936
 30
0.0
 11
1375.7881018633
 21
3990.3031642936
 31
0.0
  0
LINE
  5
D2
330
1F
100
AcDbEntity
  8
0
  6
HIDDEN
 62
     7
370
    18
100
AcDbLine
 10
1387.7881018633
 20
3990.3031642936
 30
0.0
 11
1387.7881018633
 21
3994.3031642936
 31
0.0
  0
LINE
  5
D3
330
1F
100
AcDbEntity
  8
0
  6
HIDDEN
 62
     7
370
    18
100
AcDbLine
 10
1775.7881018633
 20
3994.3031642936
 30
0.0
 11
1775.7881018633
 21
3990.3031642936
 31
0.0
  0
LINE
  5
D4
330
1F
100
AcDbEntity
  8
0
  6
HIDDEN
 62
     7
370
    18
100
AcDbLine
 10
1787.7881018633
 20
3990.3031642936
 30
0.0
 11
1787.7881018633
 21
3994.3031642936
 31
0.0
  0
LINE
  5
D5
330
1F
100
AcDbEntity
  8
0
  6
HIDDEN
 62
     7
370
    18
100
AcDbLine
 10
602.7881018633
 20
3994.3031642936
 30
0.0
 11
602.7881018633
 21
3990.3031642936
 31
0.0
  0
LINE
  5
D6
330
1F
100
AcDbEntity
  8
0
  6
HIDDEN
 62
     7
370
    18
100
AcDbLine
 10
614.7881018633
 20
3990.3031642936
 30
0.0
 11
614.7881018633
 21
3994.3031642936
 31
0.0
  0
LINE
  5
D7
330
1F
100
AcDbEntity
  8
0
  6
HIDDEN
 62
     7
370
    18
100
AcDbLine
 10
1948.7881018633
 20
3994.3031642936
 30
0.0
 11
1948.7881018633
 21
3990.3031642936
 31
0.0
  0
LINE
  5
D8
330
1F
100
AcDbEntity
  8
0
  6
HIDDEN
 62
     7
370
    18
100
AcDbLine
 10
1960.7881018633
 20
3990.3031642936
 30
0.0
 11
1960.7881018633
 21
3994.3031642936
 31
0.0
  0
LINE
  5
D9
330
1F
100
AcDbEntity
  8
0
  6
HIDDEN
 62
     7
370
    18
100
AcDbLine
 10
775.7881018633
 20
3994.3031642936
 30
0.0
 11
775.7881018633
 21
3990.3031642936
 31
0.0
  0
LINE
  5
DA
330
1F
100
AcDbEntity
  8
0
  6
HIDDEN
 62
     7
370
    18
100
AcDbLine
 10
787.7881018633
 20
3990.3031642936
 30
0.0
 11
787.7881018633
 21
3994.3031642936
 31
0.0
  0
LINE
  5
DB
330
1F
100
AcDbEntity
  8
0
  6
HIDDEN
 62
     7
370
    18
100
AcDbLine
 10
975.7881018633
 20
3994.3031642936
 30
0.0
 11
975.7881018633
 21
3990.3031642936
 31
0.0
  0
LINE
  5
DC
330
1F
100
AcDbEntity
  8
0
  6
HIDDEN
 62
     7
370
    18
100
AcDbLine
 10
987.7881018633
 20
3990.3031642936
 30
0.0
 11
987.7881018633
 21
3994.3031642936
 31
0.0
  0
LINE
  5
DD
330
1F
100
AcDbEntity
  8
0
  6
HIDDEN
 62
     7
370
    18
100
AcDbLine
 10
1575.7881018633
 20
3994.3031642936
 30
0.0
 11
1575.7881018633
 21
3990.3031642936
 31
0.0
  0
LINE
  5
DE
330
1F
100
AcDbEntity
  8
0
  6
HIDDEN
 62
     7
370
    18
100
AcDbLine
 10
1587.7881018633
 20
3990.3031642936
 30
0.0
 11
1587.7881018633
 21
3994.3031642936
 31
0.0
  0
INSERT
  5
EA
330
1F
100
AcDbEntity
  8
2
100
AcDbBlockReference
  2
SW_CENTERMARKSYMBOL_0
 10
1975.7881018633
 20
3169.3031642936
 30
0.0
  0
LINE
  5
EB
330
1F
100
AcDbEntity
  8
1
100
AcDbLine
 10
3476.863764984
 20
3494.3031642936
 30
0.0
 11
3316.863764984
 21
3494.3031642936
 31
0.0
  0
LINE
  5
EC
330
1F
100
AcDbEntity
  8
1
100
AcDbLine
 10
3316.863764984
 20
2231.8031642936
 30
0.0
 11
3476.863764984
 21
2231.8031642936
 31
0.0
  0
LINE
  5
ED
330
1F
100
AcDbEntity
  8
1
100
AcDbLine
 10
3758.663764984
 20
2639.8031642936
 30
0.0
 11
3544.363764984
 21
2639.8031642936
 31
0.0
  0
LINE
  5
EE
330
1F
100
AcDbEntity
  8
1
100
AcDbLine
 10
3476.863764984
 20
2420.3031642936
 30
0.0
 11
3544.363764984
 21
2420.3031642936
 31
0.0
  0
LINE
  5
EF
330
1F
100
AcDbEntity
  8
1
100
AcDbLine
 10
3544.363764984
 20
2468.3031642936
 30
0.0
 11
3476.863764984
 21
2468.3031642936
 31
0.0
  0
LINE
  5
F0
330
1F
100
AcDbEntity
  8
1
100
AcDbLine
 10
4734.863764984
 20
2059.3031642936
 30
0.0
 11
4734.863764984
 21
2014.3031642936
 31
0.0
  0
LINE
  5
F1
330
1F
100
AcDbEntity
  8
1
100
AcDbLine
 10
4769.863764984
 20
2014.3031642936
 30
0.0
 11
4769.863764984
 21
2059.3031642936
 31
0.0
  0
LINE
  5
F2
330
1F
100
AcDbEntity
  8
1
100
AcDbLine
 10
3529.863764984
 20
2059.3031642936
 30
0.0
 11
3529.863764984
 21
2014.3031642936
 31
0.0
  0
LINE
  5
F3
330
1F
100
AcDbEntity
  8
1
100
AcDbLine
 10
3564.863764984
 20
2014.3031642936
 30
0.0
 11
3564.863764984
 21
2059.3031642936
 31
0.0
  0
LINE
  5
F4
330
1F
100
AcDbEntity
  8
1
100
AcDbLine
 10
4814.863764984
 20
3844.3031642936
 30
0.0
 11
4812.563764984
 21
3844.3031642936
 31
0.0
  0
LINE
  5
F5
330
1F
100
AcDbEntity
  8
1
100
AcDbLine
 10
4812.563764984
 20
2494.3031642936
 30
0.0
 11
4814.863764984
 21
2494.3031642936
 31
0.0
  0
LINE
  5
F6
330
1F
100
AcDbEntity
  8
1
100
AcDbLine
 10
4715.063764984
 20
2494.3031642936
 30
0.0
 11
4721.863764984
 21
2494.3031642936
 31
0.0
  0
LINE
  5
F7
330
1F
100
AcDbEntity
  8
1
100
AcDbLine
 10
4721.863764984
 20
3844.3031642936
 30
0.0
 11
4715.063764984
 21
3844.3031642936
 31
0.0
  0
LINE
  5
F8
330
1F
100
AcDbEntity
  8
1
100
AcDbLine
 10
4812.563764984
 20
3796.6031642936
 30
0.0
 11
4721.863764984
 21
3796.6031642936
 31
0.0
  0
LINE
  5
F9
330
1F
100
AcDbEntity
  8
1
100
AcDbLine
 10
4721.863764984
 20
2542.0031642936
 30
0.0
 11
4812.563764984
 21
2542.0031642936
 31
0.0
  0
LINE
  5
FA
330
1F
100
AcDbEntity
  8
1
100
AcDbLine
 10
3316.863764984
 20
2869.2288995019
 30
0.0
 11
3316.863764984
 21
3494.3031642936
 31
0.0
  0
LINE
  5
FB
330
1F
100
AcDbEntity
  8
1
100
AcDbLine
 10
3476.863764984
 20
2869.2288995019
 30
0.0
 11
3476.863764984
 21
3494.3031642936
 31
0.0
  0
LINE
  5
FC
330
1F
100
AcDbEntity
  8
1
100
AcDbLine
 10
3316.863764984
 20
2248.1007603913
 30
0.0
 11
3316.863764984
 21
2869.2288995019
 31
0.0
  0
LINE
  5
FD
330
1F
100
AcDbEntity
  8
1
100
AcDbLine
 10
3476.863764984
 20
2248.1007603913
 30
0.0
 11
3476.863764984
 21
2869.2288995019
 31
0.0
  0
LINE
  5
FE
330
1F
100
AcDbEntity
  8
1
100
AcDbLine
 10
3316.863764984
 20
2231.8031642936
 30
0.0
 11
3316.863764984
 21
2248.1007603913
 31
0.0
  0
LINE
  5
FF
330
1F
100
AcDbEntity
  8
1
100
AcDbLine
 10
3476.863764984
 20
2231.8031642936
 30
0.0
 11
3476.863764984
 21
2248.1007603913
 31
0.0
  0
LINE
  5
100
330
1F
100
AcDbEntity
  8
1
100
AcDbLine
 10
3580.863764984
 20
2209.3031642936
 30
0.0
 11
3580.863764984
 21
2264.3031642936
 31
0.0
  0
LINE
  5
101
330
1F
100
AcDbEntity
  8
1
100
AcDbLine
 10
3758.663764984
 20
2264.3031642936
 30
0.0
 11
3580.863764984
 21
2264.3031642936
 31
0.0
  0
LINE
  5
102
330
1F
100
AcDbEntity
  8
1
100
AcDbLine
 10
3623.863764984
 20
2273.3031642936
 30
0.0
 11
3544.363764984
 21
2273.3031642936
 31
0.0
  0
LINE
  5
103
330
1F
100
AcDbEntity
  8
1
100
AcDbLine
 10
3544.363764984
 20
2639.8031642936
 30
0.0
 11
3544.363764984
 21
2273.3031642936
 31
0.0
  0
LINE
  5
104
330
1F
100
AcDbEntity
  8
1
100
AcDbLine
 10
3623.863764984
 20
2264.3031642936
 30
0.0
 11
3623.863764984
 21
2282.3031642936
 31
0.0
  0
LINE
  5
105
330
1F
100
AcDbEntity
  8
1
100
AcDbLine
 10
3623.863764984
 20
2282.3031642936
 30
0.0
 11
3758.663764984
 21
2282.3031642936
 31
0.0
  0
LINE
  5
106
330
1F
100
AcDbEntity
  8
1
100
AcDbLine
 10
4789.863764984
 20
2008.3031642936
 30
0.0
 11
4789.863764984
 21
2014.3031642936
 31
0.0
  0
LINE
  5
107
330
1F
100
AcDbEntity
  8
1
100
AcDbLine
 10
3509.863764984
 20
2008.3031642936
 30
0.0
 11
4789.863764984
 21
2008.3031642936
 31
0.0
  0
LINE
  5
108
330
1F
100
AcDbEntity
  8
1
100
AcDbLine
 10
3509.863764984
 20
2008.3031642936
 30
0.0
 11
3509.863764984
 21
2014.3031642936
 31
0.0
  0
LINE
  5
109
330
1F
100
AcDbEntity
  8
1
100
AcDbLine
 10
3509.863764984
 20
2014.3031642936
 30
0.0
 11
4789.863764984
 21
2014.3031642936
 31
0.0
  0
LINE
  5
10A
330
1F
100
AcDbEntity
  8
1
100
AcDbLine
 10
3509.863764984
 20
1939.3031642936
 30
0.0
 11
3509.863764984
 21
1945.3031642936
 31
0.0
  0
LINE
  5
10B
330
1F
100
AcDbEntity
  8
1
100
AcDbLine
 10
4789.863764984
 20
1945.3031642936
 30
0.0
 11
3509.863764984
 21
1945.3031642936
 31
0.0
  0
LINE
  5
10C
330
1F
100
AcDbEntity
  8
1
100
AcDbLine
 10
4789.863764984
 20
1939.3031642936
 30
0.0
 11
3509.863764984
 21
1939.3031642936
 31
0.0
  0
LINE
  5
10D
330
1F
100
AcDbEntity
  8
1
100
AcDbLine
 10
4789.863764984
 20
1939.3031642936
 30
0.0
 11
4789.863764984
 21
1945.3031642936
 31
0.0
  0
LINE
  5
10E
330
1F
100
AcDbEntity
  8
1
100
AcDbLine
 10
3578.863764984
 20
1945.3031642936
 30
0.0
 11
3578.863764984
 21
2008.3031642936
 31
0.0
  0
LINE
  5
10F
330
1F
100
AcDbEntity
  8
1
100
AcDbLine
 10
4720.863764984
 20
1945.3031642936
 30
0.0
 11
4720.863764984
 21
2008.3031642936
 31
0.0
  0
LINE
  5
110
330
1F
100
AcDbEntity
  8
1
100
AcDbLine
 10
3509.863764984
 20
2209.3031642936
 30
0.0
 11
4789.863764984
 21
2209.3031642936
 31
0.0
  0
LINE
  5
111
330
1F
100
AcDbEntity
  8
1
100
AcDbLine
 10
3509.863764984
 20
2209.3031642936
 30
0.0
 11
3509.863764984
 21
2202.8031642936
 31
0.0
  0
LINE
  5
112
330
1F
100
AcDbEntity
  8
1
100
AcDbLine
 10
3509.863764984
 20
2202.8031642936
 30
0.0
 11
4789.863764984
 21
2202.8031642936
 31
0.0
  0
LINE
  5
113
330
1F
100
AcDbEntity
  8
1
100
AcDbLine
 10
4789.863764984
 20
2209.3031642936
 30
0.0
 11
4789.863764984
 21
2202.8031642936
 31
0.0
  0
LINE
  5
114
330
1F
100
AcDbEntity
  8
1
100
AcDbLine
 10
3509.863764984
 20
2065.8031642936
 30
0.0
 11
3509.863764984
 21
2059.3031642936
 31
0.0
  0
LINE
  5
115
330
1F
100
AcDbEntity
  8
1
100
AcDbLine
 10
3509.863764984
 20
2059.3031642936
 30
0.0
 11
4789.863764984
 21
2059.3031642936
 31
0.0
  0
LINE
  5
116
330
1F
100
AcDbEntity
  8
1
100
AcDbLine
 10
4789.863764984
 20
2065.8031642936
 30
0.0
 11
4789.863764984
 21
2059.3031642936
 31
0.0
  0
LINE
  5
117
330
1F
100
AcDbEntity
  8
1
100
AcDbLine
 10
3509.863764984
 20
2065.8031642936
 30
0.0
 11
4789.863764984
 21
2065.8031642936
 31
0.0
  0
LINE
  5
118
330
1F
100
AcDbEntity
  8
1
100
AcDbLine
 10
3578.363764984
 20
2202.8031642936
 30
0.0
 11
3578.363764984
 21
2065.8031642936
 31
0.0
  0
LINE
  5
119
330
1F
100
AcDbEntity
  8
1
100
AcDbLine
 10
4721.363764984
 20
2202.8031642936
 30
0.0
 11
4721.363764984
 21
2065.8031642936
 31
0.0
  0
LINE
  5
11A
330
1F
100
AcDbEntity
  8
1
100
AcDbLine
 10
3758.663764984
 20
2209.3031642936
 30
0.0
 11
3758.663764984
 21
3078.3031642936
 31
0.0
  0
LINE
  5
11B
330
1F
100
AcDbEntity
  8
1
100
AcDbLine
 10
4715.063764984
 20
2209.3031642936
 30
0.0
 11
4715.063764984
 21
3078.3031642936
 31
0.0
  0
LINE
  5
11C
330
1F
100
AcDbEntity
  8
1
100
AcDbLine
 10
3758.663764984
 20
3092.3031642936
 30
0.0
 11
3758.663764984
 21
3914.6031642936
 31
0.0
  0
LINE
  5
11D
330
1F
100
AcDbEntity
  8
1
100
AcDbLine
 10
3758.663764984
 20
3914.6031642936
 30
0.0
 11
4715.063764984
 21
3914.6031642936
 31
0.0
  0
LINE
  5
11E
330
1F
100
AcDbEntity
  8
1
100
AcDbLine
 10
4715.063764984
 20
3092.3031642936
 30
0.0
 11
4715.063764984
 21
3914.6031642936
 31
0.0
  0
LINE
  5
11F
330
1F
100
AcDbEntity
  8
1
100
AcDbLine
 10
3758.663764984
 20
3078.3031642936
 30
0.0
 11
3758.663764984
 21
3092.3031642936
 31
0.0
  0
LINE
  5
120
330
1F
100
AcDbEntity
  8
1
100
AcDbLine
 10
4715.063764984
 20
3078.3031642936
 30
0.0
 11
4715.063764984
 21
3092.3031642936
 31
0.0
  0
LINE
  5
121
330
1F
100
AcDbEntity
  8
1
100
AcDbLine
 10
4812.563764984
 20
3844.3031642936
 30
0.0
 11
4812.563764984
 21
2494.3031642936
 31
0.0
  0
LINE
  5
122
330
1F
100
AcDbEntity
  8
1
100
AcDbLine
 10
4814.863764984
 20
3844.3031642936
 30
0.0
 11
4814.863764984
 21
2494.3031642936
 31
0.0
  0
LINE
  5
123
330
1F
100
AcDbEntity
  8
1
100
AcDbLine
 10
4721.863764984
 20
2494.3031642936
 30
0.0
 11
4721.863764984
 21
3844.3031642936
 31
0.0
  0
LINE
  5
124
330
1F
100
AcDbEntity
  8
1
100
AcDbLine
 10
4764.863764984
 20
3990.3031642936
 30
0.0
 11
4764.863764984
 21
3994.3031642936
 31
0.0
  0
LINE
  5
125
330
1F
100
AcDbEntity
  8
1
100
AcDbLine
 10
3708.863764984
 20
3990.3031642936
 30
0.0
 11
3708.863764984
 21
3994.3031642936
 31
0.0
  0
LINE
  5
126
330
1F
100
AcDbEntity
  8
1
100
AcDbLine
 10
3708.863764984
 20
3994.3031642936
 30
0.0
 11
4764.863764984
 21
3994.3031642936
 31
0.0
  0
LINE
  5
127
330
1F
100
AcDbEntity
  8
1
100
AcDbLine
 10
3708.863764984
 20
3990.3031642936
 30
0.0
 11
4764.863764984
 21
3990.3031642936
 31
0.0
  0
LINE
  5
128
330
1F
100
AcDbEntity
  8
1
100
AcDbLine
 10
3758.663764984
 20
3914.6031642936
 30
0.0
 11
3758.663764984
 21
3990.3031642936
 31
0.0
  0
LINE
  5
129
330
1F
100
AcDbEntity
  8
1
100
AcDbLine
 10
4715.063764984
 20
3914.6031642936
 30
0.0
 11
4715.063764984
 21
3990.3031642936
 31
0.0
  0
LINE
  5
12A
330
1F
100
AcDbEntity
  8
0
  6
HIDDEN
 62
     7
370
    18
100
AcDbLine
 10
3990.863764984
 20
2209.3031642936
 30
0.0
 11
3990.863764984
 21
2264.3031642936
 31
0.0
  0
LINE
  5
12B
330
1F
100
AcDbEntity
  8
0
  6
HIDDEN
 62
     7
370
    18
100
AcDbLine
 10
3990.863764984
 20
2264.3031642936
 30
0.0
 11
3758.663764984
 21
2264.3031642936
 31
0.0
  0
LINE
  5
12C
330
1F
100
AcDbEntity
  8
0
  6
HIDDEN
 62
     7
370
    18
100
AcDbLine
 10
4099.363764984
 20
2273.3031642936
 30
0.0
 11
4099.363764984
 21
2639.8031642936
 31
0.0
  0
LINE
  5
12D
330
1F
100
AcDbEntity
  8
0
  6
HIDDEN
 62
     7
370
    18
100
AcDbLine
 10
4099.363764984
 20
2273.3031642936
 30
0.0
 11
3947.863764984
 21
2273.3031642936
 31
0.0
  0
LINE
  5
12E
330
1F
100
AcDbEntity
  8
0
  6
HIDDEN
 62
     7
370
    18
100
AcDbLine
 10
3758.663764984
 20
2282.3031642936
 30
0.0
 11
3947.863764984
 21
2282.3031642936
 31
0.0
  0
LINE
  5
12F
330
1F
100
AcDbEntity
  8
0
  6
HIDDEN
 62
     7
370
    18
100
AcDbLine
 10
3947.863764984
 20
2264.3031642936
 30
0.0
 11
3947.863764984
 21
2282.3031642936
 31
0.0
  0
LINE
  5
130
330
1F
100
AcDbEntity
  8
0
  6
HIDDEN
 62
     7
370
    18
100
AcDbLine
 10
3359.363764984
 20
2331.8766604902
 30
0.0
 11
3359.363764984
 21
2331.8031642936
 31
0.0
  0
LINE
  5
131
330
1F
100
AcDbEntity
  8
0
  6
HIDDEN
 62
     7
370
    18
100
AcDbLine
 10
3359.363764984
 20
2556.8031642936
 30
0.0
 11
3359.363764984
 21
2331.8766604902
 31
0.0
  0
LINE
  5
132
330
1F
100
AcDbEntity
  8
0
  6
HIDDEN
 62
     7
370
    18
100
AcDbLine
 10
3434.363764984
 20
2331.8766604902
 30
0.0
 11
3434.363764984
 21
2331.8031642936
 31
0.0
  0
LINE
  5
133
330
1F
100
AcDbEntity
  8
0
  6
HIDDEN
 62
     7
370
    18
100
AcDbLine
 10
3434.363764984
 20
2556.8031642936
 30
0.0
 11
3434.363764984
 21
2331.8766604902
 31
0.0
  0
LINE
  5
134
330
1F
100
AcDbEntity
  8
0
  6
HIDDEN
 62
     7
370
    18
100
AcDbLine
 10
3359.363764984
 20
3394.3031642936
 30
0.0
 11
3359.363764984
 21
2944.3031642936
 31
0.0
  0
LINE
  5
135
330
1F
100
AcDbEntity
  8
0
  6
HIDDEN
 62
     7
370
    18
100
AcDbLine
 10
3434.363764984
 20
3394.3031642936
 30
0.0
 11
3434.363764984
 21
2944.3031642936
 31
0.0
  0
LINE
  5
136
330
1F
100
AcDbEntity
  8
0
  6
HIDDEN
 62
     7
370
    18
100
AcDbLine
 10
4714.863764984
 20
1939.3031642936
 30
0.0
 11
4714.863764984
 21
2014.3031642936
 31
0.0
  0
LINE
  5
137
330
1F
100
AcDbEntity
  8
0
  6
HIDDEN
 62
     7
370
    18
100
AcDbLine
 10
3584.863764984
 20
1939.3031642936
 30
0.0
 11
3584.863764984
 21
2014.3031642936
 31
0.0
  0
LINE
  5
138
330
1F
100
AcDbEntity
  8
0
  6
HIDDEN
 62
     7
370
    18
100
AcDbLine
 10
4714.863764984
 20
2209.3031642936
 30
0.0
 11
4714.863764984
 21
2059.3031642936
 31
0.0
  0
LINE
  5
139
330
1F
100
AcDbEntity
  8
0
  6
HIDDEN
 62
     7
370
    18
100
AcDbLine
 10
3584.863764984
 20
2209.3031642936
 30
0.0
 11
3584.863764984
 21
2059.3031642936
 31
0.0
  0
LINE
  5
13A
330
1F
100
AcDbEntity
  8
0
  6
HIDDEN
 62
     7
370
    18
100
AcDbLine
 10
3758.663764984
 20
2088.0031642936
 30
0.0
 11
4715.063764984
 21
2088.0031642936
 31
0.0
  0
LINE
  5
13B
330
1F
100
AcDbEntity
  8
0
  6
HIDDEN
 62
     7
370
    18
100
AcDbLine
 10
3758.663764984
 20
2088.0031642936
 30
0.0
 11
3758.663764984
 21
2209.3031642936
 31
0.0
  0
LINE
  5
13C
330
1F
100
AcDbEntity
  8
0
  6
HIDDEN
 62
     7
370
    18
100
AcDbLine
 10
4715.063764984
 20
2088.0031642936
 30
0.0
 11
4715.063764984
 21
2209.3031642936
 31
0.0
  0
LINE
  5
13D
330
1F
100
AcDbEntity
  8
0
  6
HIDDEN
 62
     7
370
    18
100
AcDbLine
 10
3761.863764984
 20
3912.3031642936
 30
0.0
 11
4711.863764984
 21
3912.3031642936
 31
0.0
  0
LINE
  5
13E
330
1F
100
AcDbEntity
  8
0
  6
HIDDEN
 62
     7
370
    18
100
AcDbLine
 10
3761.863764984
 20
3092.3031642936
 30
0.0
 11
3761.863764984
 21
3912.3031642936
 31
0.0
  0
LINE
  5
13F
330
1F
100
AcDbEntity
  8
0
  6
HIDDEN
 62
     7
370
    18
100
AcDbLine
 10
4711.863764984
 20
3092.3031642936
 30
0.0
 11
4711.863764984
 21
3912.3031642936
 31
0.0
  0
LINE
  5
140
330
1F
100
AcDbEntity
  8
0
  6
HIDDEN
 62
     7
370
    18
100
AcDbLine
 10
4711.863764984
 20
3078.3031642936
 30
0.0
 11
4711.863764984
 21
3092.3031642936
 31
0.0
  0
LINE
  5
141
330
1F
100
AcDbEntity
  8
0
  6
HIDDEN
 62
     7
370
    18
100
AcDbLine
 10
3761.863764984
 20
2090.3031642936
 30
0.0
 11
3761.863764984
 21
3078.3031642936
 31
0.0
  0
LINE
  5
142
330
1F
100
AcDbEntity
  8
0
  6
HIDDEN
 62
     7
370
    18
100
AcDbLine
 10
3761.863764984
 20
2090.3031642936
 30
0.0
 11
4711.863764984
 21
2090.3031642936
 31
0.0
  0
LINE
  5
143
330
1F
100
AcDbEntity
  8
0
  6
HIDDEN
 62
     7
370
    18
100
AcDbLine
 10
4711.863764984
 20
2090.3031642936
 30
0.0
 11
4711.863764984
 21
3078.3031642936
 31
0.0
  0
LINE
  5
144
330
1F
100
AcDbEntity
  8
0
  6
HIDDEN
 62
     7
370
    18
100
AcDbLine
 10
3761.863764984
 20
3078.3031642936
 30
0.0
 11
3761.863764984
 21
3092.3031642936
 31
0.0
  0
LINE
  5
145
330
1F
100
AcDbEntity
  8
0
  6
HIDDEN
 62
     7
370
    18
100
AcDbLine
 10
3761.863764984
 20
3912.3031642936
 30
0.0
 11
3761.863764984
 21
3994.3031642936
 31
0.0
  0
LINE
  5
146
330
1F
100
AcDbEntity
  8
0
  6
HIDDEN
 62
     7
370
    18
100
AcDbLine
 10
4711.863764984
 20
3912.3031642936
 30
0.0
 11
4711.863764984
 21
3994.3031642936
 31
0.0
  0
LINE
  5
147
330
1F
100
AcDbEntity
  8
0
  6
HIDDEN
 62
     7
370
    18
100
AcDbLine
 10
4099.363764984
 20
2639.8031642936
 30
0.0
 11
3758.663764984
 21
2639.8031642936
 31
0.0
  0
LINE
  5
148
330
1F
100
AcDbEntity
  8
0
  6
HIDDEN
 62
     7
370
    18
100
AcDbLine
 10
3434.363764984
 20
2420.3031642936
 30
0.0
 11
3476.863764984
 21
2420.3031642936
 31
0.0
  0
LINE
  5
149
330
1F
100
AcDbEntity
  8
0
  6
HIDDEN
 62
     7
370
    18
100
AcDbLine
 10
3476.863764984
 20
2468.3031642936
 30
0.0
 11
3434.363764984
 21
2468.3031642936
 31
0.0
  0
LINE
  5
14A
330
1F
100
AcDbEntity
  8
0
  6
HIDDEN
 62
     7
370
    18
100
AcDbLine
 10
3359.363764984
 20
2331.8031642936
 30
0.0
 11
3434.363764984
 21
2331.8031642936
 31
0.0
  0
LINE
  5
14B
330
1F
100
AcDbEntity
  8
0
  6
HIDDEN
 62
     7
370
    18
100
AcDbLine
 10
3434.363764984
 20
2556.8031642936
 30
0.0
 11
3359.363764984
 21
2556.8031642936
 31
0.0
  0
LINE
  5
14C
330
1F
100
AcDbEntity
  8
0
  6
HIDDEN
 62
     7
370
    18
100
AcDbLine
 10
3359.363764984
 20
2944.3031642936
 30
0.0
 11
3434.363764984
 21
2944.3031642936
 31
0.0
  0
LINE
  5
14D
330
1F
100
AcDbEntity
  8
0
  6
HIDDEN
 62
     7
370
    18
100
AcDbLine
 10
3434.363764984
 20
3394.3031642936
 30
0.0
 11
3359.363764984
 21
3394.3031642936
 31
0.0
  0
LINE
  5
14E
330
1F
100
AcDbEntity
  8
0
  6
HIDDEN
 62
     7
370
    18
100
AcDbLine
 10
4766.863764984
 20
1939.3031642936
 30
0.0
 11
4766.863764984
 21
1945.3031642936
 31
0.0
  0
LINE
  5
14F
330
1F
100
AcDbEntity
  8
0
  6
HIDDEN
 62
     7
370
    18
100
AcDbLine
 10
4742.863764984
 20
1945.3031642936
 30
0.0
 11
4742.863764984
 21
1939.3031642936
 31
0.0
  0
LINE
  5
150
330
1F
100
AcDbEntity
  8
0
  6
HIDDEN
 62
     7
370
    18
100
AcDbLine
 10
3556.863764984
 20
1939.3031642936
 30
0.0
 11
3556.863764984
 21
1945.3031642936
 31
0.0
  0
LINE
  5
151
330
1F
100
AcDbEntity
  8
0
  6
HIDDEN
 62
     7
370
    18
100
AcDbLine
 10
3532.863764984
 20
1945.3031642936
 30
0.0
 11
3532.863764984
 21
1939.3031642936
 31
0.0
  0
LINE
  5
152
330
1F
100
AcDbEntity
  8
0
  6
HIDDEN
 62
     7
370
    18
100
AcDbLine
 10
4814.863764984
 20
3278.1588250575
 30
0.0
 11
4812.563764984
 21
3278.1588250575
 31
0.0
  0
LINE
  5
153
330
1F
100
AcDbEntity
  8
0
  6
HIDDEN
 62
     7
370
    18
100
AcDbLine
 10
4812.563764984
 20
3266.1588250575
 30
0.0
 11
4814.863764984
 21
3266.1588250575
 31
0.0
  0
LINE
  5
154
330
1F
100
AcDbEntity
  8
0
  6
HIDDEN
 62
     7
370
    18
100
AcDbLine
 10
4814.863764984
 20
3072.4475035296
 30
0.0
 11
4812.563764984
 21
3072.4475035296
 31
0.0
  0
LINE
  5
155
330
1F
100
AcDbEntity
  8
0
  6
HIDDEN
 62
     7
370
    18
100
AcDbLine
 10
4812.563764984
 20
3060.4475035296
 30
0.0
 11
4814.863764984
 21
3060.4475035296
 31
0.0
  0
LINE
  5
156
330
1F
100
AcDbEntity
  8
0
  6
HIDDEN
 62
     7
370
    18
100
AcDbLine
 10
4711.863764984
 20
2544.3031642936
 30
0.0
 11
4814.863764984
 21
2544.3031642936
 31
0.0
  0
LINE
  5
157
330
1F
100
AcDbEntity
  8
0
  6
HIDDEN
 62
     7
370
    18
100
AcDbLine
 10
4814.863764984
 20
3794.3031642936
 30
0.0
 11
4711.863764984
 21
3794.3031642936
 31
0.0
  0
LINE
  5
158
330
1F
100
AcDbEntity
  8
0
  6
HIDDEN
 62
     7
370
    18
100
AcDbLine
 10
4814.863764984
 20
3473.8019178723
 30
0.0
 11
4812.563764984
 21
3473.8019178723
 31
0.0
  0
LINE
  5
159
330
1F
100
AcDbEntity
  8
0
  6
HIDDEN
 62
     7
370
    18
100
AcDbLine
 10
4812.563764984
 20
3461.8019178723
 30
0.0
 11
4814.863764984
 21
3461.8019178723
 31
0.0
  0
LINE
  5
15A
330
1F
100
AcDbEntity
  8
0
  6
HIDDEN
 62
     7
370
    18
100
AcDbLine
 10
4814.863764984
 20
2876.8044107148
 30
0.0
 11
4812.563764984
 21
2876.8044107148
 31
0.0
  0
LINE
  5
15B
330
1F
100
AcDbEntity
  8
0
  6
HIDDEN
 62
     7
370
    18
100
AcDbLine
 10
4812.563764984
 20
2864.8044107148
 30
0.0
 11
4814.863764984
 21
2864.8044107148
 31
0.0
  0
LINE
  5
15C
330
1F
100
AcDbEntity
  8
0
  6
HIDDEN
 62
     7
370
    18
100
AcDbLine
 10
4814.863764984
 20
2710.3804556634
 30
0.0
 11
4812.563764984
 21
2710.3804556634
 31
0.0
  0
LINE
  5
15D
330
1F
100
AcDbEntity
  8
0
  6
HIDDEN
 62
     7
370
    18
100
AcDbLine
 10
4812.563764984
 20
2698.3804556634
 30
0.0
 11
4814.863764984
 21
2698.3804556634
 31
0.0
  0
LINE
  5
15E
330
1F
100
AcDbEntity
  8
0
  6
HIDDEN
 62
     7
370
    18
100
AcDbLine
 10
4814.863764984
 20
3640.2258729237
 30
0.0
 11
4812.563764984
 21
3640.2258729237
 31
0.0
  0
LINE
  5
15F
330
1F
100
AcDbEntity
  8
0
  6
HIDDEN
 62
     7
370
    18
100
AcDbLine
 10
4812.563764984
 20
3628.2258729237
 30
0.0
 11
4814.863764984
 21
3628.2258729237
 31
0.0
  0
LINE
  5
160
330
1F
100
AcDbEntity
  8
0
  6
HIDDEN
 62
     7
370
    18
100
AcDbLine
 10
4814.863764984
 20
2589.4663746397
 30
0.0
 11
4812.563764984
 21
2589.4663746397
 31
0.0
  0
LINE
  5
161
330
1F
100
AcDbEntity
  8
0
  6
HIDDEN
 62
     7
370
    18
100
AcDbLine
 10
4812.563764984
 20
2577.4663746397
 30
0.0
 11
4814.863764984
 21
2577.4663746397
 31
0.0
  0
LINE
  5
162
330
1F
100
AcDbEntity
  8
0
  6
HIDDEN
 62
     7
370
    18
100
AcDbLine
 10
4814.863764984
 20
3761.1399539474
 30
0.0
 11
4812.563764984
 21
3761.1399539474
 31
0.0
  0
LINE
  5
163
330
1F
100
AcDbEntity
  8
0
  6
HIDDEN
 62
     7
370
    18
100
AcDbLine
 10
4812.563764984
 20
3749.1399539474
 30
0.0
 11
4814.863764984
 21
3749.1399539474
 31
0.0
  0
LINE
  5
164
330
1F
100
AcDbEntity
  8
0
  6
HIDDEN
 62
     7
370
    18
100
AcDbLine
 10
4814.863764984
 20
2525.8980803523
 30
0.0
 11
4812.563764984
 21
2525.8980803523
 31
0.0
  0
LINE
  5
165
330
1F
100
AcDbEntity
  8
0
  6
HIDDEN
 62
     7
370
    18
100
AcDbLine
 10
4812.563764984
 20
2513.8980803523
 30
0.0
 11
4814.863764984
 21
2513.8980803523
 31
0.0
  0
LINE
  5
166
330
1F
100
AcDbEntity
  8
0
  6
HIDDEN
 62
     7
370
    18
100
AcDbLine
 10
4814.863764984
 20
3824.7082482349
 30
0.0
 11
4812.563764984
 21
3824.7082482349
 31
0.0
  0
LINE
  5
167
330
1F
100
AcDbEntity
  8
0
  6
HIDDEN
 62
     7
370
    18
100
AcDbLine
 10
4812.563764984
 20
3812.7082482349
 30
0.0
 11
4814.863764984
 21
3812.7082482349
 31
0.0
  0
LINE
  5
168
330
1F
100
AcDbEntity
  8
0
  6
HIDDEN
 62
     7
370
    18
100
AcDbLine
 10
4738.863764984
 20
3994.3031642936
 30
0.0
 11
4738.863764984
 21
3990.3031642936
 31
0.0
  0
LINE
  5
169
330
1F
100
AcDbEntity
  8
0
  6
HIDDEN
 62
     7
370
    18
100
AcDbLine
 10
4750.863764984
 20
3990.3031642936
 30
0.0
 11
4750.863764984
 21
3994.3031642936
 31
0.0
  0
LINE
  5
16A
330
1F
100
AcDbEntity
  8
0
  6
HIDDEN
 62
     7
370
    18
100
AcDbLine
 10
4630.863764984
 20
3994.3031642936
 30
0.0
 11
4630.863764984
 21
3990.3031642936
 31
0.0
  0
LINE
  5
16B
330
1F
100
AcDbEntity
  8
0
  6
HIDDEN
 62
     7
370
    18
100
AcDbLine
 10
4642.863764984
 20
3990.3031642936
 30
0.0
 11
4642.863764984
 21
3994.3031642936
 31
0.0
  0
LINE
  5
16C
330
1F
100
AcDbEntity
  8
0
  6
HIDDEN
 62
     7
370
    18
100
AcDbLine
 10
4430.863764984
 20
3994.3031642936
 30
0.0
 11
4430.863764984
 21
3990.3031642936
 31
0.0
  0
LINE
  5
16D
330
1F
100
AcDbEntity
  8
0
  6
HIDDEN
 62
     7
370
    18
100
AcDbLine
 10
4442.863764984
 20
3990.3031642936
 30
0.0
 11
4442.863764984
 21
3994.3031642936
 31
0.0
  0
LINE
  5
16E
330
1F
100
AcDbEntity
  8
0
  6
HIDDEN
 62
     7
370
    18
100
AcDbLine
 10
4230.863764984
 20
3994.3031642936
 30
0.0
 11
4230.863764984
 21
3990.3031642936
 31
0.0
  0
LINE
  5
16F
330
1F
100
AcDbEntity
  8
0
  6
HIDDEN
 62
     7
370
    18
100
AcDbLine
 10
4242.863764984
 20
3990.3031642936
 30
0.0
 11
4242.863764984
 21
3994.3031642936
 31
0.0
  0
LINE
  5
170
330
1F
100
AcDbEntity
  8
0
  6
HIDDEN
 62
     7
370
    18
100
AcDbLine
 10
4030.863764984
 20
3994.3031642936
 30
0.0
 11
4030.863764984
 21
3990.3031642936
 31
0.0
  0
LINE
  5
171
330
1F
100
AcDbEntity
  8
0
  6
HIDDEN
 62
     7
370
    18
100
AcDbLine
 10
4042.863764984
 20
3990.3031642936
 30
0.0
 11
4042.863764984
 21
3994.3031642936
 31
0.0
  0
LINE
  5
172
330
1F
100
AcDbEntity
  8
0
  6
HIDDEN
 62
     7
370
    18
100
AcDbLine
 10
3830.863764984
 20
3994.3031642936
 30
0.0
 11
3830.863764984
 21
3990.3031642936
 31
0.0
  0
LINE
  5
173
330
1F
100
AcDbEntity
  8
0
  6
HIDDEN
 62
     7
370
    18
100
AcDbLine
 10
3842.863764984
 20
3990.3031642936
 30
0.0
 11
3842.863764984
 21
3994.3031642936
 31
0.0
  0
LINE
  5
174
330
1F
100
AcDbEntity
  8
0
  6
HIDDEN
 62
     7
370
    18
100
AcDbLine
 10
3722.863764984
 20
3994.3031642936
 30
0.0
 11
3722.863764984
 21
3990.3031642936
 31
0.0
  0
LINE
  5
175
330
1F
100
AcDbEntity
  8
0
  6
HIDDEN
 62
     7
370
    18
100
AcDbLine
 10
3734.863764984
 20
3990.3031642936
 30
0.0
 11
3734.863764984
 21
3994.3031642936
 31
0.0
  0
LINE
  5
176
330
1F
100
AcDbEntity
  8
2
100
AcDbLine
 10
3687.1897835093
 20
3169.3031642936
 30
0.0
 11
4451.1155148751
 21
3169.3031642936
 31
0.0
  0
LINE
  5
177
330
1F
100
AcDbEntity
  8
2
100
AcDbLine
 10
4236.863764984
 20
2593.8401111378
 30
0.0
 11
4236.863764984
 21
3480.151876986
 31
0.0
  0
LINE
  5
178
330
1F
100
AcDbEntity
  8
1
100
AcDbLine
 10
2300.7881018633
 20
4630.2321940624
 30
0.0
 11
2300.7881018633
 21
4790.2321940624
 31
0.0
  0
LINE
  5
179
330
1F
100
AcDbEntity
  8
1
100
AcDbLine
 10
313.2881018633
 20
4790.2321940624
 30
0.0
 11
313.2881018633
 21
4630.2321940624
 31
0.0
  0
LINE
  5
17A
330
1F
100
AcDbEntity
  8
1
100
AcDbLine
 10
721.2881018633
 20
4857.7321940624
 30
0.0
 11
721.2881018633
 21
5022.2321940624
 31
0.0
  0
LINE
  5
17B
330
1F
100
AcDbEntity
  8
1
100
AcDbLine
 10
330.2881018633
 20
5412.7321940624
 30
0.0
 11
330.2881018633
 21
4857.7321940624
 31
0.0
  0
LINE
  5
17C
330
1F
100
AcDbEntity
  8
1
100
AcDbLine
 10
549.7881018633
 20
4790.2321940624
 30
0.0
 11
549.7881018633
 21
4857.7321940624
 31
0.0
  0
LINE
  5
17D
330
1F
100
AcDbEntity
  8
1
100
AcDbLine
 10
501.7881018633
 20
4857.7321940624
 30
0.0
 11
501.7881018633
 21
4790.2321940624
 31
0.0
  0
LINE
  5
17E
330
1F
100
AcDbEntity
  8
1
100
AcDbLine
 10
1300.7881018633
 20
6128.2321940624
 30
0.0
 11
1300.7881018633
 21
6125.9321940624
 31
0.0
  0
LINE
  5
17F
330
1F
100
AcDbEntity
  8
1
100
AcDbLine
 10
2650.7881018633
 20
6125.9321940624
 30
0.0
 11
2650.7881018633
 21
6128.2321940624
 31
0.0
  0
LINE
  5
180
330
1F
100
AcDbEntity
  8
1
100
AcDbLine
 10
2650.7881018633
 20
6028.4321940624
 30
0.0
 11
2650.7881018633
 21
6035.2321940624
 31
0.0
  0
LINE
  5
181
330
1F
100
AcDbEntity
  8
1
100
AcDbLine
 10
1348.4881018633
 20
6125.9321940624
 30
0.0
 11
1348.4881018633
 21
6078.2321940624
 31
0.0
  0
LINE
  5
182
330
1F
100
AcDbEntity
  8
1
100
AcDbLine
 10
2603.0881018633
 20
6035.2321940624
 30
0.0
 11
2603.0881018633
 21
6125.9321940624
 31
0.0
  0
LINE
  5
183
330
1F
100
AcDbEntity
  8
1
100
AcDbLine
 10
2300.7881018633
 20
4630.2321940624
 30
0.0
 11
1810.6216591227
 21
4630.2321940624
 31
0.0
  0
LINE
  5
184
330
1F
100
AcDbEntity
  8
1
100
AcDbLine
 10
2300.7881018633
 20
4790.2321940624
 30
0.0
 11
1810.6216591227
 21
4790.2321940624
 31
0.0
  0
LINE
  5
185
330
1F
100
AcDbEntity
  8
1
100
AcDbLine
 10
1810.6216591227
 20
4630.2321940624
 30
0.0
 11
417.7946585329
 21
4630.2321940624
 31
0.0
  0
LINE
  5
186
330
1F
100
AcDbEntity
  8
1
100
AcDbLine
 10
1810.6216591227
 20
4790.2321940624
 30
0.0
 11
417.7946585329
 21
4790.2321940624
 31
0.0
  0
LINE
  5
187
330
1F
100
AcDbEntity
  8
1
100
AcDbLine
 10
417.7946585329
 20
4630.2321940624
 30
0.0
 11
313.2881018633
 21
4630.2321940624
 31
0.0
  0
LINE
  5
188
330
1F
100
AcDbEntity
  8
1
100
AcDbLine
 10
417.7946585329
 20
4790.2321940624
 30
0.0
 11
313.2881018633
 21
4790.2321940624
 31
0.0
  0
LINE
  5
189
330
1F
100
AcDbEntity
  8
1
100
AcDbLine
 10
588.7881018633
 20
5412.7321940624
 30
0.0
 11
330.2881018633
 21
5412.7321940624
 31
0.0
  0
LINE
  5
18A
330
1F
100
AcDbEntity
  8
1
100
AcDbLine
 10
330.2881018633
 20
4857.7321940624
 30
0.0
 11
721.2881018633
 21
4857.7321940624
 31
0.0
  0
LINE
  5
18B
330
1F
100
AcDbEntity
  8
1
100
AcDbLine
 10
300.7881018633
 20
5304.2321940624
 30
0.0
 11
330.2881018633
 21
5304.2321940624
 31
0.0
  0
LINE
  5
18C
330
1F
100
AcDbEntity
  8
1
100
AcDbLine
 10
750.7881018633
 20
5022.2321940624
 30
0.0
 11
750.7881018633
 21
4894.2321940624
 31
0.0
  0
LINE
  5
18D
330
1F
100
AcDbEntity
  8
1
100
AcDbLine
 10
750.7881018633
 20
4894.2321940624
 30
0.0
 11
721.2881018633
 21
4894.2321940624
 31
0.0
  0
LINE
  5
18E
330
1F
100
AcDbEntity
  8
1
100
AcDbLine
 10
330.2881018633
 20
4894.2321940624
 30
0.0
 11
300.7881018633
 21
4894.2321940624
 31
0.0
  0
LINE
  5
18F
330
1F
100
AcDbEntity
  8
1
100
AcDbLine
 10
300.7881018633
 20
4894.2321940624
 30
0.0
 11
300.7881018633
 21
5304.2321940624
 31
0.0
  0
LINE
  5
190
330
1F
100
AcDbEntity
  8
1
100
AcDbLine
 10
175.7881018633
 20
4823.2321940624
 30
0.0
 11
501.7881018633
 21
4823.2321940624
 31
0.0
  0
LINE
  5
191
330
1F
100
AcDbEntity
  8
1
100
AcDbLine
 10
549.7881018633
 20
4823.2321940624
 30
0.0
 11
2725.7881018633
 21
4823.2321940624
 31
0.0
  0
LINE
  5
192
330
1F
100
AcDbEntity
  8
1
100
AcDbLine
 10
175.7881018633
 20
6103.2321940624
 30
0.0
 11
175.7881018633
 21
4823.2321940624
 31
0.0
  0
LINE
  5
193
330
1F
100
AcDbEntity
  8
1
100
AcDbLine
 10
2725.7881018633
 20
6103.2321940624
 30
0.0
 11
2603.0881018633
 21
6103.2321940624
 31
0.0
  0
LINE
  5
194
330
1F
100
AcDbEntity
  8
1
100
AcDbLine
 10
1348.4881018633
 20
6103.2321940624
 30
0.0
 11
175.7881018633
 21
6103.2321940624
 31
0.0
  0
LINE
  5
195
330
1F
100
AcDbEntity
  8
1
100
AcDbLine
 10
250.7881018633
 20
4898.2321940624
 30
0.0
 11
300.7881018633
 21
4898.2321940624
 31
0.0
  0
LINE
  5
196
330
1F
100
AcDbEntity
  8
1
100
AcDbLine
 10
750.7881018633
 20
4898.2321940624
 30
0.0
 11
2650.7881018633
 21
4898.2321940624
 31
0.0
  0
LINE
  5
197
330
1F
100
AcDbEntity
  8
1
100
AcDbLine
 10
2650.7881018633
 20
4898.2321940624
 30
0.0
 11
2650.7881018633
 21
5072.0321940624
 31
0.0
  0
LINE
  5
198
330
1F
100
AcDbEntity
  8
1
100
AcDbLine
 10
588.7881018633
 20
6028.2321940624
 30
0.0
 11
250.7881018633
 21
6028.2321940624
 31
0.0
  0
LINE
  5
199
330
1F
100
AcDbEntity
  8
1
100
AcDbLine
 10
250.7881018633
 20
6028.2321940624
 30
0.0
 11
250.7881018633
 21
4898.2321940624
 31
0.0
  0
LINE
  5
19A
330
1F
100
AcDbEntity
  8
1
100
AcDbLine
 10
2725.7881018633
 20
4823.2321940624
 30
0.0
 11
2725.7881018633
 21
5072.0321940624
 31
0.0
  0
LINE
  5
19B
330
1F
100
AcDbEntity
  8
1
100
AcDbLine
 10
2725.7881018633
 20
6028.4321940624
 30
0.0
 11
2725.7881018633
 21
6103.2321940624
 31
0.0
  0
CIRCLE
  5
19C
330
1F
100
AcDbEntity
  8
1
100
AcDbCircle
 10
608.7881018633
 20
5042.2321940624
 30
0.0
 40
6.0
  0
CIRCLE
  5
19D
330
1F
100
AcDbEntity
  8
1
100
AcDbCircle
 10
608.7881018633
 20
5150.2321940624
 30
0.0
 40
6.0
  0
CIRCLE
  5
19E
330
1F
100
AcDbEntity
  8
1
100
AcDbCircle
 10
608.7881018633
 20
5350.2321940624
 30
0.0
 40
6.0
  0
CIRCLE
  5
19F
330
1F
100
AcDbEntity
  8
1
100
AcDbCircle
 10
608.7881018633
 20
5550.2321940624
 30
0.0
 40
6.0
  0
CIRCLE
  5
1A0
330
1F
100
AcDbEntity
  8
1
100
AcDbCircle
 10
781.7881018633
 20
5042.2321940624
 30
0.0
 40
6.0
  0
CIRCLE
  5
1A1
330
1F
100
AcDbEntity
  8
1
100
AcDbCircle
 10
981.7881018633
 20
5042.2321940624
 30
0.0
 40
6.0
  0
CIRCLE
  5
1A2
330
1F
100
AcDbEntity
  8
1
100
AcDbCircle
 10
1181.7881018633
 20
5042.2321940624
 30
0.0
 40
6.0
  0
CIRCLE
  5
1A3
330
1F
100
AcDbEntity
  8
1
100
AcDbCircle
 10
1181.7881018633
 20
6058.2321940624
 30
0.0
 40
6.000000000000909
  0
CIRCLE
  5
1A4
330
1F
100
AcDbEntity
  8
1
100
AcDbCircle
 10
981.7881018633
 20
6058.2321940624
 30
0.0
 40
6.000000000000909
  0
CIRCLE
  5
1A5
330
1F
100
AcDbEntity
  8
1
100
AcDbCircle
 10
781.7881018633
 20
6058.2321940624
 30
0.0
 40
6.000000000000909
  0
CIRCLE
  5
1A6
330
1F
100
AcDbEntity
  8
1
100
AcDbCircle
 10
608.7881018633
 20
5750.2321940624
 30
0.0
 40
6.0
  0
CIRCLE
  5
1A7
330
1F
100
AcDbEntity
  8
1
100
AcDbCircle
 10
608.7881018633
 20
5950.2321940624
 30
0.0
 40
5.999999999999091
  0
CIRCLE
  5
1A8
330
1F
100
AcDbEntity
  8
1
100
AcDbCircle
 10
608.7881018633
 20
6058.2321940624
 30
0.0
 40
6.000000000000909
  0
CIRCLE
  5
1A9
330
1F
100
AcDbEntity
  8
1
100
AcDbCircle
 10
1954.7881018633
 20
6058.2321940624
 30
0.0
 40
6.000000000000909
  0
CIRCLE
  5
1AA
330
1F
100
AcDbEntity
  8
1
100
AcDbCircle
 10
1954.7881018633
 20
5950.2321940624
 30
0.0
 40
5.999999999999091
  0
CIRCLE
  5
1AB
330
1F
100
AcDbEntity
  8
1
100
AcDbCircle
 10
1954.7881018633
 20
5750.2321940624
 30
0.0
 40
6.0
  0
CIRCLE
  5
1AC
330
1F
100
AcDbEntity
  8
1
100
AcDbCircle
 10
1781.7881018633
 20
6058.2321940624
 30
0.0
 40
6.000000000000909
  0
CIRCLE
  5
1AD
330
1F
100
AcDbEntity
  8
1
100
AcDbCircle
 10
1581.7881018633
 20
6058.2321940624
 30
0.0
 40
6.000000000000909
  0
CIRCLE
  5
1AE
330
1F
100
AcDbEntity
  8
1
100
AcDbCircle
 10
1381.7881018633
 20
6058.2321940624
 30
0.0
 40
6.000000000000909
  0
CIRCLE
  5
1AF
330
1F
100
AcDbEntity
  8
1
100
AcDbCircle
 10
1381.7881018633
 20
5042.2321940624
 30
0.0
 40
6.0
  0
CIRCLE
  5
1B0
330
1F
100
AcDbEntity
  8
1
100
AcDbCircle
 10
1581.7881018633
 20
5042.2321940624
 30
0.0
 40
6.0
  0
CIRCLE
  5
1B1
330
1F
100
AcDbEntity
  8
1
100
AcDbCircle
 10
1781.7881018633
 20
5042.2321940624
 30
0.0
 40
6.0
  0
CIRCLE
  5
1B2
330
1F
100
AcDbEntity
  8
1
100
AcDbCircle
 10
1954.7881018633
 20
5550.2321940624
 30
0.0
 40
6.0
  0
CIRCLE
  5
1B3
330
1F
100
AcDbEntity
  8
1
100
AcDbCircle
 10
1954.7881018633
 20
5350.2321940624
 30
0.0
 40
6.0
  0
CIRCLE
  5
1B4
330
1F
100
AcDbEntity
  8
1
100
AcDbCircle
 10
1954.7881018633
 20
5042.2321940624
 30
0.0
 40
6.0
  0
LINE
  5
1B5
330
1F
100
AcDbEntity
  8
1
100
AcDbLine
 10
588.7881018633
 20
6078.2321940624
 30
0.0
 11
588.7881018633
 21
5022.2321940624
 31
0.0
  0
LINE
  5
1B6
330
1F
100
AcDbEntity
  8
1
100
AcDbLine
 10
1974.7881018633
 20
6078.2321940624
 30
0.0
 11
588.7881018633
 21
6078.2321940624
 31
0.0
  0
LINE
  5
1B7
330
1F
100
AcDbEntity
  8
1
100
AcDbLine
 10
588.7881018633
 20
5022.2321940624
 30
0.0
 11
1974.7881018633
 21
5022.2321940624
 31
0.0
  0
LINE
  5
1B8
330
1F
100
AcDbEntity
  8
1
100
AcDbLine
 10
641.7881018633
 20
5075.2321940624
 30
0.0
 11
641.7881018633
 21
6025.2321940624
 31
0.0
  0
LINE
  5
1B9
330
1F
100
AcDbEntity
  8
1
100
AcDbLine
 10
1921.7881018633
 20
5075.2321940624
 30
0.0
 11
641.7881018633
 21
5075.2321940624
 31
0.0
  0
LINE
  5
1BA
330
1F
100
AcDbEntity
  8
1
100
AcDbLine
 10
1921.7881018633
 20
5075.2321940624
 30
0.0
 11
1921.7881018633
 21
6025.2321940624
 31
0.0
  0
LINE
  5
1BB
330
1F
100
AcDbEntity
  8
1
100
AcDbLine
 10
1921.7881018633
 20
6025.2321940624
 30
0.0
 11
641.7881018633
 21
6025.2321940624
 31
0.0
  0
CIRCLE
  5
1BC
330
1F
100
AcDbEntity
  8
1
100
AcDbCircle
 10
1954.7881018633
 20
5150.2321940624
 30
0.0
 40
6.0
  0
LINE
  5
1BD
330
1F
100
AcDbEntity
  8
1
100
AcDbLine
 10
1974.7881018633
 20
5022.2321940624
 30
0.0
 11
1974.7881018633
 21
6078.2321940624
 31
0.0
  0
LINE
  5
1BE
330
1F
100
AcDbEntity
  8
1
100
AcDbLine
 10
2875.0881018633
 20
5072.0321940624
 30
0.0
 11
2875.0881018633
 21
6028.4321940624
 31
0.0
  0
LINE
  5
1BF
330
1F
100
AcDbEntity
  8
1
100
AcDbLine
 10
2875.0881018633
 20
5072.0321940624
 30
0.0
 11
2052.7881018633
 21
5072.0321940624
 31
0.0
  0
LINE
  5
1C0
330
1F
100
AcDbEntity
  8
1
100
AcDbLine
 10
2875.0881018633
 20
6028.4321940624
 30
0.0
 11
2052.7881018633
 21
6028.4321940624
 31
0.0
  0
LINE
  5
1C1
330
1F
100
AcDbEntity
  8
1
100
AcDbLine
 10
2052.7881018633
 20
5072.0321940624
 30
0.0
 11
1974.7881018633
 21
5072.0321940624
 31
0.0
  0
LINE
  5
1C2
330
1F
100
AcDbEntity
  8
1
100
AcDbLine
 10
2052.7881018633
 20
6028.4321940624
 30
0.0
 11
1974.7881018633
 21
6028.4321940624
 31
0.0
  0
LINE
  5
1C3
330
1F
100
AcDbEntity
  8
1
100
AcDbLine
 10
1300.7881018633
 20
6128.2321940624
 30
0.0
 11
2650.7881018633
 21
6128.2321940624
 31
0.0
  0
LINE
  5
1C4
330
1F
100
AcDbEntity
  8
1
100
AcDbLine
 10
1300.7881018633
 20
6125.9321940624
 30
0.0
 11
2650.7881018633
 21
6125.9321940624
 31
0.0
  0
LINE
  5
1C5
330
1F
100
AcDbEntity
  8
1
100
AcDbLine
 10
1975.7881018633
 20
6035.2321940624
 30
0.0
 11
1974.7881018633
 21
6035.2321940624
 31
0.0
  0
LINE
  5
1C6
330
1F
100
AcDbEntity
  8
1
100
AcDbLine
 10
2650.7881018633
 20
6035.2321940624
 30
0.0
 11
1975.7881018633
 21
6035.2321940624
 31
0.0
  0
LINE
  5
1C7
330
1F
100
AcDbEntity
  8
0
  6
HIDDEN
 62
     7
370
    18
100
AcDbLine
 10
416.3520474754
 20
4937.2321940624
 30
0.0
 11
431.0291972686
 21
4937.2321940624
 31
0.0
  0
LINE
  5
1C8
330
1F
100
AcDbEntity
  8
0
  6
HIDDEN
 62
     7
370
    18
100
AcDbLine
 10
416.3520474754
 20
4937.2321940624
 30
0.0
 11
416.3520474754
 21
5261.2321940624
 31
0.0
  0
LINE
  5
1C9
330
1F
100
AcDbEntity
  8
0
  6
HIDDEN
 62
     7
370
    18
100
AcDbLine
 10
416.3520474754
 20
5261.2321940624
 30
0.0
 11
431.0291972686
 21
5261.2321940624
 31
0.0
  0
LINE
  5
1CA
330
1F
100
AcDbEntity
  8
0
  6
HIDDEN
 62
     7
370
    18
100
AcDbLine
 10
431.0291972686
 20
5412.7321940624
 30
0.0
 11
431.0291972686
 21
5261.2321940624
 31
0.0
  0
LINE
  5
1CB
330
1F
100
AcDbEntity
  8
0
  6
HIDDEN
 62
     7
370
    18
100
AcDbLine
 10
721.2881018633
 20
5412.7321940624
 30
0.0
 11
588.7881018633
 21
5412.7321940624
 31
0.0
  0
LINE
  5
1CC
330
1F
100
AcDbEntity
  8
0
  6
HIDDEN
 62
     7
370
    18
100
AcDbLine
 10
620.5470064581
 20
5412.7321940624
 30
0.0
 11
620.5470064581
 21
5261.2321940624
 31
0.0
  0
LINE
  5
1CD
330
1F
100
AcDbEntity
  8
0
  6
HIDDEN
 62
     7
370
    18
100
AcDbLine
 10
620.5470064581
 20
5261.2321940624
 30
0.0
 11
635.2241562513
 21
5261.2321940624
 31
0.0
  0
LINE
  5
1CE
330
1F
100
AcDbEntity
  8
0
  6
HIDDEN
 62
     7
370
    18
100
AcDbLine
 10
635.2241562513
 20
5261.2321940624
 30
0.0
 11
635.2241562513
 21
4937.2321940624
 31
0.0
  0
LINE
  5
1CF
330
1F
100
AcDbEntity
  8
0
  6
HIDDEN
 62
     7
370
    18
100
AcDbLine
 10
620.5470064581
 20
4937.2321940624
 30
0.0
 11
635.2241562513
 21
4937.2321940624
 31
0.0
  0
LINE
  5
1D0
330
1F
100
AcDbEntity
  8
0
  6
HIDDEN
 62
     7
370
    18
100
AcDbLine
 10
620.5470064581
 20
4937.2321940624
 30
0.0
 11
620.5470064581
 21
4857.7321940624
 31
0.0
  0
LINE
  5
1D1
330
1F
100
AcDbEntity
  8
0
  6
HIDDEN
 62
     7
370
    18
100
AcDbLine
 10
431.0291972686
 20
4937.2321940624
 30
0.0
 11
431.0291972686
 21
4857.7321940624
 31
0.0
  0
LINE
  5
1D2
330
1F
100
AcDbEntity
  8
0
  6
HIDDEN
 62
     7
370
    18
100
AcDbLine
 10
382.7881018633
 20
4937.2321940624
 30
0.0
 11
382.7881018633
 21
5261.2321940624
 31
0.0
  0
LINE
  5
1D3
330
1F
100
AcDbEntity
  8
0
  6
HIDDEN
 62
     7
370
    18
100
AcDbLine
 10
416.3520474754
 20
5261.2321940624
 30
0.0
 11
382.7881018633
 21
5261.2321940624
 31
0.0
  0
LINE
  5
1D4
330
1F
100
AcDbEntity
  8
0
  6
HIDDEN
 62
     7
370
    18
100
AcDbLine
 10
416.3520474754
 20
4937.2321940624
 30
0.0
 11
382.7881018633
 21
4937.2321940624
 31
0.0
  0
LINE
  5
1D5
330
1F
100
AcDbEntity
  8
0
  6
HIDDEN
 62
     7
370
    18
100
AcDbLine
 10
668.7881018633
 20
4937.2321940624
 30
0.0
 11
668.7881018633
 21
5261.2321940624
 31
0.0
  0
LINE
  5
1D6
330
1F
100
AcDbEntity
  8
0
  6
HIDDEN
 62
     7
370
    18
100
AcDbLine
 10
668.7881018633
 20
4937.2321940624
 30
0.0
 11
635.2241562513
 21
4937.2321940624
 31
0.0
  0
LINE
  5
1D7
330
1F
100
AcDbEntity
  8
0
  6
HIDDEN
 62
     7
370
    18
100
AcDbLine
 10
668.7881018633
 20
5261.2321940624
 30
0.0
 11
635.2241562513
 21
5261.2321940624
 31
0.0
  0
LINE
  5
1D8
330
1F
100
AcDbEntity
  8
0
  6
HIDDEN
 62
     7
370
    18
100
AcDbLine
 10
431.0291972686
 20
5261.2321940624
 30
0.0
 11
620.5470064581
 21
5261.2321940624
 31
0.0
  0
LINE
  5
1D9
330
1F
100
AcDbEntity
  8
0
  6
HIDDEN
 62
     7
370
    18
100
AcDbLine
 10
431.0291972686
 20
4937.2321940624
 30
0.0
 11
620.5470064581
 21
4937.2321940624
 31
0.0
  0
LINE
  5
1DA
330
1F
100
AcDbEntity
  8
0
  6
HIDDEN
 62
     7
370
    18
100
AcDbLine
 10
330.2881018633
 20
5304.2321940624
 30
0.0
 11
750.7881018633
 21
5304.2321940624
 31
0.0
  0
LINE
  5
1DB
330
1F
100
AcDbEntity
  8
0
  6
HIDDEN
 62
     7
370
    18
100
AcDbLine
 10
750.7881018633
 20
5304.2321940624
 30
0.0
 11
750.7881018633
 21
5022.2321940624
 31
0.0
  0
LINE
  5
1DC
330
1F
100
AcDbEntity
  8
0
  6
HIDDEN
 62
     7
370
    18
100
AcDbLine
 10
721.2881018633
 20
4894.2321940624
 30
0.0
 11
330.2881018633
 21
4894.2321940624
 31
0.0
  0
LINE
  5
1DD
330
1F
100
AcDbEntity
  8
0
  6
HIDDEN
 62
     7
370
    18
100
AcDbLine
 10
413.2881018633
 20
4672.7321940624
 30
0.0
 11
638.2881018633
 21
4672.7321940624
 31
0.0
  0
LINE
  5
1DE
330
1F
100
AcDbEntity
  8
0
  6
HIDDEN
 62
     7
370
    18
100
AcDbLine
 10
413.2881018633
 20
4747.7321940624
 30
0.0
 11
638.2881018633
 21
4747.7321940624
 31
0.0
  0
LINE
  5
1DF
330
1F
100
AcDbEntity
  8
0
  6
HIDDEN
 62
     7
370
    18
100
AcDbLine
 10
1967.169041284
 20
4672.7321940624
 30
0.0
 11
2200.7881018633
 21
4672.7321940624
 31
0.0
  0
LINE
  5
1E0
330
1F
100
AcDbEntity
  8
0
  6
HIDDEN
 62
     7
370
    18
100
AcDbLine
 10
1750.7881018633
 20
4672.7321940624
 30
0.0
 11
1967.169041284
 21
4672.7321940624
 31
0.0
  0
LINE
  5
1E1
330
1F
100
AcDbEntity
  8
0
  6
HIDDEN
 62
     7
370
    18
100
AcDbLine
 10
1967.169041284
 20
4747.7321940624
 30
0.0
 11
2200.7881018633
 21
4747.7321940624
 31
0.0
  0
LINE
  5
1E2
330
1F
100
AcDbEntity
  8
0
  6
HIDDEN
 62
     7
370
    18
100
AcDbLine
 10
1750.7881018633
 20
4747.7321940624
 30
0.0
 11
1967.169041284
 21
4747.7321940624
 31
0.0
  0
LINE
  5
1E3
330
1F
100
AcDbEntity
  8
0
  6
HIDDEN
 62
     7
370
    18
100
AcDbLine
 10
2656.7881018633
 20
4892.2321940624
 30
0.0
 11
2656.7881018633
 21
6034.2321940624
 31
0.0
  0
LINE
  5
1E4
330
1F
100
AcDbEntity
  8
0
  6
HIDDEN
 62
     7
370
    18
100
AcDbLine
 10
2656.7881018633
 20
6034.2321940624
 30
0.0
 11
244.7881018633
 21
6034.2321940624
 31
0.0
  0
LINE
  5
1E5
330
1F
100
AcDbEntity
  8
0
  6
HIDDEN
 62
     7
370
    18
100
AcDbLine
 10
244.7881018633
 20
6034.2321940624
 30
0.0
 11
244.7881018633
 21
4892.2321940624
 31
0.0
  0
LINE
  5
1E6
330
1F
100
AcDbEntity
  8
0
  6
HIDDEN
 62
     7
370
    18
100
AcDbLine
 10
244.7881018633
 20
4892.2321940624
 30
0.0
 11
2656.7881018633
 21
4892.2321940624
 31
0.0
  0
CIRCLE
  5
1E7
330
1F
100
AcDbEntity
  8
0
  6
HIDDEN
 62
     7
370
    18
100
AcDbCircle
 10
295.7881018633
 20
6068.2321940624
 30
0.0
 40
11.99999999999909
  0
CIRCLE
  5
1E8
330
1F
100
AcDbEntity
  8
0
  6
HIDDEN
 62
     7
370
    18
100
AcDbCircle
 10
1065.7881018633
 20
6068.2321940624
 30
0.0
 40
11.99999999999909
  0
CIRCLE
  5
1E9
330
1F
100
AcDbEntity
  8
0
  6
HIDDEN
 62
     7
370
    18
100
AcDbCircle
 10
1835.7881018633
 20
6068.2321940624
 30
0.0
 40
12.0
  0
CIRCLE
  5
1EA
330
1F
100
AcDbEntity
  8
0
  6
HIDDEN
 62
     7
370
    18
100
AcDbCircle
 10
2605.7881018633
 20
6068.2321940624
 30
0.0
 40
12.0
  0
CIRCLE
  5
1EB
330
1F
100
AcDbEntity
  8
0
  6
HIDDEN
 62
     7
370
    18
100
AcDbCircle
 10
2605.7881018633
 20
4858.2321940624
 30
0.0
 40
12.0
  0
CIRCLE
  5
1EC
330
1F
100
AcDbEntity
  8
0
  6
HIDDEN
 62
     7
370
    18
100
AcDbCircle
 10
1835.7881018633
 20
4858.2321940624
 30
0.0
 40
12.0
  0
CIRCLE
  5
1ED
330
1F
100
AcDbEntity
  8
0
  6
HIDDEN
 62
     7
370
    18
100
AcDbCircle
 10
1065.7881018633
 20
4858.2321940624
 30
0.0
 40
12.0
  0
CIRCLE
  5
1EE
330
1F
100
AcDbEntity
  8
0
  6
HIDDEN
 62
     7
370
    18
100
AcDbCircle
 10
295.7881018633
 20
4858.2321940624
 30
0.0
 40
11.99999999999909
  0
LINE
  5
1EF
330
1F
100
AcDbEntity
  8
0
  6
HIDDEN
 62
     7
370
    18
100
AcDbLine
 10
501.7881018633
 20
4823.2321940624
 30
0.0
 11
549.7881018633
 21
4823.2321940624
 31
0.0
  0
LINE
  5
1F0
330
1F
100
AcDbEntity
  8
0
  6
HIDDEN
 62
     7
370
    18
100
AcDbLine
 10
2603.0881018633
 20
6103.2321940624
 30
0.0
 11
1348.4881018633
 21
6103.2321940624
 31
0.0
  0
LINE
  5
1F1
330
1F
100
AcDbEntity
  8
0
  6
HIDDEN
 62
     7
370
    18
100
AcDbLine
 10
300.7881018633
 20
4898.2321940624
 30
0.0
 11
750.7881018633
 21
4898.2321940624
 31
0.0
  0
LINE
  5
1F2
330
1F
100
AcDbEntity
  8
0
  6
HIDDEN
 62
     7
370
    18
100
AcDbLine
 10
2650.7881018633
 20
5072.0321940624
 30
0.0
 11
2650.7881018633
 21
6028.2321940624
 31
0.0
  0
LINE
  5
1F3
330
1F
100
AcDbEntity
  8
0
  6
HIDDEN
 62
     7
370
    18
100
AcDbLine
 10
2650.7881018633
 20
6028.2321940624
 30
0.0
 11
588.7881018633
 21
6028.2321940624
 31
0.0
  0
LINE
  5
1F4
330
1F
100
AcDbEntity
  8
0
  6
HIDDEN
 62
     7
370
    18
100
AcDbLine
 10
2725.7881018633
 20
5072.0321940624
 30
0.0
 11
2725.7881018633
 21
6028.4321940624
 31
0.0
  0
LINE
  5
1F5
330
1F
100
AcDbEntity
  8
0
  6
HIDDEN
 62
     7
370
    18
100
AcDbLine
 10
2657.2881018633
 20
6034.7321940624
 30
0.0
 11
244.2881018633
 21
6034.7321940624
 31
0.0
  0
LINE
  5
1F6
330
1F
100
AcDbEntity
  8
0
  6
HIDDEN
 62
     7
370
    18
100
AcDbLine
 10
2657.2881018633
 20
4891.7321940624
 30
0.0
 11
2657.2881018633
 21
6034.7321940624
 31
0.0
  0
LINE
  5
1F7
330
1F
100
AcDbEntity
  8
0
  6
HIDDEN
 62
     7
370
    18
100
AcDbLine
 10
244.2881018633
 20
6034.7321940624
 30
0.0
 11
244.2881018633
 21
4891.7321940624
 31
0.0
  0
LINE
  5
1F8
330
1F
100
AcDbEntity
  8
0
  6
HIDDEN
 62
     7
370
    18
100
AcDbLine
 10
244.2881018633
 20
4891.7321940624
 30
0.0
 11
2657.2881018633
 21
4891.7321940624
 31
0.0
  0
CIRCLE
  5
1F9
330
1F
100
AcDbEntity
  8
0
  6
HIDDEN
 62
     7
370
    18
100
AcDbCircle
 10
250.7881018633
 20
6065.7321940624
 30
0.0
 40
17.5
  0
CIRCLE
  5
1FA
330
1F
100
AcDbEntity
  8
0
  6
HIDDEN
 62
     7
370
    18
100
AcDbCircle
 10
2650.7881018633
 20
6065.7321940624
 30
0.0
 40
17.5
  0
CIRCLE
  5
1FB
330
1F
100
AcDbEntity
  8
0
  6
HIDDEN
 62
     7
370
    18
100
AcDbCircle
 10
2650.7881018633
 20
4860.7321940624
 30
0.0
 40
17.5
  0
CIRCLE
  5
1FC
330
1F
100
AcDbEntity
  8
0
  6
HIDDEN
 62
     7
370
    18
100
AcDbCircle
 10
250.7881018633
 20
4860.7321940624
 30
0.0
 40
17.5
  0
LINE
  5
1FD
330
1F
100
AcDbEntity
  8
0
  6
HIDDEN
 62
     7
370
    18
100
AcDbLine
 10
639.8487792455
 20
6028.4321940624
 30
0.0
 11
1924.0881018633
 21
6028.4321940624
 31
0.0
  0
LINE
  5
1FE
330
1F
100
AcDbEntity
  8
0
  6
HIDDEN
 62
     7
370
    18
100
AcDbLine
 10
639.8487792455
 20
6028.4321940624
 30
0.0
 11
639.8487792455
 21
5072.0321940624
 31
0.0
  0
LINE
  5
1FF
330
1F
100
AcDbEntity
  8
0
  6
HIDDEN
 62
     7
370
    18
100
AcDbLine
 10
1924.0881018633
 20
5072.0321940624
 30
0.0
 11
1924.0881018633
 21
6028.4321940624
 31
0.0
  0
LINE
  5
200
330
1F
100
AcDbEntity
  8
0
  6
HIDDEN
 62
     7
370
    18
100
AcDbLine
 10
639.8487792455
 20
5072.0321940624
 30
0.0
 11
1924.0881018633
 21
5072.0321940624
 31
0.0
  0
LINE
  5
201
330
1F
100
AcDbEntity
  8
0
  6
HIDDEN
 62
     7
370
    18
100
AcDbLine
 10
1974.7881018633
 20
5072.0321940624
 30
0.0
 11
1924.0881018633
 21
5072.0321940624
 31
0.0
  0
LINE
  5
202
330
1F
100
AcDbEntity
  8
0
  6
HIDDEN
 62
     7
370
    18
100
AcDbLine
 10
1974.7881018633
 20
6028.4321940624
 30
0.0
 11
1924.0881018633
 21
6028.4321940624
 31
0.0
  0
LINE
  5
203
330
1F
100
AcDbEntity
  8
0
  6
HIDDEN
 62
     7
370
    18
100
AcDbLine
 10
2872.7881018633
 20
5075.2321940624
 30
0.0
 11
2872.7881018633
 21
6025.2321940624
 31
0.0
  0
LINE
  5
204
330
1F
100
AcDbEntity
  8
0
  6
HIDDEN
 62
     7
370
    18
100
AcDbLine
 10
2872.7881018633
 20
5075.2321940624
 30
0.0
 11
2052.7881018633
 21
5075.2321940624
 31
0.0
  0
LINE
  5
205
330
1F
100
AcDbEntity
  8
0
  6
HIDDEN
 62
     7
370
    18
100
AcDbLine
 10
2872.7881018633
 20
6025.2321940624
 30
0.0
 11
2052.7881018633
 21
6025.2321940624
 31
0.0
  0
LINE
  5
206
330
1F
100
AcDbEntity
  8
0
  6
HIDDEN
 62
     7
370
    18
100
AcDbLine
 10
2052.7881018633
 20
5075.2321940624
 30
0.0
 11
1921.7881018633
 21
5075.2321940624
 31
0.0
  0
LINE
  5
207
330
1F
100
AcDbEntity
  8
0
  6
HIDDEN
 62
     7
370
    18
100
AcDbLine
 10
2052.7881018633
 20
6025.2321940624
 30
0.0
 11
1921.7881018633
 21
6025.2321940624
 31
0.0
  0
LINE
  5
208
330
1F
100
AcDbEntity
  8
0
  6
HIDDEN
 62
     7
370
    18
100
AcDbLine
 10
1974.7881018633
 20
6035.2321940624
 30
0.0
 11
1300.7881018633
 21
6035.2321940624
 31
0.0
  0
LINE
  5
209
330
1F
100
AcDbEntity
  8
0
  6
HIDDEN
 62
     7
370
    18
100
AcDbLine
 10
721.2881018633
 20
5022.2321940624
 30
0.0
 11
721.2881018633
 21
5412.7321940624
 31
0.0
  0
LINE
  5
20A
330
1F
100
AcDbEntity
  8
0
  6
HIDDEN
 62
     7
370
    18
100
AcDbLine
 10
549.7881018633
 20
4747.7321940624
 30
0.0
 11
549.7881018633
 21
4790.2321940624
 31
0.0
  0
LINE
  5
20B
330
1F
100
AcDbEntity
  8
0
  6
HIDDEN
 62
     7
370
    18
100
AcDbLine
 10
501.7881018633
 20
4790.2321940624
 30
0.0
 11
501.7881018633
 21
4747.7321940624
 31
0.0
  0
LINE
  5
20C
330
1F
100
AcDbEntity
  8
0
  6
HIDDEN
 62
     7
370
    18
100
AcDbLine
 10
638.2881018633
 20
4672.7321940624
 30
0.0
 11
638.2881018633
 21
4747.7321940624
 31
0.0
  0
LINE
  5
20D
330
1F
100
AcDbEntity
  8
0
  6
HIDDEN
 62
     7
370
    18
100
AcDbLine
 10
413.2881018633
 20
4747.7321940624
 30
0.0
 11
413.2881018633
 21
4672.7321940624
 31
0.0
  0
LINE
  5
20E
330
1F
100
AcDbEntity
  8
0
  6
HIDDEN
 62
     7
370
    18
100
AcDbLine
 10
2200.7881018633
 20
4672.7321940624
 30
0.0
 11
2200.7881018633
 21
4747.7321940624
 31
0.0
  0
LINE
  5
20F
330
1F
100
AcDbEntity
  8
0
  6
HIDDEN
 62
     7
370
    18
100
AcDbLine
 10
1750.7881018633
 20
4747.7321940624
 30
0.0
 11
1750.7881018633
 21
4672.7321940624
 31
0.0
  0
LINE
  5
210
330
1F
100
AcDbEntity
  8
0
  6
HIDDEN
 62
     7
370
    18
100
AcDbLine
 10
1300.7881018633
 20
6035.2321940624
 30
0.0
 11
1300.7881018633
 21
6028.4321940624
 31
0.0
  0
LINE
  5
211
330
1F
100
AcDbEntity
  8
0
  6
HIDDEN
 62
     7
370
    18
100
AcDbLine
 10
1866.9324410994
 20
6128.2321940624
 30
0.0
 11
1866.9324410994
 21
6125.9321940624
 31
0.0
  0
LINE
  5
212
330
1F
100
AcDbEntity
  8
0
  6
HIDDEN
 62
     7
370
    18
100
AcDbLine
 10
1878.9324410994
 20
6125.9321940624
 30
0.0
 11
1878.9324410994
 21
6128.2321940624
 31
0.0
  0
LINE
  5
213
330
1F
100
AcDbEntity
  8
0
  6
HIDDEN
 62
     7
370
    18
100
AcDbLine
 10
2072.6437626273
 20
6128.2321940624
 30
0.0
 11
2072.6437626273
 21
6125.9321940624
 31
0.0
  0
LINE
  5
214
330
1F
100
AcDbEntity
  8
0
  6
HIDDEN
 62
     7
370
    18
100
AcDbLine
 10
2084.6437626273
 20
6125.9321940624
 30
0.0
 11
2084.6437626273
 21
6128.2321940624
 31
0.0
  0
LINE
  5
215
330
1F
100
AcDbEntity
  8
0
  6
HIDDEN
 62
     7
370
    18
100
AcDbLine
 10
1348.4881018633
 20
6078.2321940624
 30
0.0
 11
1348.4881018633
 21
6035.2321940624
 31
0.0
  0
LINE
  5
216
330
1F
100
AcDbEntity
  8
0
  6
HIDDEN
 62
     7
370
    18
100
AcDbLine
 10
2600.7881018633
 20
6025.2321940624
 30
0.0
 11
2600.7881018633
 21
6128.2321940624
 31
0.0
  0
LINE
  5
217
330
1F
100
AcDbEntity
  8
0
  6
HIDDEN
 62
     7
370
    18
100
AcDbLine
 10
1350.7881018633
 20
6128.2321940624
 30
0.0
 11
1350.7881018633
 21
6025.2321940624
 31
0.0
  0
LINE
  5
218
330
1F
100
AcDbEntity
  8
0
  6
HIDDEN
 62
     7
370
    18
100
AcDbLine
 10
2268.2868554421
 20
6128.2321940624
 30
0.0
 11
2268.2868554421
 21
6125.9321940624
 31
0.0
  0
LINE
  5
219
330
1F
100
AcDbEntity
  8
0
  6
HIDDEN
 62
     7
370
    18
100
AcDbLine
 10
2280.2868554421
 20
6125.9321940624
 30
0.0
 11
2280.2868554421
 21
6128.2321940624
 31
0.0
  0
LINE
  5
21A
330
1F
100
AcDbEntity
  8
0
  6
HIDDEN
 62
     7
370
    18
100
AcDbLine
 10
1671.2893482846
 20
6128.2321940624
 30
0.0
 11
1671.2893482846
 21
6125.9321940624
 31
0.0
  0
LINE
  5
21B
330
1F
100
AcDbEntity
  8
0
  6
HIDDEN
 62
     7
370
    18
100
AcDbLine
 10
1683.2893482846
 20
6125.9321940624
 30
0.0
 11
1683.2893482846
 21
6128.2321940624
 31
0.0
  0
LINE
  5
21C
330
1F
100
AcDbEntity
  8
0
  6
HIDDEN
 62
     7
370
    18
100
AcDbLine
 10
2434.7108104935
 20
6128.2321940624
 30
0.0
 11
2434.7108104935
 21
6125.9321940624
 31
0.0
  0
LINE
  5
21D
330
1F
100
AcDbEntity
  8
0
  6
HIDDEN
 62
     7
370
    18
100
AcDbLine
 10
2446.7108104935
 20
6125.9321940624
 30
0.0
 11
2446.7108104935
 21
6128.2321940624
 31
0.0
  0
LINE
  5
21E
330
1F
100
AcDbEntity
  8
0
  6
HIDDEN
 62
     7
370
    18
100
AcDbLine
 10
1504.8653932332
 20
6128.2321940624
 30
0.0
 11
1504.8653932332
 21
6125.9321940624
 31
0.0
  0
LINE
  5
21F
330
1F
100
AcDbEntity
  8
0
  6
HIDDEN
 62
     7
370
    18
100
AcDbLine
 10
1516.8653932332
 20
6125.9321940624
 30
0.0
 11
1516.8653932332
 21
6128.2321940624
 31
0.0
  0
LINE
  5
220
330
1F
100
AcDbEntity
  8
0
  6
HIDDEN
 62
     7
370
    18
100
AcDbLine
 10
2555.6248915172
 20
6128.2321940624
 30
0.0
 11
2555.6248915172
 21
6125.9321940624
 31
0.0
  0
LINE
  5
221
330
1F
100
AcDbEntity
  8
0
  6
HIDDEN
 62
     7
370
    18
100
AcDbLine
 10
2567.6248915172
 20
6125.9321940624
 30
0.0
 11
2567.6248915172
 21
6128.2321940624
 31
0.0
  0
LINE
  5
222
330
1F
100
AcDbEntity
  8
0
  6
HIDDEN
 62
     7
370
    18
100
AcDbLine
 10
1383.9513122095
 20
6128.2321940624
 30
0.0
 11
1383.9513122095
 21
6125.9321940624
 31
0.0
  0
LINE
  5
223
330
1F
100
AcDbEntity
  8
0
  6
HIDDEN
 62
     7
370
    18
100
AcDbLine
 10
1395.9513122095
 20
6125.9321940624
 30
0.0
 11
1395.9513122095
 21
6128.2321940624
 31
0.0
  0
LINE
  5
224
330
1F
100
AcDbEntity
  8
0
  6
HIDDEN
 62
     7
370
    18
100
AcDbLine
 10
2619.1931858046
 20
6128.2321940624
 30
0.0
 11
2619.1931858046
 21
6125.9321940624
 31
0.0
  0
LINE
  5
225
330
1F
100
AcDbEntity
  8
0
  6
HIDDEN
 62
     7
370
    18
100
AcDbLine
 10
2631.1931858046
 20
6125.9321940624
 30
0.0
 11
2631.1931858046
 21
6128.2321940624
 31
0.0
  0
LINE
  5
226
330
1F
100
AcDbEntity
  8
0
  6
HIDDEN
 62
     7
370
    18
100
AcDbLine
 10
1320.383017922
 20
6128.2321940624
 30
0.0
 11
1320.383017922
 21
6125.9321940624
 31
0.0
  0
LINE
  5
227
330
1F
100
AcDbEntity
  8
0
  6
HIDDEN
 62
     7
370
    18
100
AcDbLine
 10
1332.383017922
 20
6125.9321940624
 30
0.0
 11
1332.383017922
 21
6128.2321940624
 31
0.0
  0
CIRCLE
  5
228
330
1F
100
AcDbEntity
  8
基礎穴
100
AcDbCircle
 10
2605.7881018633
 20
6068.2321940624
 30
0.0
 40
11.99999999999939
  0
CIRCLE
  5
229
330
1F
100
AcDbEntity
  8
基礎穴
100
AcDbCircle
 10
1835.7881018633
 20
6068.2321940624
 30
0.0
 40
12.00000000000005
  0
CIRCLE
  5
22A
330
1F
100
AcDbEntity
  8
基礎穴
100
AcDbCircle
 10
1065.7881018633
 20
6068.2321940624
 30
0.0
 40
12.00000000000026
  0
CIRCLE
  5
22B
330
1F
100
AcDbEntity
  8
基礎穴
100
AcDbCircle
 10
295.7881018633
 20
6068.2321940624
 30
0.0
 40
11.99999999999994
  0
CIRCLE
  5
22C
330
1F
100
AcDbEntity
  8
基礎穴
100
AcDbCircle
 10
2605.7881018633
 20
4858.2321940624
 30
0.0
 40
11.99999999999966
  0
CIRCLE
  5
22D
330
1F
100
AcDbEntity
  8
基礎穴
100
AcDbCircle
 10
1835.7881018633
 20
4858.2321940624
 30
0.0
 40
12.00000000000053
  0
CIRCLE
  5
22E
330
1F
100
AcDbEntity
  8
基礎穴
100
AcDbCircle
 10
1065.7881018633
 20
4858.2321940624
 30
0.0
 40
12.00000000000031
  0
CIRCLE
  5
22F
330
1F
100
AcDbEntity
  8
基礎穴
100
AcDbCircle
 10
295.7881018633
 20
4858.2321940624
 30
0.0
 40
12.0000000000002
  0
LINE
  5
230
330
1F
100
AcDbEntity
  8
2
100
AcDbLine
 10
1281.7881018633
 20
5266.0334307322
 30
0.0
 11
1281.7881018633
 21
5747.1097344193
 31
0.0
  0
LINE
  5
231
330
1F
100
AcDbEntity
  8
2
100
AcDbLine
 10
1165.3381018633
 20
5550.2321940624
 30
0.0
 11
2221.098714499
 21
5550.2321940624
 31
0.0
  0
LINE
  5
232
330
1F
100
AcDbEntity
  8
2
100
AcDbLine
 10
1975.7881018633
 20
4998.3407567584
 30
0.0
 11
1975.7881018633
 21
5766.1453921103
 31
0.0
  0
ENDSEC
  0
SECTION
  2
OBJECTS
  0
DICTIONARY
  5
C
330
0
100
AcDbDictionary
281
     1
  3
ACAD_GROUP
350
D
  3
ACAD_LAYOUT
350
1A
  3
ACAD_MLINESTYLE
350
17
  3
ACAD_PLOTSETTINGS
350
19
  3
ACAD_PLOTSTYLENAME
350
E
  3
ACAD_SCALELIST
350
47
  3
DWGPROPS
350
233
  0
DICTIONARY
  5
D
102
{ACAD_REACTORS
330
C
102
}
330
C
100
AcDbDictionary
281
     1
  0
DICTIONARY
  5
1A
102
{ACAD_REACTORS
330
C
102
}
330
C
100
AcDbDictionary
281
     1
  3
Layout1
350
1E
  3
Layout2
350
26
  3
Model
350
22
  0
DICTIONARY
  5
17
102
{ACAD_REACTORS
330
C
102
}
330
C
100
AcDbDictionary
281
     1
  3
Standard
350
18
  0
DICTIONARY
  5
19
102
{ACAD_REACTORS
330
C
102
}
330
C
100
AcDbDictionary
281
     1
  0
ACDBDICTIONARYWDFLT
  5
E
102
{ACAD_REACTORS
330
C
102
}
330
C
100
AcDbDictionary
281
     1
  3
Normal
350
F
100
AcDbDictionaryWithDefault
340
F
  0
DICTIONARY
  5
47
102
{ACAD_REACTORS
330
C
102
}
330
C
100
AcDbDictionary
281
     1
  3
A0
350
48
  3
A1
350
49
  3
A2
350
4A
  3
A3
350
4B
  3
A4
350
4C
  3
A5
350
4D
  3
A6
350
4E
  3
A7
350
4F
  3
A8
350
50
  3
A9
350
51
  3
B0
350
52
  3
B1
350
53
  3
B2
350
54
  3
B3
350
55
  3
B4
350
56
  3
B5
350
57
  3
B6
350
58
  0
XRECORD
  5
233
102
{ACAD_REACTORS
330
C
102
}
330
C
100
AcDbXrecord
280
     1
  1
DWGPROPS COOKIE
  2

  3

  4

  6

  7

  8
yuta.kunimatsu
  9

300
=
301
=
302
=
303
=
304
=
305
=
306
=
307
=
308
=
309
=
 40
0.0
 41
2460174.41704956
 42
2460174.417052882
  1

 90
        0
  0
LAYOUT
  5
1E
102
{ACAD_REACTORS
330
1A
102
}
330
1A
100
AcDbPlotSettings
  1

  2
none_device
  4

  6

 40
0.0
 41
0.0
 42
0.0
 43
0.0
 44
0.0
 45
0.0
 46
0.0
 47
0.0
 48
0.0
 49
0.0
140
0.0
141
0.0
142
1.0
143
1.0
 70
   688
 72
     1
 73
     0
 74
     5
  7

 75
    16
147
1.0
148
0.0
149
0.0
100
AcDbLayout
  1
Layout1
 70
     1
 71
     1
 10
0.0
 20
0.0
 11
420.0
 21
297.0
 12
0.0
 22
0.0
 32
0.0
 14
1.0000000000E+20
 24
1.0000000000E+20
 34
1.0000000000E+20
 15
-1.0000000000E+20
 25
-1.0000000000E+20
 35
-1.0000000000E+20
146
0.0
 13
0.0
 23
0.0
 33
0.0
 16
1.0
 26
0.0
 36
0.0
 17
0.0
 27
1.0
 37
0.0
 76
     0
330
1B
  0
LAYOUT
  5
26
102
{ACAD_REACTORS
330
1A
102
}
330
1A
100
AcDbPlotSettings
  1

  2
none_device
  4

  6

 40
0.0
 41
0.0
 42
0.0
 43
0.0
 44
0.0
 45
0.0
 46
0.0
 47
0.0
 48
0.0
 49
0.0
140
0.0
141
0.0
142
1.0
143
1.0
 70
   688
 72
     1
 73
     0
 74
     5
  7

 75
    16
147
1.0
148
0.0
149
0.0
100
AcDbLayout
  1
Layout2
 70
     1
 71
     2
 10
0.0
 20
0.0
 11
0.0
 21
0.0
 12
0.0
 22
0.0
 32
0.0
 14
0.0
 24
0.0
 34
0.0
 15
0.0
 25
0.0
 35
0.0
146
0.0
 13
0.0
 23
0.0
 33
0.0
 16
1.0
 26
0.0
 36
0.0
 17
0.0
 27
1.0
 37
0.0
 76
     0
330
23
  0
LAYOUT
  5
22
102
{ACAD_REACTORS
330
1A
102
}
330
1A
100
AcDbPlotSettings
  1

  2
none_device
  4
Letter_(8.50_x_11.00_Inches)
  6

 40
6.35
 41
6.35
 42
6.35000508
 43
6.35000508
 44
215.9
 45
279.4
 46
0.0
 47
0.0
 48
0.0
 49
0.0
140
0.0
141
0.0
142
1.0
143
1.0
 70
  1712
 72
     1
 73
     0
 74
     0
  7

 75
     0
147
1.0
148
0.0
149
0.0
100
AcDbLayout
  1
Model
 70
     1
 71
     0
 10
0.0
 20
0.0
 11
5250.0
 21
7425.0
 12
0.0
 22
0.0
 32
0.0
 14
0.0
 24
0.0
 34
0.0
 15
5250.0
 25
7425.0
 35
0.0
146
0.0
 13
0.0
 23
0.0
 33
0.0
 16
1.0
 26
0.0
 36
0.0
 17
0.0
 27
1.0
 37
0.0
 76
     0
330
1F
331
29
  0
MLINESTYLE
  5
18
102
{ACAD_REACTORS
330
17
102
}
330
17
100
AcDbMlineStyle
  2
Standard
 70
     0
  3

 62
   256
 51
90.0
 52
90.0
 71
     2
 49
0.5
 62
   256
  6
BYLAYER
 49
-0.5
 62
   256
  6
BYLAYER
  0
ACDBPLACEHOLDER
  5
F
102
{ACAD_REACTORS
330
E
102
}
330
E
  0
SCALE
  5
48
102
{ACAD_REACTORS
330
47
102
}
330
47
100
AcDbScale
 70
     0
300
1:1
140
1.0
141
1.0
290
     1
  0
SCALE
  5
49
102
{ACAD_REACTORS
330
47
102
}
330
47
100
AcDbScale
 70
     0
300
1:2
140
1.0
141
2.0
290
     0
  0
SCALE
  5
4A
102
{ACAD_REACTORS
330
47
102
}
330
47
100
AcDbScale
 70
     0
300
1:4
140
1.0
141
4.0
290
     0
  0
SCALE
  5
4B
102
{ACAD_REACTORS
330
47
102
}
330
47
100
AcDbScale
 70
     0
300
1:5
140
1.0
141
5.0
290
     0
  0
SCALE
  5
4C
102
{ACAD_REACTORS
330
47
102
}
330
47
100
AcDbScale
 70
     0
300
1:8
140
1.0
141
8.0
290
     0
  0
SCALE
  5
4D
102
{ACAD_REACTORS
330
47
102
}
330
47
100
AcDbScale
 70
     0
300
1:10
140
1.0
141
10.0
290
     0
  0
SCALE
  5
4E
102
{ACAD_REACTORS
330
47
102
}
330
47
100
AcDbScale
 70
     0
300
1:16
140
1.0
141
16.0
290
     0
  0
SCALE
  5
4F
102
{ACAD_REACTORS
330
47
102
}
330
47
100
AcDbScale
 70
     0
300
1:20
140
1.0
141
20.0
290
     0
  0
SCALE
  5
50
102
{ACAD_REACTORS
330
47
102
}
330
47
100
AcDbScale
 70
     0
300
1:30
140
1.0
141
30.0
290
     0
  0
SCALE
  5
51
102
{ACAD_REACTORS
330
47
102
}
330
47
100
AcDbScale
 70
     0
300
1:40
140
1.0
141
40.0
290
     0
  0
SCALE
  5
52
102
{ACAD_REACTORS
330
47
102
}
330
47
100
AcDbScale
 70
     0
300
1:50
140
1.0
141
50.0
290
     0
  0
SCALE
  5
53
102
{ACAD_REACTORS
330
47
102
}
330
47
100
AcDbScale
 70
     0
300
1:100
140
1.0
141
100.0
290
     0
  0
SCALE
  5
54
102
{ACAD_REACTORS
330
47
102
}
330
47
100
AcDbScale
 70
     0
300
2:1
140
2.0
141
1.0
290
     0
  0
SCALE
  5
55
102
{ACAD_REACTORS
330
47
102
}
330
47
100
AcDbScale
 70
     0
300
4:1
140
4.0
141
1.0
290
     0
  0
SCALE
  5
56
102
{ACAD_REACTORS
330
47
102
}
330
47
100
AcDbScale
 70
     0
300
8:1
140
8.0
141
1.0
290
     0
  0
SCALE
  5
57
102
{ACAD_REACTORS
330
47
102
}
330
47
100
AcDbScale
 70
     0
300
10:1
140
10.0
141
1.0
290
     0
  0
SCALE
  5
58
102
{ACAD_REACTORS
330
47
102
}
330
47
100
AcDbScale
 70
     0
300
100:1
140
100.0
141
1.0
290
     0
  0
ENDSEC
  0
EOF
