  0
SECTION
  2
HEADER
  9
$ACADVER
  1
AC1015
  9
$ACADMAINTVER
 70
     6
  9
$DWGCODEPAGE
  3
DOS932
  9
$INSBASE
 10
0.0
 20
0.0
 30
0.0
  9
$EXTMIN
 10
0.0
 20
0.0
 30
0.0
  9
$EXTMAX
 10
5250.0
 20
7425.0
 30
0.0
  9
$LIMMIN
 10
0.0
 20
0.0
  9
$LIMMAX
 10
5250.0
 20
7425.0
  9
$ORTHOMODE
 70
     0
  9
$REGENMODE
 70
     1
  9
$FILLMODE
 70
     1
  9
$QTEXTMODE
 70
     0
  9
$MIRRTEXT
 70
     1
  9
$LTSCALE
 40
25.0
  9
$ATTMODE
 70
     1
  9
$TEXTSIZE
 40
70.5555555556
  9
$TRACEWID
 40
1.0
  9
$TEXTSTYLE
  7
Standard
  9
$CLAYER
  8
0
  9
$CELTYPE
  6
ByLayer
  9
$CECOLOR
 62
   256
  9
$CELTSCALE
 40
1.0
  9
$DISPSILH
 70
     0
  9
$DIMSCALE
 40
1.0
  9
$DIMASZ
 40
37.5
  9
$DIMEXO
 40
25.0
  9
$DIMDLI
 40
3.75
  9
$DIMRND
 40
0.0
  9
$DIMDLE
 40
0.0
  9
$DIMEXE
 40
25.0
  9
$DIMTP
 40
0.0
  9
$DIMTM
 40
0.0
  9
$DIMTXT
 40
70.5555555556
  9
$DIMCEN
 40
2.5
  9
$DIMTSZ
 40
0.0
  9
$DIMTOL
 70
     0
  9
$DIMLIM
 70
     0
  9
$DIMTIH
 70
     1
  9
$DIMTOH
 70
     1
  9
$DIMSE1
 70
     0
  9
$DIMSE2
 70
     0
  9
$DIMTAD
 70
     1
  9
$DIMZIN
 70
     0
  9
$DIMBLK
  1

  9
$DIMASO
 70
     1
  9
$DIMSHO
 70
     1
  9
$DIMPOST
  1

  9
$DIMAPOST
  1

  9
$DIMALT
 70
     0
  9
$DIMALTD
 70
     3
  9
$DIMALTF
 40
0.0393700787
  9
$DIMLFAC
 40
1.0
  9
$DIMTOFL
 70
     1
  9
$DIMTVP
 40
0.0
  9
$DIMTIX
 70
     0
  9
$DIMSOXD
 70
     0
  9
$DIMSAH
 70
     0
  9
$DIMBLK1
  1

  9
$DIMBLK2
  1

  9
$DIMSTYLE
  2
ISO-25
  9
$DIMCLRD
 70
     0
  9
$DIMCLRE
 70
     0
  9
$DIMCLRT
 70
     0
  9
$DIMTFAC
 40
1.0
  9
$DIMGAP
 40
38.1
  9
$DIMJUST
 70
     0
  9
$DIMSD1
 70
     0
  9
$DIMSD2
 70
     0
  9
$DIMTOLJ
 70
     0
  9
$DIMTZIN
 70
     0
  9
$DIMALTZ
 70
     0
  9
$DIMALTTZ
 70
     0
  9
$DIMUPT
 70
     0
  9
$DIMDEC
 70
     0
  9
$DIMTDEC
 70
     0
  9
$DIMALTU
 70
     2
  9
$DIMALTTD
 70
     3
  9
$DIMTXSTY
  7
Standard
  9
$DIMAUNIT
 70
     0
  9
$DIMADEC
 70
     2
  9
$DIMALTRND
 40
0.0
  9
$DIMAZIN
 70
     0
  9
$DIMDSEP
 70
    44
  9
$DIMATFIT
 70
     3
  9
$DIMFRAC
 70
     0
  9
$DIMLDRBLK
  1

  9
$DIMLUNIT
 70
     2
  9
$DIMLWD
 70
    -2
  9
$DIMLWE
 70
    -2
  9
$DIMTMOVE
 70
     0
  9
$LUNITS
 70
     2
  9
$LUPREC
 70
     2
  9
$SKETCHINC
 40
1.0
  9
$FILLETRAD
 40
0.0
  9
$AUNITS
 70
     0
  9
$AUPREC
 70
     2
  9
$MENU
  1
.
  9
$ELEVATION
 40
0.0
  9
$PELEVATION
 40
0.0
  9
$THICKNESS
 40
0.0
  9
$LIMCHECK
 70
     0
  9
$CHAMFERA
 40
0.0
  9
$CHAMFERB
 40
0.0
  9
$CHAMFERC
 40
0.0
  9
$CHAMFERD
 40
0.0
  9
$SKPOLY
 70
     0
  9
$TDCREATE
 40
2460150.765085012
  9
$TDUCREATE
 40
2460150.390085012
  9
$TDUPDATE
 40
2460150.76508537
  9
$TDUUPDATE
 40
2460150.39008537
  9
$TDINDWG
 40
0.0000000116
  9
$TDUSRTIMER
 40
0.0000000116
  9
$USRTIMER
 70
     1
  9
$ANGBASE
 50
0.0
  9
$ANGDIR
 70
     0
  9
$PDMODE
 70
     0
  9
$PDSIZE
 40
-1.0
  9
$PLINEWID
 40
0.0
  9
$SPLFRAME
 70
     0
  9
$SPLINETYPE
 70
     6
  9
$SPLINESEGS
 70
     8
  9
$HANDSEED
  5
209
  9
$SURFTAB1
 70
     6
  9
$SURFTAB2
 70
     6
  9
$SURFTYPE
 70
     6
  9
$SURFU
 70
     6
  9
$SURFV
 70
     6
  9
$UCSBASE
  2

  9
$UCSNAME
  2

  9
$UCSORG
 10
0.0
 20
0.0
 30
0.0
  9
$UCSXDIR
 10
1.0
 20
0.0
 30
0.0
  9
$UCSYDIR
 10
0.0
 20
1.0
 30
0.0
  9
$UCSORTHOREF
  2

  9
$UCSORTHOVIEW
 70
     0
  9
$UCSORGTOP
 10
0.0
 20
0.0
 30
0.0
  9
$UCSORGBOTTOM
 10
0.0
 20
0.0
 30
0.0
  9
$UCSORGLEFT
 10
0.0
 20
0.0
 30
0.0
  9
$UCSORGRIGHT
 10
0.0
 20
0.0
 30
0.0
  9
$UCSORGFRONT
 10
0.0
 20
0.0
 30
0.0
  9
$UCSORGBACK
 10
0.0
 20
0.0
 30
0.0
  9
$PUCSBASE
  2

  9
$PUCSNAME
  2

  9
$PUCSORG
 10
0.0
 20
0.0
 30
0.0
  9
$PUCSXDIR
 10
1.0
 20
0.0
 30
0.0
  9
$PUCSYDIR
 10
0.0
 20
1.0
 30
0.0
  9
$PUCSORTHOREF
  2

  9
$PUCSORTHOVIEW
 70
     0
  9
$PUCSORGTOP
 10
0.0
 20
0.0
 30
0.0
  9
$PUCSORGBOTTOM
 10
0.0
 20
0.0
 30
0.0
  9
$PUCSORGLEFT
 10
0.0
 20
0.0
 30
0.0
  9
$PUCSORGRIGHT
 10
0.0
 20
0.0
 30
0.0
  9
$PUCSORGFRONT
 10
0.0
 20
0.0
 30
0.0
  9
$PUCSORGBACK
 10
0.0
 20
0.0
 30
0.0
  9
$USERI1
 70
     0
  9
$USERI2
 70
     0
  9
$USERI3
 70
     0
  9
$USERI4
 70
     0
  9
$USERI5
 70
     0
  9
$USERR1
 40
0.0
  9
$USERR2
 40
0.0
  9
$USERR3
 40
0.0
  9
$USERR4
 40
0.0
  9
$USERR5
 40
0.0
  9
$WORLDVIEW
 70
     1
  9
$SHADEDGE
 70
     3
  9
$SHADEDIF
 70
    70
  9
$TILEMODE
 70
     1
  9
$MAXACTVP
 70
    64
  9
$PINSBASE
 10
0.0
 20
0.0
 30
0.0
  9
$PLIMCHECK
 70
     0
  9
$PEXTMIN
 10
1.0000000000E+20
 20
1.0000000000E+20
 30
1.0000000000E+20
  9
$PEXTMAX
 10
-1.0000000000E+20
 20
-1.0000000000E+20
 30
-1.0000000000E+20
  9
$PLIMMIN
 10
0.0
 20
0.0
  9
$PLIMMAX
 10
420.0
 20
297.0
  9
$UNITMODE
 70
     0
  9
$VISRETAIN
 70
     1
  9
$PLINEGEN
 70
     0
  9
$PSLTSCALE
 70
     1
  9
$TREEDEPTH
 70
  3020
  9
$CMLSTYLE
  2
Standard
  9
$CMLJUST
 70
     0
  9
$CMLSCALE
 40
20.0
  9
$PROXYGRAPHICS
 70
     1
  9
$MEASUREMENT
 70
     1
  9
$CELWEIGHT
370
    -1
  9
$ENDCAPS
280
     0
  9
$JOINSTYLE
280
     0
  9
$LWDISPLAY
290
     1
  9
$INSUNITS
 70
     4
  9
$HYPERLINKBASE
  1

  9
$STYLESHEET
  1

  9
$XEDIT
290
     1
  9
$CEPSNTYPE
380
     0
  9
$PSTYLEMODE
290
     1
  9
$FINGERPRINTGUID
  2
{a60a5930-e33a-45cd-838c-7afc869ff504}
  9
$VERSIONGUID
  2
{FAEB1C32-E019-11D5-929B-00C0DF256EC4}
  9
$EXTNAMES
290
     1
  9
$PSVPSCALE
 40
0.0
  9
$OLESTARTUP
290
     0
  0
ENDSEC
  0
SECTION
  2
CLASSES
  0
CLASS
  1
ACDBDICTIONARYWDFLT
  2
AcDbDictionaryWithDefault
  3
ObjectDBX Classes
 90
        0
280
     0
281
     0
  0
CLASS
  1
VISUALSTYLE
  2
AcDbVisualStyle
  3
ObjectDBX Classes
 90
     4095
280
     0
281
     0
  0
CLASS
  1
MATERIAL
  2
AcDbMaterial
  3
ObjectDBX Classes
 90
     1153
280
     0
281
     0
  0
CLASS
  1
SCALE
  2
AcDbScale
  3
ObjectDBX Classes
 90
     1153
280
     0
281
     0
  0
CLASS
  1
TABLESTYLE
  2
AcDbTableStyle
  3
ObjectDBX Classes
 90
     4095
280
     0
281
     0
  0
CLASS
  1
MLEADERSTYLE
  2
AcDbMLeaderStyle
  3
ACDB_MLEADERSTYLE_CLASS
 90
     4095
280
     0
281
     0
  0
CLASS
  1
SUN
  2
AcDbSun
  3
SCENEOE
 90
     1153
280
     0
281
     0
  0
CLASS
  1
ACDBPLACEHOLDER
  2
AcDbPlaceHolder
  3
ObjectDBX Classes
 90
        0
280
     0
281
     0
  0
CLASS
  1
LAYOUT
  2
AcDbLayout
  3
ObjectDBX Classes
 90
        0
280
     0
281
     0
  0
ENDSEC
  0
SECTION
  2
TABLES
  0
TABLE
  2
VPORT
  5
8
330
0
100
AcDbSymbolTable
 70
     1
  0
VPORT
  5
29
330
8
100
AcDbSymbolTableRecord
100
AcDbViewportTableRecord
  2
*Active
 70
     0
 10
0.0
 20
0.0
 11
1.0
 21
1.0
 12
2625.0
 22
3712.5
 13
0.0
 23
0.0
 14
10.0
 24
10.0
 15
10.0
 25
10.0
 16
0.0
 26
0.0
 36
1.0
 17
0.0
 27
0.0
 37
0.0
 40
7425.0
 41
0.7070707071
 42
50.0
 43
0.0
 44
0.0
 50
0.0
 51
0.0
 71
     0
 72
  2000
 73
     1
 74
     3
 75
     0
 76
     0
 77
     0
 78
     0
281
     0
 65
     1
110
0.0
120
0.0
130
0.0
111
1.0
121
0.0
131
0.0
112
0.0
122
1.0
132
0.0
 79
     0
146
0.0
  0
ENDTAB
  0
TABLE
  2
LTYPE
  5
5
330
0
100
AcDbSymbolTable
 70
     6
  0
LTYPE
  5
14
330
5
100
AcDbSymbolTableRecord
100
AcDbLinetypeTableRecord
  2
ByBlock
 70
     0
  3

 72
    65
 73
     0
 40
0.0
  0
LTYPE
  5
15
330
5
100
AcDbSymbolTableRecord
100
AcDbLinetypeTableRecord
  2
ByLayer
 70
     0
  3

 72
    65
 73
     0
 40
0.0
  0
LTYPE
  5
16
330
5
100
AcDbSymbolTableRecord
100
AcDbLinetypeTableRecord
  2
Continuous
 70
     0
  3
Solid line
 72
    65
 73
     0
 40
0.0
  0
LTYPE
  5
5E
330
5
100
AcDbSymbolTableRecord
100
AcDbLinetypeTableRecord
  2
HIDDEN
 70
     0
  3
Hidden __ __ __ __ __ __ __ __ __ __ __ __ __ __
 72
    65
 73
     2
 40
1.905
 49
1.27
 74
     0
 49
-0.635
 74
     0
  0
LTYPE
  5
5F
330
5
100
AcDbSymbolTableRecord
100
AcDbLinetypeTableRecord
  2
PHANTOM
 70
     0
  3
Phantom ______  __  __  ______  __  __  ______
 72
    65
 73
     6
 40
12.7
 49
6.35
 74
     0
 49
-1.27
 74
     0
 49
1.27
 74
     0
 49
-1.27
 74
     0
 49
1.27
 74
     0
 49
-1.27
 74
     0
  0
LTYPE
  5
60
330
5
100
AcDbSymbolTableRecord
100
AcDbLinetypeTableRecord
  2
CENTER
 70
     0
  3
Center ____ _ ____ _ ____ _ ____ _ ____ _ ____
 72
    65
 73
     4
 40
10.16
 49
6.35
 74
     0
 49
-1.27
 74
     0
 49
1.27
 74
     0
 49
-1.27
 74
     0
  0
LTYPE
  5
61
330
5
100
AcDbSymbolTableRecord
100
AcDbLinetypeTableRecord
  2
CENTERX2
 70
     0
  3
Center (2x) ________  __  ________  __  _____
 72
    65
 73
     4
 40
20.32
 49
12.7
 74
     0
 49
-2.54
 74
     0
 49
2.54
 74
     0
 49
-2.54
 74
     0
  0
LTYPE
  5
62
330
5
100
AcDbSymbolTableRecord
100
AcDbLinetypeTableRecord
  2
DOT2
 70
     0
  3
Dot (.5x) ........................................
 72
    65
 73
     2
 40
0.635
 49
0.0
 74
     0
 49
-0.635
 74
     0
  0
ENDTAB
  0
TABLE
  2
LAYER
  5
2
330
0
100
AcDbSymbolTable
 70
     6
  0
LAYER
  5
10
330
2
100
AcDbSymbolTableRecord
100
AcDbLayerTableRecord
  2
0
 70
     0
 62
     7
  6
Continuous
370
    -3
390
F
  0
LAYER
  5
63
330
2
100
AcDbSymbolTableRecord
100
AcDbLayerTableRecord
  2
1
 70
     0
 62
     4
  6
Continuous
370
    25
390
F
  0
LAYER
  5
64
330
2
100
AcDbSymbolTableRecord
100
AcDbLayerTableRecord
  2
2
 70
     0
 62
     3
  6
CENTERX2
370
    -3
390
F
  0
LAYER
  5
65
330
2
100
AcDbSymbolTableRecord
100
AcDbLayerTableRecord
  2
3
 70
     0
 62
     2
  6
Continuous
370
    -3
390
F
  0
LAYER
  5
66
330
2
100
AcDbSymbolTableRecord
100
AcDbLayerTableRecord
  2
4
 70
     0
 62
     7
  6
Continuous
370
    -3
390
F
  0
LAYER
  5
67
330
2
100
AcDbSymbolTableRecord
100
AcDbLayerTableRecord
  2
基礎穴
 70
     0
 62
     1
  6
PHANTOM
370
    35
390
F
  0
ENDTAB
  0
TABLE
  2
STYLE
  5
3
330
0
100
AcDbSymbolTable
 70
     2
  0
STYLE
  5
11
330
3
100
AcDbSymbolTableRecord
100
AcDbTextStyleTableRecord
  2
Standard
 70
     0
 40
0.0
 41
1.0
 50
0.0
 71
     0
 42
70.5555555556
  3
txt
  4
bigfont
  0
STYLE
  5
68
330
3
100
AcDbSymbolTableRecord
100
AcDbTextStyleTableRecord
  2
SLDTEXTSTYLE0
 70
     0
 40
0.0
 41
0.7
 50
0.0
 71
     0
 42
70.5555555556
  3
TXT
  4
bigfont
  0
ENDTAB
  0
TABLE
  2
VIEW
  5
6
330
0
100
AcDbSymbolTable
 70
     0
  0
ENDTAB
  0
TABLE
  2
UCS
  5
7
330
0
100
AcDbSymbolTable
 70
     0
  0
ENDTAB
  0
TABLE
  2
APPID
  5
9
330
0
100
AcDbSymbolTable
 70
     1
  0
APPID
  5
12
330
9
100
AcDbSymbolTableRecord
100
AcDbRegAppTableRecord
  2
ACAD
 70
     0
  0
ENDTAB
  0
TABLE
  2
DIMSTYLE
  5
A
330
0
100
AcDbSymbolTable
 70
     1
100
AcDbDimStyleTable
  0
DIMSTYLE
105
27
330
A
100
AcDbSymbolTableRecord
100
AcDbDimStyleTableRecord
  2
ISO-25
 70
     0
 41
2.5
 42
0.625
 43
3.75
 44
1.25
 73
     0
 74
     0
 77
     1
 78
     8
140
2.5
141
2.5
143
0.0393700787
147
0.625
171
     3
172
     1
178
     0
271
     2
272
     2
274
     3
278
    44
283
     0
284
     8
340
11
  0
ENDTAB
  0
TABLE
  2
BLOCK_RECORD
  5
1
330
0
100
AcDbSymbolTable
 70
     2
  0
BLOCK_RECORD
  5
1F
330
1
100
AcDbSymbolTableRecord
100
AcDbBlockTableRecord
  2
*Model_Space
340
22
  0
BLOCK_RECORD
  5
1B
330
1
100
AcDbSymbolTableRecord
100
AcDbBlockTableRecord
  2
*Paper_Space
340
1E
  0
BLOCK_RECORD
  5
23
330
1
100
AcDbSymbolTableRecord
100
AcDbBlockTableRecord
  2
*Paper_Space0
340
26
  0
BLOCK_RECORD
  5
CD
330
1
100
AcDbSymbolTableRecord
100
AcDbBlockTableRecord
  2
SW_CENTERMARKSYMBOL_0
340
0
102
{BLKREFS
331
D8
102
}
  0
ENDTAB
  0
ENDSEC
  0
SECTION
  2
BLOCKS
  0
BLOCK
  5
20
330
1F
100
AcDbEntity
  8
0
100
AcDbBlockBegin
  2
*Model_Space
 70
     0
 10
0.0
 20
0.0
 30
0.0
  3
*Model_Space
  1

  0
ENDBLK
  5
21
330
1F
100
AcDbEntity
  8
0
100
AcDbBlockEnd
  0
BLOCK
  5
1C
330
1B
100
AcDbEntity
 67
     1
  8
0
100
AcDbBlockBegin
  2
*Paper_Space
 70
     0
 10
0.0
 20
0.0
 30
0.0
  3
*Paper_Space
  1

  0
ENDBLK
  5
1D
330
1B
100
AcDbEntity
 67
     1
  8
0
100
AcDbBlockEnd
  0
BLOCK
  5
24
330
23
100
AcDbEntity
  8
0
100
AcDbBlockBegin
  2
*Paper_Space0
 70
     0
 10
0.0
 20
0.0
 30
0.0
  3
*Paper_Space0
  1

  0
ENDBLK
  5
25
330
23
100
AcDbEntity
  8
0
100
AcDbBlockEnd
  0
BLOCK
  5
CE
330
CD
100
AcDbEntity
  8
0
100
AcDbBlockBegin
  2
SW_CENTERMARKSYMBOL_0
 70
     0
 10
0.0
 20
0.0
 30
0.0
  3
SW_CENTERMARKSYMBOL_0
  1

  0
LINE
  5
D0
330
CD
100
AcDbEntity
  8
2
 62
     0
100
AcDbLine
 10
0.0
 20
0.0
 30
0.0
 11
0.0
 21
2.5
 31
0.0
  0
LINE
  5
D1
330
CD
100
AcDbEntity
  8
2
 62
     0
100
AcDbLine
 10
0.0
 20
0.0
 30
0.0
 11
-2.5
 21
0.0
 31
0.0
  0
LINE
  5
D2
330
CD
100
AcDbEntity
  8
2
 62
     0
100
AcDbLine
 10
0.0
 20
0.0
 30
0.0
 11
0.0
 21
-2.5
 31
0.0
  0
LINE
  5
D3
330
CD
100
AcDbEntity
  8
2
 62
     0
100
AcDbLine
 10
0.0
 20
0.0
 30
0.0
 11
2.5
 21
0.0
 31
0.0
  0
LINE
  5
D4
330
CD
100
AcDbEntity
  8
2
 62
     0
100
AcDbLine
 10
0.0
 20
5.0
 30
0.0
 11
0.0
 21
677.5
 31
0.0
  0
LINE
  5
D5
330
CD
100
AcDbEntity
  8
2
 62
     0
100
AcDbLine
 10
-5.0
 20
0.0
 30
0.0
 11
-677.5
 21
0.0
 31
0.0
  0
LINE
  5
D6
330
CD
100
AcDbEntity
  8
2
 62
     0
100
AcDbLine
 10
0.0
 20
-5.0
 30
0.0
 11
0.0
 21
-677.5
 31
0.0
  0
LINE
  5
D7
330
CD
100
AcDbEntity
  8
2
 62
     0
100
AcDbLine
 10
5.0
 20
0.0
 30
0.0
 11
677.5
 21
0.0
 31
0.0
  0
ENDBLK
  5
CF
330
CD
100
AcDbEntity
  8
0
100
AcDbBlockEnd
  0
ENDSEC
  0
SECTION
  2
ENTITIES
  0
MTEXT
  5
69
330
1F
100
AcDbEntity
  8
0
  6
Continuous
 62
     7
370
     0
100
AcDbMText
 10
4105.6669293733
 20
1655.7646100524
 30
0.0
 40
70.5555555556
 41
0.0
 71
     1
 72
     1
  1
LL08040Y101K-L3
  7
SLDTEXTSTYLE0
 73
     1
 44
1.0
  0
LINE
  5
6A
330
1F
100
AcDbEntity
  8
1
100
AcDbLine
 10
707.1832585772
 20
2112.8349130709
 30
0.0
 11
2222.2123541837
 21
3186.0336781958
 31
0.0
  0
ARC
  5
6B
330
1F
100
AcDbEntity
  8
1
100
AcDbCircle
 10
584.3505224314
 20
2286.2372456128
 30
0.0
 40
212.5000000000003
100
AcDbArc
 50
132.2476005527
 51
305.3125520402
  0
LINE
  5
6C
330
1F
100
AcDbEntity
  8
1
100
AcDbLine
 10
1815.8413848962
 20
3691.8172880386
 30
0.0
 11
441.4791632738
 21
2443.5395810451
 31
0.0
  0
ARC
  5
6D
330
1F
100
AcDbEntity
  8
1
100
AcDbCircle
 10
2034.3505224314
 20
3451.2372456128
 30
0.0
 40
325.0000000000002
100
AcDbArc
 50
305.3125520402
 51
132.2476005527
  0
LINE
  5
6E
330
1F
100
AcDbEntity
  8
1
100
AcDbLine
 10
809.3505224314
 20
2051.2372456128
 30
0.0
 11
809.3505224314
 21
2106.2372456128
 31
0.0
  0
LINE
  5
6F
330
1F
100
AcDbEntity
  8
1
100
AcDbLine
 10
809.3505224314
 20
2106.2372456128
 30
0.0
 11
697.2940924122
 21
2106.2372456128
 31
0.0
  0
LINE
  5
70
330
1F
100
AcDbEntity
  8
1
100
AcDbLine
 10
471.4069524507
 20
2106.2372456128
 30
0.0
 11
359.3505224314
 21
2106.2372456128
 31
0.0
  0
LINE
  5
71
330
1F
100
AcDbEntity
  8
1
100
AcDbLine
 10
359.3505224314
 20
2051.2372456128
 30
0.0
 11
359.3505224314
 21
2106.2372456128
 31
0.0
  0
LINE
  5
72
330
1F
100
AcDbEntity
  8
1
100
AcDbLine
 10
727.3505224314
 20
2124.2372456128
 30
0.0
 11
723.2798719167
 21
2124.2372456128
 31
0.0
  0
LINE
  5
73
330
1F
100
AcDbEntity
  8
1
100
AcDbLine
 10
727.3505224314
 20
2106.2372456128
 30
0.0
 11
727.3505224314
 21
2124.2372456128
 31
0.0
  0
LINE
  5
74
330
1F
100
AcDbEntity
  8
1
100
AcDbLine
 10
446.8287059804
 20
2124.2372456128
 30
0.0
 11
441.3505224314
 21
2124.2372456128
 31
0.0
  0
LINE
  5
75
330
1F
100
AcDbEntity
  8
1
100
AcDbLine
 10
441.3505224314
 20
2124.2372456128
 30
0.0
 11
441.3505224314
 21
2106.2372456128
 31
0.0
  0
LINE
  5
76
330
1F
100
AcDbEntity
  8
1
100
AcDbLine
 10
234.3505224314
 20
2051.2372456128
 30
0.0
 11
234.3505224314
 21
2044.7372456128
 31
0.0
  0
LINE
  5
77
330
1F
100
AcDbEntity
  8
1
100
AcDbLine
 10
234.3505224314
 20
2051.2372456128
 30
0.0
 11
2784.3505224314
 21
2051.2372456128
 31
0.0
  0
LINE
  5
78
330
1F
100
AcDbEntity
  8
1
100
AcDbLine
 10
2784.3505224314
 20
2051.2372456128
 30
0.0
 11
2784.3505224314
 21
2044.7372456128
 31
0.0
  0
LINE
  5
79
330
1F
100
AcDbEntity
  8
1
100
AcDbLine
 10
234.3505224314
 20
2044.7372456128
 30
0.0
 11
2784.3505224314
 21
2044.7372456128
 31
0.0
  0
LINE
  5
7A
330
1F
100
AcDbEntity
  8
1
100
AcDbLine
 10
234.3505224314
 20
1907.7372456128
 30
0.0
 11
2784.3505224314
 21
1907.7372456128
 31
0.0
  0
LINE
  5
7B
330
1F
100
AcDbEntity
  8
1
100
AcDbLine
 10
234.3505224314
 20
1907.7372456128
 30
0.0
 11
234.3505224314
 21
1901.2372456128
 31
0.0
  0
LINE
  5
7C
330
1F
100
AcDbEntity
  8
1
100
AcDbLine
 10
2784.3505224314
 20
1907.7372456128
 30
0.0
 11
2784.3505224314
 21
1901.2372456128
 31
0.0
  0
LINE
  5
7D
330
1F
100
AcDbEntity
  8
1
100
AcDbLine
 10
234.3505224314
 20
1901.2372456128
 30
0.0
 11
2784.3505224314
 21
1901.2372456128
 31
0.0
  0
LINE
  5
7E
330
1F
100
AcDbEntity
  8
1
100
AcDbLine
 10
2715.8505224314
 20
2044.7372456128
 30
0.0
 11
2715.8505224314
 21
1907.7372456128
 31
0.0
  0
LINE
  5
7F
330
1F
100
AcDbEntity
  8
1
100
AcDbLine
 10
302.8505224314
 20
2044.7372456128
 30
0.0
 11
302.8505224314
 21
1907.7372456128
 31
0.0
  0
LINE
  5
80
330
1F
100
AcDbEntity
  8
1
100
AcDbLine
 10
2855.3505224314
 20
3450.2372456128
 30
0.0
 11
2859.3505224314
 21
3450.2372456128
 31
0.0
  0
LINE
  5
81
330
1F
100
AcDbEntity
  8
1
100
AcDbLine
 10
2859.3505224314
 20
2064.2372456128
 30
0.0
 11
2859.3505224314
 21
3450.2372456128
 31
0.0
  0
LINE
  5
82
330
1F
100
AcDbEntity
  8
1
100
AcDbLine
 10
2855.3505224314
 20
2064.2372456128
 30
0.0
 11
2855.3505224314
 21
3450.2372456128
 31
0.0
  0
LINE
  5
83
330
1F
100
AcDbEntity
  8
1
100
AcDbLine
 10
2855.3505224314
 20
2064.2372456128
 30
0.0
 11
2859.3505224314
 21
2064.2372456128
 31
0.0
  0
LINE
  5
84
330
1F
100
AcDbEntity
  8
1
100
AcDbLine
 10
2855.3505224314
 20
2115.2979229949
 30
0.0
 11
2017.2221441216
 21
2192.9345668683
 31
0.0
  0
ARC
  5
85
330
1F
100
AcDbEntity
  8
1
100
AcDbCircle
 10
2125.3505224314
 20
3360.2372456128
 30
0.0
 40
1172.300000000001
100
AcDbArc
 50
225.0433740241
 51
264.7077386841
  0
ARC
  5
86
330
1F
100
AcDbEntity
  8
1
100
AcDbCircle
 10
2125.3505224314
 20
3360.2372456128
 30
0.0
 40
1172.300000000002
100
AcDbArc
 50
180.0
 51
199.4868039297
  0
ARC
  5
87
330
1F
100
AcDbEntity
  8
1
100
AcDbCircle
 10
1943.3505224314
 20
3360.2372456128
 30
0.0
 40
990.3000000000015
100
AcDbArc
 50
90.0
 51
180.0
  0
LINE
  5
88
330
1F
100
AcDbEntity
  8
1
100
AcDbLine
 10
1943.3505224314
 20
4350.5372456128
 30
0.0
 11
1957.3505224314
 21
4350.5372456128
 31
0.0
  0
LINE
  5
89
330
1F
100
AcDbEntity
  8
1
100
AcDbLine
 10
2779.6505224314
 20
3528.2372456128
 30
0.0
 11
2779.6505224314
 21
3399.5372456128
 31
0.0
  0
ARC
  5
8A
330
1F
100
AcDbEntity
  8
1
100
AcDbCircle
 10
1957.3505224314
 20
3528.2372456128
 30
0.0
 40
822.3000000000015
100
AcDbArc
 50
0.0
 51
90.0
  0
LINE
  5
8B
330
1F
100
AcDbEntity
  8
1
100
AcDbLine
 10
2779.6505224314
 20
3399.5372456128
 30
0.0
 11
2855.3505224314
 21
3399.5372456128
 31
0.0
  0
CIRCLE
  5
8C
330
1F
100
AcDbEntity
  8
0
  6
HIDDEN
 62
     7
370
    18
100
AcDbCircle
 10
584.3505224314
 20
2286.2372456128
 30
0.0
 40
23.99999999999989
  0
ARC
  5
8D
330
1F
100
AcDbEntity
  8
0
  6
HIDDEN
 62
     7
370
    18
100
AcDbCircle
 10
584.3505224314
 20
2286.2372456128
 30
0.0
 40
195.5000000000004
100
AcDbArc
 50
298.9928373896
 51
241.0071626104
  0
LINE
  5
8E
330
1F
100
AcDbEntity
  8
0
  6
HIDDEN
 62
     7
370
    18
100
AcDbLine
 10
679.1094270262
 20
2115.2372456128
 30
0.0
 11
489.5916178367
 21
2115.2372456128
 31
0.0
  0
LINE
  5
8F
330
1F
100
AcDbEntity
  8
0
  6
HIDDEN
 62
     7
370
    18
100
AcDbLine
 10
697.2940924122
 20
2106.2372456128
 30
0.0
 11
471.4069524507
 21
2106.2372456128
 31
0.0
  0
LINE
  5
90
330
1F
100
AcDbEntity
  8
0
  6
HIDDEN
 62
     7
370
    18
100
AcDbLine
 10
723.2798719167
 20
2124.2372456128
 30
0.0
 11
693.7865768194
 21
2124.2372456128
 31
0.0
  0
LINE
  5
91
330
1F
100
AcDbEntity
  8
0
  6
HIDDEN
 62
     7
370
    18
100
AcDbLine
 10
474.9144680435
 20
2124.2372456128
 30
0.0
 11
446.8287059804
 21
2124.2372456128
 31
0.0
  0
CIRCLE
  5
92
330
1F
100
AcDbEntity
  8
0
  6
HIDDEN
 62
     7
370
    18
100
AcDbCircle
 10
584.3505224314
 20
2286.2372456128
 30
0.0
 40
112.5000000000003
  0
CIRCLE
  5
93
330
1F
100
AcDbEntity
  8
0
  6
HIDDEN
 62
     7
370
    18
100
AcDbCircle
 10
2034.3505224314
 20
3451.2372456128
 30
0.0
 40
224.9999999999996
  0
LINE
  5
94
330
1F
100
AcDbEntity
  8
0
  6
HIDDEN
 62
     7
370
    18
100
AcDbLine
 10
309.3505224314
 20
2051.2372456128
 30
0.0
 11
309.3505224314
 21
1901.2372456128
 31
0.0
  0
LINE
  5
95
330
1F
100
AcDbEntity
  8
0
  6
HIDDEN
 62
     7
370
    18
100
AcDbLine
 10
2709.3505224314
 20
2051.2372456128
 30
0.0
 11
2709.3505224314
 21
1901.2372456128
 31
0.0
  0
ARC
  5
96
330
1F
100
AcDbEntity
  8
0
  6
HIDDEN
 62
     7
370
    18
100
AcDbCircle
 10
2125.3505224314
 20
3360.2372456128
 30
0.0
 40
1172.3
100
AcDbArc
 50
199.4868039297
 51
225.0433740241
  0
ARC
  5
97
330
1F
100
AcDbEntity
  8
0
  6
HIDDEN
 62
     7
370
    18
100
AcDbCircle
 10
1957.3505224314
 20
3528.2372456128
 30
0.0
 40
820.0000000000014
100
AcDbArc
 50
0.0
 51
90.0
  0
ARC
  5
98
330
1F
100
AcDbEntity
  8
0
  6
HIDDEN
 62
     7
370
    18
100
AcDbCircle
 10
2125.3505224314
 20
3360.2372456128
 30
0.0
 40
1170.000000000002
100
AcDbArc
 50
180.0
 51
264.7077386841
  0
ARC
  5
99
330
1F
100
AcDbEntity
  8
0
  6
HIDDEN
 62
     7
370
    18
100
AcDbCircle
 10
1943.3505224314
 20
3360.2372456128
 30
0.0
 40
988.0000000000014
100
AcDbArc
 50
90.0
 51
180.0
  0
LINE
  5
9A
330
1F
100
AcDbEntity
  8
0
  6
HIDDEN
 62
     7
370
    18
100
AcDbLine
 10
2777.3505224314
 20
3397.2372456128
 30
0.0
 11
2859.3505224314
 21
3397.2372456128
 31
0.0
  0
LINE
  5
9B
330
1F
100
AcDbEntity
  8
0
  6
HIDDEN
 62
     7
370
    18
100
AcDbLine
 10
2777.3505224314
 20
3528.2372456128
 30
0.0
 11
2777.3505224314
 21
3397.2372456128
 31
0.0
  0
LINE
  5
9C
330
1F
100
AcDbEntity
  8
0
  6
HIDDEN
 62
     7
370
    18
100
AcDbLine
 10
2859.3505224314
 20
2117.2372456128
 30
0.0
 11
2017.4342871482
 21
2195.2247623482
 31
0.0
  0
LINE
  5
9D
330
1F
100
AcDbEntity
  8
0
  6
HIDDEN
 62
     7
370
    18
100
AcDbLine
 10
1943.3505224314
 20
4348.2372456128
 30
0.0
 11
1957.3505224314
 21
4348.2372456128
 31
0.0
  0
CIRCLE
  5
9E
330
1F
100
AcDbEntity
  8
0
  6
HIDDEN
 62
     7
370
    18
100
AcDbCircle
 10
2034.3505224314
 20
3451.2372456128
 30
0.0
 40
625.0000000000009
  0
CIRCLE
  5
9F
330
1F
100
AcDbEntity
  8
0
  6
HIDDEN
 62
     7
370
    18
100
AcDbCircle
 10
2034.3505224314
 20
3451.2372456128
 30
0.0
 40
675.0000000000011
  0
CIRCLE
  5
A0
330
1F
100
AcDbEntity
  8
0
  6
HIDDEN
 62
     7
370
    18
100
AcDbCircle
 10
2034.3505224314
 20
3451.2372456128
 30
0.0
 40
627.3000000000009
  0
CIRCLE
  5
A1
330
1F
100
AcDbEntity
  8
0
  6
HIDDEN
 62
     7
370
    18
100
AcDbCircle
 10
2332.8492760102
 20
2865.4004559589
 30
0.0
 40
6.0
  0
CIRCLE
  5
A2
330
1F
100
AcDbEntity
  8
0
  6
HIDDEN
 62
     7
370
    18
100
AcDbCircle
 10
2499.2732310616
 20
2986.3145369826
 30
0.0
 40
6.0
  0
CIRCLE
  5
A3
330
1F
100
AcDbEntity
  8
0
  6
HIDDEN
 62
     7
370
    18
100
AcDbCircle
 10
2620.1873120853
 20
3152.738492034
 30
0.0
 40
6.0
  0
CIRCLE
  5
A4
330
1F
100
AcDbEntity
  8
0
  6
HIDDEN
 62
     7
370
    18
100
AcDbCircle
 10
2683.7556063727
 20
3348.3815848488
 30
0.0
 40
5.999999999999545
  0
CIRCLE
  5
A5
330
1F
100
AcDbEntity
  8
0
  6
HIDDEN
 62
     7
370
    18
100
AcDbCircle
 10
2683.7556063727
 20
3554.0929063767
 30
0.0
 40
5.999999999999545
  0
CIRCLE
  5
A6
330
1F
100
AcDbEntity
  8
0
  6
HIDDEN
 62
     7
370
    18
100
AcDbCircle
 10
2620.1873120853
 20
3749.7359991915
 30
0.0
 40
6.0
  0
CIRCLE
  5
A7
330
1F
100
AcDbEntity
  8
0
  6
HIDDEN
 62
     7
370
    18
100
AcDbCircle
 10
2499.2732310616
 20
3916.1599542429
 30
0.0
 40
5.999999999999545
  0
CIRCLE
  5
A8
330
1F
100
AcDbEntity
  8
0
  6
HIDDEN
 62
     7
370
    18
100
AcDbCircle
 10
2332.8492760102
 20
4037.0740352666
 30
0.0
 40
6.0
  0
CIRCLE
  5
A9
330
1F
100
AcDbEntity
  8
0
  6
HIDDEN
 62
     7
370
    18
100
AcDbCircle
 10
2137.2061831954
 20
4100.6423295541
 30
0.0
 40
6.0
  0
CIRCLE
  5
AA
330
1F
100
AcDbEntity
  8
0
  6
HIDDEN
 62
     7
370
    18
100
AcDbCircle
 10
1931.4948616675
 20
4100.6423295541
 30
0.0
 40
6.0
  0
CIRCLE
  5
AB
330
1F
100
AcDbEntity
  8
0
  6
HIDDEN
 62
     7
370
    18
100
AcDbCircle
 10
1735.8517688527
 20
4037.0740352666
 30
0.0
 40
5.999999999999773
  0
CIRCLE
  5
AC
330
1F
100
AcDbEntity
  8
0
  6
HIDDEN
 62
     7
370
    18
100
AcDbCircle
 10
1448.5137327776
 20
3749.7359991915
 30
0.0
 40
5.999999999999773
  0
CIRCLE
  5
AD
330
1F
100
AcDbEntity
  8
0
  6
HIDDEN
 62
     7
370
    18
100
AcDbCircle
 10
1384.9454384901
 20
3554.0929063767
 30
0.0
 40
6.0
  0
CIRCLE
  5
AE
330
1F
100
AcDbEntity
  8
0
  6
HIDDEN
 62
     7
370
    18
100
AcDbCircle
 10
1384.9454384901
 20
3348.3815848488
 30
0.0
 40
6.0
  0
CIRCLE
  5
AF
330
1F
100
AcDbEntity
  8
0
  6
HIDDEN
 62
     7
370
    18
100
AcDbCircle
 10
1448.5137327776
 20
3152.738492034
 30
0.0
 40
6.0
  0
CIRCLE
  5
B0
330
1F
100
AcDbEntity
  8
0
  6
HIDDEN
 62
     7
370
    18
100
AcDbCircle
 10
1569.4278138013
 20
2986.3145369826
 30
0.0
 40
6.0
  0
CIRCLE
  5
B1
330
1F
100
AcDbEntity
  8
0
  6
HIDDEN
 62
     7
370
    18
100
AcDbCircle
 10
1735.8517688527
 20
2865.4004559589
 30
0.0
 40
6.000000000000227
  0
CIRCLE
  5
B2
330
1F
100
AcDbEntity
  8
0
  6
HIDDEN
 62
     7
370
    18
100
AcDbCircle
 10
1931.4948616675
 20
2801.8321616715
 30
0.0
 40
5.999999999999773
  0
CIRCLE
  5
B3
330
1F
100
AcDbEntity
  8
0
  6
HIDDEN
 62
     7
370
    18
100
AcDbCircle
 10
2137.2061831954
 20
2801.8321616715
 30
0.0
 40
6.0
  0
CIRCLE
  5
B4
330
1F
100
AcDbEntity
  8
0
  6
HIDDEN
 62
     7
370
    18
100
AcDbCircle
 10
1569.4278138013
 20
3916.1599542429
 30
0.0
 40
5.999999999999773
  0
LINE
  5
B5
330
1F
100
AcDbEntity
  8
0
  6
HIDDEN
 62
     7
370
    18
100
AcDbLine
 10
366.3505224314
 20
1901.2372456128
 30
0.0
 11
366.3505224314
 21
1907.7372456128
 31
0.0
  0
LINE
  5
B6
330
1F
100
AcDbEntity
  8
0
  6
HIDDEN
 62
     7
370
    18
100
AcDbLine
 10
342.3505224314
 20
1907.7372456128
 30
0.0
 11
342.3505224314
 21
1901.2372456128
 31
0.0
  0
LINE
  5
B7
330
1F
100
AcDbEntity
  8
0
  6
HIDDEN
 62
     7
370
    18
100
AcDbLine
 10
1136.3505224314
 20
1901.2372456128
 30
0.0
 11
1136.3505224314
 21
1907.7372456128
 31
0.0
  0
LINE
  5
B8
330
1F
100
AcDbEntity
  8
0
  6
HIDDEN
 62
     7
370
    18
100
AcDbLine
 10
1112.3505224314
 20
1907.7372456128
 30
0.0
 11
1112.3505224314
 21
1901.2372456128
 31
0.0
  0
LINE
  5
B9
330
1F
100
AcDbEntity
  8
0
  6
HIDDEN
 62
     7
370
    18
100
AcDbLine
 10
2676.3505224314
 20
1901.2372456128
 30
0.0
 11
2676.3505224314
 21
1907.7372456128
 31
0.0
  0
LINE
  5
BA
330
1F
100
AcDbEntity
  8
0
  6
HIDDEN
 62
     7
370
    18
100
AcDbLine
 10
2652.3505224314
 20
1907.7372456128
 30
0.0
 11
2652.3505224314
 21
1901.2372456128
 31
0.0
  0
LINE
  5
BB
330
1F
100
AcDbEntity
  8
0
  6
HIDDEN
 62
     7
370
    18
100
AcDbLine
 10
1906.3505224314
 20
1901.2372456128
 30
0.0
 11
1906.3505224314
 21
1907.7372456128
 31
0.0
  0
LINE
  5
BC
330
1F
100
AcDbEntity
  8
0
  6
HIDDEN
 62
     7
370
    18
100
AcDbLine
 10
1882.3505224314
 20
1907.7372456128
 30
0.0
 11
1882.3505224314
 21
1901.2372456128
 31
0.0
  0
LINE
  5
BD
330
1F
100
AcDbEntity
  8
0
  6
HIDDEN
 62
     7
370
    18
100
AcDbLine
 10
2859.3505224314
 20
2663.2372456128
 30
0.0
 11
2855.3505224314
 21
2663.2372456128
 31
0.0
  0
LINE
  5
BE
330
1F
100
AcDbEntity
  8
0
  6
HIDDEN
 62
     7
370
    18
100
AcDbLine
 10
2855.3505224314
 20
2651.2372456128
 30
0.0
 11
2859.3505224314
 21
2651.2372456128
 31
0.0
  0
LINE
  5
BF
330
1F
100
AcDbEntity
  8
0
  6
HIDDEN
 62
     7
370
    18
100
AcDbLine
 10
2859.3505224314
 20
3263.2372456128
 30
0.0
 11
2855.3505224314
 21
3263.2372456128
 31
0.0
  0
LINE
  5
C0
330
1F
100
AcDbEntity
  8
0
  6
HIDDEN
 62
     7
370
    18
100
AcDbLine
 10
2855.3505224314
 20
3251.2372456128
 30
0.0
 11
2859.3505224314
 21
3251.2372456128
 31
0.0
  0
LINE
  5
C1
330
1F
100
AcDbEntity
  8
0
  6
HIDDEN
 62
     7
370
    18
100
AcDbLine
 10
2859.3505224314
 20
3436.2372456128
 30
0.0
 11
2855.3505224314
 21
3436.2372456128
 31
0.0
  0
LINE
  5
C2
330
1F
100
AcDbEntity
  8
0
  6
HIDDEN
 62
     7
370
    18
100
AcDbLine
 10
2855.3505224314
 20
3424.2372456128
 30
0.0
 11
2859.3505224314
 21
3424.2372456128
 31
0.0
  0
LINE
  5
C3
330
1F
100
AcDbEntity
  8
0
  6
HIDDEN
 62
     7
370
    18
100
AcDbLine
 10
2859.3505224314
 20
2090.2372456128
 30
0.0
 11
2855.3505224314
 21
2090.2372456128
 31
0.0
  0
LINE
  5
C4
330
1F
100
AcDbEntity
  8
0
  6
HIDDEN
 62
     7
370
    18
100
AcDbLine
 10
2855.3505224314
 20
2078.2372456128
 30
0.0
 11
2859.3505224314
 21
2078.2372456128
 31
0.0
  0
LINE
  5
C5
330
1F
100
AcDbEntity
  8
0
  6
HIDDEN
 62
     7
370
    18
100
AcDbLine
 10
2859.3505224314
 20
3063.2372456128
 30
0.0
 11
2855.3505224314
 21
3063.2372456128
 31
0.0
  0
LINE
  5
C6
330
1F
100
AcDbEntity
  8
0
  6
HIDDEN
 62
     7
370
    18
100
AcDbLine
 10
2855.3505224314
 20
3051.2372456128
 30
0.0
 11
2859.3505224314
 21
3051.2372456128
 31
0.0
  0
LINE
  5
C7
330
1F
100
AcDbEntity
  8
0
  6
HIDDEN
 62
     7
370
    18
100
AcDbLine
 10
2859.3505224314
 20
2863.2372456128
 30
0.0
 11
2855.3505224314
 21
2863.2372456128
 31
0.0
  0
LINE
  5
C8
330
1F
100
AcDbEntity
  8
0
  6
HIDDEN
 62
     7
370
    18
100
AcDbLine
 10
2855.3505224314
 20
2851.2372456128
 30
0.0
 11
2859.3505224314
 21
2851.2372456128
 31
0.0
  0
LINE
  5
C9
330
1F
100
AcDbEntity
  8
0
  6
HIDDEN
 62
     7
370
    18
100
AcDbLine
 10
2859.3505224314
 20
2463.2372456128
 30
0.0
 11
2855.3505224314
 21
2463.2372456128
 31
0.0
  0
LINE
  5
CA
330
1F
100
AcDbEntity
  8
0
  6
HIDDEN
 62
     7
370
    18
100
AcDbLine
 10
2855.3505224314
 20
2451.2372456128
 30
0.0
 11
2859.3505224314
 21
2451.2372456128
 31
0.0
  0
LINE
  5
CB
330
1F
100
AcDbEntity
  8
0
  6
HIDDEN
 62
     7
370
    18
100
AcDbLine
 10
2859.3505224314
 20
2263.2372456128
 30
0.0
 11
2855.3505224314
 21
2263.2372456128
 31
0.0
  0
LINE
  5
CC
330
1F
100
AcDbEntity
  8
0
  6
HIDDEN
 62
     7
370
    18
100
AcDbLine
 10
2855.3505224314
 20
2251.2372456128
 30
0.0
 11
2859.3505224314
 21
2251.2372456128
 31
0.0
  0
INSERT
  5
D8
330
1F
100
AcDbEntity
  8
2
100
AcDbBlockReference
  2
SW_CENTERMARKSYMBOL_0
 10
2034.3505224314
 20
3451.2372456128
 30
0.0
  0
LINE
  5
D9
330
1F
100
AcDbEntity
  8
1
100
AcDbLine
 10
3455.7762022737
 20
3776.2372456128
 30
0.0
 11
3295.7762022737
 21
3776.2372456128
 31
0.0
  0
LINE
  5
DA
330
1F
100
AcDbEntity
  8
1
100
AcDbLine
 10
3295.7762022737
 20
2073.7372456128
 30
0.0
 11
3455.7762022737
 21
2073.7372456128
 31
0.0
  0
LINE
  5
DB
330
1F
100
AcDbEntity
  8
1
100
AcDbLine
 10
3687.7762022737
 20
2481.7372456128
 30
0.0
 11
3523.2762022737
 21
2481.7372456128
 31
0.0
  0
LINE
  5
DC
330
1F
100
AcDbEntity
  8
1
100
AcDbLine
 10
3455.7762022737
 20
2262.2372456128
 30
0.0
 11
3523.2762022737
 21
2262.2372456128
 31
0.0
  0
LINE
  5
DD
330
1F
100
AcDbEntity
  8
1
100
AcDbLine
 10
3523.2762022737
 20
2310.2372456128
 30
0.0
 11
3455.7762022737
 21
2310.2372456128
 31
0.0
  0
LINE
  5
DE
330
1F
100
AcDbEntity
  8
1
100
AcDbLine
 10
4793.7762022737
 20
4126.2372456128
 30
0.0
 11
4791.4762022737
 21
4126.2372456128
 31
0.0
  0
LINE
  5
DF
330
1F
100
AcDbEntity
  8
1
100
AcDbLine
 10
4791.4762022737
 20
2776.2372456128
 30
0.0
 11
4793.7762022737
 21
2776.2372456128
 31
0.0
  0
LINE
  5
E0
330
1F
100
AcDbEntity
  8
1
100
AcDbLine
 10
4700.7762022737
 20
4126.2372456128
 30
0.0
 11
4693.9762022737
 21
4126.2372456128
 31
0.0
  0
LINE
  5
E1
330
1F
100
AcDbEntity
  8
1
100
AcDbLine
 10
4791.4762022737
 20
4078.5372456128
 30
0.0
 11
4700.7762022737
 21
4078.5372456128
 31
0.0
  0
LINE
  5
E2
330
1F
100
AcDbEntity
  8
1
100
AcDbLine
 10
4743.7762022737
 20
2823.9372456128
 30
0.0
 11
4791.4762022737
 21
2823.9372456128
 31
0.0
  0
LINE
  5
E3
330
1F
100
AcDbEntity
  8
1
100
AcDbLine
 10
3295.7762022737
 20
3186.0336781958
 30
0.0
 11
3295.7762022737
 21
3776.2372456128
 31
0.0
  0
LINE
  5
E4
330
1F
100
AcDbEntity
  8
1
100
AcDbLine
 10
3455.7762022737
 20
3186.0336781958
 30
0.0
 11
3455.7762022737
 21
3776.2372456128
 31
0.0
  0
LINE
  5
E5
330
1F
100
AcDbEntity
  8
1
100
AcDbLine
 10
3295.7762022737
 20
2112.8349130709
 30
0.0
 11
3295.7762022737
 21
3186.0336781958
 31
0.0
  0
LINE
  5
E6
330
1F
100
AcDbEntity
  8
1
100
AcDbLine
 10
3455.7762022737
 20
2112.8349130709
 30
0.0
 11
3455.7762022737
 21
3186.0336781958
 31
0.0
  0
LINE
  5
E7
330
1F
100
AcDbEntity
  8
1
100
AcDbLine
 10
3295.7762022737
 20
2073.7372456128
 30
0.0
 11
3295.7762022737
 21
2112.8349130709
 31
0.0
  0
LINE
  5
E8
330
1F
100
AcDbEntity
  8
1
100
AcDbLine
 10
3455.7762022737
 20
2073.7372456128
 30
0.0
 11
3455.7762022737
 21
2112.8349130709
 31
0.0
  0
LINE
  5
E9
330
1F
100
AcDbEntity
  8
1
100
AcDbLine
 10
3559.7762022737
 20
2051.2372456128
 30
0.0
 11
3559.7762022737
 21
2106.2372456128
 31
0.0
  0
LINE
  5
EA
330
1F
100
AcDbEntity
  8
1
100
AcDbLine
 10
3969.7762022737
 20
2051.2372456128
 30
0.0
 11
3969.7762022737
 21
2064.2372456128
 31
0.0
  0
LINE
  5
EB
330
1F
100
AcDbEntity
  8
1
100
AcDbLine
 10
3687.7762022737
 20
2106.2372456128
 30
0.0
 11
3559.7762022737
 21
2106.2372456128
 31
0.0
  0
LINE
  5
EC
330
1F
100
AcDbEntity
  8
1
100
AcDbLine
 10
3602.7762022737
 20
2115.2372456128
 30
0.0
 11
3523.2762022737
 21
2115.2372456128
 31
0.0
  0
LINE
  5
ED
330
1F
100
AcDbEntity
  8
1
100
AcDbLine
 10
3523.2762022737
 20
2481.7372456128
 30
0.0
 11
3523.2762022737
 21
2115.2372456128
 31
0.0
  0
LINE
  5
EE
330
1F
100
AcDbEntity
  8
1
100
AcDbLine
 10
3602.7762022737
 20
2106.2372456128
 30
0.0
 11
3602.7762022737
 21
2124.2372456128
 31
0.0
  0
LINE
  5
EF
330
1F
100
AcDbEntity
  8
1
100
AcDbLine
 10
3602.7762022737
 20
2124.2372456128
 30
0.0
 11
3687.7762022737
 21
2124.2372456128
 31
0.0
  0
LINE
  5
F0
330
1F
100
AcDbEntity
  8
1
100
AcDbLine
 10
4768.7762022737
 20
1907.7372456128
 30
0.0
 11
4768.7762022737
 21
1901.2372456128
 31
0.0
  0
LINE
  5
F1
330
1F
100
AcDbEntity
  8
1
100
AcDbLine
 10
3488.7762022737
 20
1901.2372456128
 30
0.0
 11
4768.7762022737
 21
1901.2372456128
 31
0.0
  0
LINE
  5
F2
330
1F
100
AcDbEntity
  8
1
100
AcDbLine
 10
3488.7762022737
 20
1907.7372456128
 30
0.0
 11
3488.7762022737
 21
1901.2372456128
 31
0.0
  0
LINE
  5
F3
330
1F
100
AcDbEntity
  8
1
100
AcDbLine
 10
3488.7762022737
 20
1907.7372456128
 30
0.0
 11
4768.7762022737
 21
1907.7372456128
 31
0.0
  0
LINE
  5
F4
330
1F
100
AcDbEntity
  8
1
100
AcDbLine
 10
3488.7762022737
 20
2051.2372456128
 30
0.0
 11
4768.7762022737
 21
2051.2372456128
 31
0.0
  0
LINE
  5
F5
330
1F
100
AcDbEntity
  8
1
100
AcDbLine
 10
4768.7762022737
 20
2051.2372456128
 30
0.0
 11
4768.7762022737
 21
2044.7372456128
 31
0.0
  0
LINE
  5
F6
330
1F
100
AcDbEntity
  8
1
100
AcDbLine
 10
3488.7762022737
 20
2044.7372456128
 30
0.0
 11
4768.7762022737
 21
2044.7372456128
 31
0.0
  0
LINE
  5
F7
330
1F
100
AcDbEntity
  8
1
100
AcDbLine
 10
3488.7762022737
 20
2051.2372456128
 30
0.0
 11
3488.7762022737
 21
2044.7372456128
 31
0.0
  0
LINE
  5
F8
330
1F
100
AcDbEntity
  8
1
100
AcDbLine
 10
4700.2762022737
 20
2044.7372456128
 30
0.0
 11
4700.2762022737
 21
1907.7372456128
 31
0.0
  0
LINE
  5
F9
330
1F
100
AcDbEntity
  8
1
100
AcDbLine
 10
3557.2762022737
 20
2044.7372456128
 30
0.0
 11
3557.2762022737
 21
1907.7372456128
 31
0.0
  0
CIRCLE
  5
FA
330
1F
100
AcDbEntity
  8
1
100
AcDbCircle
 10
3707.7762022737
 20
2084.2372456128
 30
0.0
 40
6.000000000000455
  0
CIRCLE
  5
FB
330
1F
100
AcDbEntity
  8
1
100
AcDbCircle
 10
3815.7762022737
 20
2084.2372456128
 30
0.0
 40
5.999999999999545
  0
CIRCLE
  5
FC
330
1F
100
AcDbEntity
  8
1
100
AcDbCircle
 10
4015.7762022737
 20
2084.2372456128
 30
0.0
 40
6.0
  0
CIRCLE
  5
FD
330
1F
100
AcDbEntity
  8
1
100
AcDbCircle
 10
4215.7762022737
 20
2084.2372456128
 30
0.0
 40
6.0
  0
CIRCLE
  5
FE
330
1F
100
AcDbEntity
  8
1
100
AcDbCircle
 10
3707.7762022737
 20
2257.2372456128
 30
0.0
 40
6.000000000000455
  0
CIRCLE
  5
FF
330
1F
100
AcDbEntity
  8
1
100
AcDbCircle
 10
3707.7762022737
 20
2457.2372456128
 30
0.0
 40
6.000000000000455
  0
CIRCLE
  5
100
330
1F
100
AcDbEntity
  8
1
100
AcDbCircle
 10
3707.7762022737
 20
2657.2372456128
 30
0.0
 40
6.000000000000455
  0
CIRCLE
  5
101
330
1F
100
AcDbEntity
  8
1
100
AcDbCircle
 10
4723.7762022737
 20
2657.2372456128
 30
0.0
 40
6.0
  0
CIRCLE
  5
102
330
1F
100
AcDbEntity
  8
1
100
AcDbCircle
 10
4723.7762022737
 20
2457.2372456128
 30
0.0
 40
6.0
  0
CIRCLE
  5
103
330
1F
100
AcDbEntity
  8
1
100
AcDbCircle
 10
4723.7762022737
 20
2257.2372456128
 30
0.0
 40
6.0
  0
CIRCLE
  5
104
330
1F
100
AcDbEntity
  8
1
100
AcDbCircle
 10
4415.7762022737
 20
2084.2372456128
 30
0.0
 40
5.999999999999091
  0
CIRCLE
  5
105
330
1F
100
AcDbEntity
  8
1
100
AcDbCircle
 10
4615.7762022737
 20
2084.2372456128
 30
0.0
 40
6.0
  0
CIRCLE
  5
106
330
1F
100
AcDbEntity
  8
1
100
AcDbCircle
 10
4723.7762022737
 20
3430.2372456128
 30
0.0
 40
6.0
  0
CIRCLE
  5
107
330
1F
100
AcDbEntity
  8
1
100
AcDbCircle
 10
4615.7762022737
 20
3430.2372456128
 30
0.0
 40
6.0
  0
CIRCLE
  5
108
330
1F
100
AcDbEntity
  8
1
100
AcDbCircle
 10
4415.7762022737
 20
3430.2372456128
 30
0.0
 40
5.999999999999091
  0
CIRCLE
  5
109
330
1F
100
AcDbEntity
  8
1
100
AcDbCircle
 10
4723.7762022737
 20
3257.2372456128
 30
0.0
 40
6.0
  0
CIRCLE
  5
10A
330
1F
100
AcDbEntity
  8
1
100
AcDbCircle
 10
4723.7762022737
 20
3057.2372456128
 30
0.0
 40
6.0
  0
CIRCLE
  5
10B
330
1F
100
AcDbEntity
  8
1
100
AcDbCircle
 10
4723.7762022737
 20
2857.2372456128
 30
0.0
 40
6.0
  0
CIRCLE
  5
10C
330
1F
100
AcDbEntity
  8
1
100
AcDbCircle
 10
3707.7762022737
 20
2857.2372456128
 30
0.0
 40
6.000000000000455
  0
CIRCLE
  5
10D
330
1F
100
AcDbEntity
  8
1
100
AcDbCircle
 10
3707.7762022737
 20
3057.2372456128
 30
0.0
 40
6.000000000000455
  0
CIRCLE
  5
10E
330
1F
100
AcDbEntity
  8
1
100
AcDbCircle
 10
3707.7762022737
 20
3257.2372456128
 30
0.0
 40
6.000000000000455
  0
CIRCLE
  5
10F
330
1F
100
AcDbEntity
  8
1
100
AcDbCircle
 10
4215.7762022737
 20
3430.2372456128
 30
0.0
 40
6.0
  0
CIRCLE
  5
110
330
1F
100
AcDbEntity
  8
1
100
AcDbCircle
 10
4015.7762022737
 20
3430.2372456128
 30
0.0
 40
6.0
  0
CIRCLE
  5
111
330
1F
100
AcDbEntity
  8
1
100
AcDbCircle
 10
3815.7762022737
 20
3430.2372456128
 30
0.0
 40
5.999999999999545
  0
LINE
  5
112
330
1F
100
AcDbEntity
  8
1
100
AcDbLine
 10
3687.7762022737
 20
3450.2372456128
 30
0.0
 11
4743.7762022737
 21
3450.2372456128
 31
0.0
  0
LINE
  5
113
330
1F
100
AcDbEntity
  8
1
100
AcDbLine
 10
4743.7762022737
 20
3450.2372456128
 30
0.0
 11
4743.7762022737
 21
2064.2372456128
 31
0.0
  0
LINE
  5
114
330
1F
100
AcDbEntity
  8
1
100
AcDbLine
 10
3687.7762022737
 20
2064.2372456128
 30
0.0
 11
3687.7762022737
 21
3450.2372456128
 31
0.0
  0
LINE
  5
115
330
1F
100
AcDbEntity
  8
1
100
AcDbLine
 10
3740.7762022737
 20
3397.2372456128
 30
0.0
 11
4690.7762022737
 21
3397.2372456128
 31
0.0
  0
LINE
  5
116
330
1F
100
AcDbEntity
  8
1
100
AcDbLine
 10
3740.7762022737
 20
3397.2372456128
 30
0.0
 11
3740.7762022737
 21
2117.2372456128
 31
0.0
  0
LINE
  5
117
330
1F
100
AcDbEntity
  8
1
100
AcDbLine
 10
3740.7762022737
 20
2117.2372456128
 30
0.0
 11
4690.7762022737
 21
2117.2372456128
 31
0.0
  0
LINE
  5
118
330
1F
100
AcDbEntity
  8
1
100
AcDbLine
 10
4690.7762022737
 20
3397.2372456128
 30
0.0
 11
4690.7762022737
 21
2117.2372456128
 31
0.0
  0
CIRCLE
  5
119
330
1F
100
AcDbEntity
  8
1
100
AcDbCircle
 10
3707.7762022737
 20
3430.2372456128
 30
0.0
 40
6.000000000000455
  0
CIRCLE
  5
11A
330
1F
100
AcDbEntity
  8
1
100
AcDbCircle
 10
4723.7762022737
 20
2084.2372456128
 30
0.0
 40
6.0
  0
LINE
  5
11B
330
1F
100
AcDbEntity
  8
1
100
AcDbLine
 10
4743.7762022737
 20
2064.2372456128
 30
0.0
 11
3687.7762022737
 21
2064.2372456128
 31
0.0
  0
LINE
  5
11C
330
1F
100
AcDbEntity
  8
1
100
AcDbLine
 10
3737.5762022737
 20
4350.5372456128
 30
0.0
 11
4693.9762022737
 21
4350.5372456128
 31
0.0
  0
LINE
  5
11D
330
1F
100
AcDbEntity
  8
1
100
AcDbLine
 10
3737.5762022737
 20
4350.5372456128
 30
0.0
 11
3737.5762022737
 21
3528.2372456128
 31
0.0
  0
LINE
  5
11E
330
1F
100
AcDbEntity
  8
1
100
AcDbLine
 10
4693.9762022737
 20
4350.5372456128
 30
0.0
 11
4693.9762022737
 21
3528.2372456128
 31
0.0
  0
LINE
  5
11F
330
1F
100
AcDbEntity
  8
1
100
AcDbLine
 10
3737.5762022737
 20
3528.2372456128
 30
0.0
 11
3737.5762022737
 21
3450.2372456128
 31
0.0
  0
LINE
  5
120
330
1F
100
AcDbEntity
  8
1
100
AcDbLine
 10
4693.9762022737
 20
3528.2372456128
 30
0.0
 11
4693.9762022737
 21
3450.2372456128
 31
0.0
  0
LINE
  5
121
330
1F
100
AcDbEntity
  8
1
100
AcDbLine
 10
4791.4762022737
 20
2776.2372456128
 30
0.0
 11
4791.4762022737
 21
4126.2372456128
 31
0.0
  0
LINE
  5
122
330
1F
100
AcDbEntity
  8
1
100
AcDbLine
 10
4793.7762022737
 20
2776.2372456128
 30
0.0
 11
4793.7762022737
 21
4126.2372456128
 31
0.0
  0
LINE
  5
123
330
1F
100
AcDbEntity
  8
1
100
AcDbLine
 10
4700.7762022737
 20
3451.2372456128
 30
0.0
 11
4700.7762022737
 21
3450.2372456128
 31
0.0
  0
LINE
  5
124
330
1F
100
AcDbEntity
  8
1
100
AcDbLine
 10
4700.7762022737
 20
4126.2372456128
 30
0.0
 11
4700.7762022737
 21
3451.2372456128
 31
0.0
  0
LINE
  5
125
330
1F
100
AcDbEntity
  8
0
  6
HIDDEN
 62
     7
370
    18
100
AcDbLine
 10
3969.7762022737
 20
2064.2372456128
 30
0.0
 11
3969.7762022737
 21
2106.2372456128
 31
0.0
  0
LINE
  5
126
330
1F
100
AcDbEntity
  8
0
  6
HIDDEN
 62
     7
370
    18
100
AcDbLine
 10
3969.7762022737
 20
2106.2372456128
 30
0.0
 11
3687.7762022737
 21
2106.2372456128
 31
0.0
  0
LINE
  5
127
330
1F
100
AcDbEntity
  8
0
  6
HIDDEN
 62
     7
370
    18
100
AcDbLine
 10
4078.2762022737
 20
2115.2372456128
 30
0.0
 11
3926.7762022737
 21
2115.2372456128
 31
0.0
  0
LINE
  5
128
330
1F
100
AcDbEntity
  8
0
  6
HIDDEN
 62
     7
370
    18
100
AcDbLine
 10
4078.2762022737
 20
2115.2372456128
 30
0.0
 11
4078.2762022737
 21
2481.7372456128
 31
0.0
  0
LINE
  5
129
330
1F
100
AcDbEntity
  8
0
  6
HIDDEN
 62
     7
370
    18
100
AcDbLine
 10
3926.7762022737
 20
2106.2372456128
 30
0.0
 11
3926.7762022737
 21
2124.2372456128
 31
0.0
  0
LINE
  5
12A
330
1F
100
AcDbEntity
  8
0
  6
HIDDEN
 62
     7
370
    18
100
AcDbLine
 10
3687.7762022737
 20
2124.2372456128
 30
0.0
 11
3926.7762022737
 21
2124.2372456128
 31
0.0
  0
LINE
  5
12B
330
1F
100
AcDbEntity
  8
0
  6
HIDDEN
 62
     7
370
    18
100
AcDbLine
 10
3338.2762022737
 20
2174.051848483
 30
0.0
 11
3338.2762022737
 21
2173.7372456128
 31
0.0
  0
LINE
  5
12C
330
1F
100
AcDbEntity
  8
0
  6
HIDDEN
 62
     7
370
    18
100
AcDbLine
 10
3338.2762022737
 20
2398.7372456128
 30
0.0
 11
3338.2762022737
 21
2174.051848483
 31
0.0
  0
LINE
  5
12D
330
1F
100
AcDbEntity
  8
0
  6
HIDDEN
 62
     7
370
    18
100
AcDbLine
 10
3413.2762022737
 20
2174.051848483
 30
0.0
 11
3413.2762022737
 21
2173.7372456128
 31
0.0
  0
LINE
  5
12E
330
1F
100
AcDbEntity
  8
0
  6
HIDDEN
 62
     7
370
    18
100
AcDbLine
 10
3413.2762022737
 20
2398.7372456128
 30
0.0
 11
3413.2762022737
 21
2174.051848483
 31
0.0
  0
LINE
  5
12F
330
1F
100
AcDbEntity
  8
0
  6
HIDDEN
 62
     7
370
    18
100
AcDbLine
 10
3338.2762022737
 20
3675.6242032656
 30
0.0
 11
3338.2762022737
 21
3226.2372456128
 31
0.0
  0
LINE
  5
130
330
1F
100
AcDbEntity
  8
0
  6
HIDDEN
 62
     7
370
    18
100
AcDbLine
 10
3338.2762022737
 20
3676.2372456128
 30
0.0
 11
3338.2762022737
 21
3675.6242032656
 31
0.0
  0
LINE
  5
131
330
1F
100
AcDbEntity
  8
0
  6
HIDDEN
 62
     7
370
    18
100
AcDbLine
 10
3413.2762022737
 20
3675.6242032656
 30
0.0
 11
3413.2762022737
 21
3226.2372456128
 31
0.0
  0
LINE
  5
132
330
1F
100
AcDbEntity
  8
0
  6
HIDDEN
 62
     7
370
    18
100
AcDbLine
 10
3413.2762022737
 20
3676.2372456128
 30
0.0
 11
3413.2762022737
 21
3675.6242032656
 31
0.0
  0
LINE
  5
133
330
1F
100
AcDbEntity
  8
0
  6
HIDDEN
 62
     7
370
    18
100
AcDbLine
 10
4693.7762022737
 20
2051.2372456128
 30
0.0
 11
4693.7762022737
 21
1901.2372456128
 31
0.0
  0
LINE
  5
134
330
1F
100
AcDbEntity
  8
0
  6
HIDDEN
 62
     7
370
    18
100
AcDbLine
 10
3563.7762022737
 20
2051.2372456128
 30
0.0
 11
3563.7762022737
 21
1901.2372456128
 31
0.0
  0
LINE
  5
135
330
1F
100
AcDbEntity
  8
0
  6
HIDDEN
 62
     7
370
    18
100
AcDbLine
 10
4693.9762022737
 20
2115.2979229949
 30
0.0
 11
4693.9762022737
 21
3399.5372456128
 31
0.0
  0
LINE
  5
136
330
1F
100
AcDbEntity
  8
0
  6
HIDDEN
 62
     7
370
    18
100
AcDbLine
 10
4693.9762022737
 20
2115.2979229949
 30
0.0
 11
3737.5762022737
 21
2115.2979229949
 31
0.0
  0
LINE
  5
137
330
1F
100
AcDbEntity
  8
0
  6
HIDDEN
 62
     7
370
    18
100
AcDbLine
 10
3737.5762022737
 20
3399.5372456128
 30
0.0
 11
4693.9762022737
 21
3399.5372456128
 31
0.0
  0
LINE
  5
138
330
1F
100
AcDbEntity
  8
0
  6
HIDDEN
 62
     7
370
    18
100
AcDbLine
 10
3737.5762022737
 20
2115.2979229949
 30
0.0
 11
3737.5762022737
 21
3399.5372456128
 31
0.0
  0
LINE
  5
139
330
1F
100
AcDbEntity
  8
0
  6
HIDDEN
 62
     7
370
    18
100
AcDbLine
 10
3737.5762022737
 20
3450.2372456128
 30
0.0
 11
3737.5762022737
 21
3399.5372456128
 31
0.0
  0
LINE
  5
13A
330
1F
100
AcDbEntity
  8
0
  6
HIDDEN
 62
     7
370
    18
100
AcDbLine
 10
4693.9762022737
 20
3450.2372456128
 30
0.0
 11
4693.9762022737
 21
3399.5372456128
 31
0.0
  0
LINE
  5
13B
330
1F
100
AcDbEntity
  8
0
  6
HIDDEN
 62
     7
370
    18
100
AcDbLine
 10
3740.7762022737
 20
4348.2372456128
 30
0.0
 11
4690.7762022737
 21
4348.2372456128
 31
0.0
  0
LINE
  5
13C
330
1F
100
AcDbEntity
  8
0
  6
HIDDEN
 62
     7
370
    18
100
AcDbLine
 10
3740.7762022737
 20
4348.2372456128
 30
0.0
 11
3740.7762022737
 21
3528.2372456128
 31
0.0
  0
LINE
  5
13D
330
1F
100
AcDbEntity
  8
0
  6
HIDDEN
 62
     7
370
    18
100
AcDbLine
 10
4690.7762022737
 20
4348.2372456128
 30
0.0
 11
4690.7762022737
 21
3528.2372456128
 31
0.0
  0
LINE
  5
13E
330
1F
100
AcDbEntity
  8
0
  6
HIDDEN
 62
     7
370
    18
100
AcDbLine
 10
3740.7762022737
 20
3528.2372456128
 30
0.0
 11
3740.7762022737
 21
3397.2372456128
 31
0.0
  0
LINE
  5
13F
330
1F
100
AcDbEntity
  8
0
  6
HIDDEN
 62
     7
370
    18
100
AcDbLine
 10
4690.7762022737
 20
3528.2372456128
 30
0.0
 11
4690.7762022737
 21
3397.2372456128
 31
0.0
  0
LINE
  5
140
330
1F
100
AcDbEntity
  8
0
  6
HIDDEN
 62
     7
370
    18
100
AcDbLine
 10
4700.7762022737
 20
3450.2372456128
 30
0.0
 11
4700.7762022737
 21
2776.2372456128
 31
0.0
  0
LINE
  5
141
330
1F
100
AcDbEntity
  8
0
  6
HIDDEN
 62
     7
370
    18
100
AcDbLine
 10
4078.2762022737
 20
2481.7372456128
 30
0.0
 11
3687.7762022737
 21
2481.7372456128
 31
0.0
  0
LINE
  5
142
330
1F
100
AcDbEntity
  8
0
  6
HIDDEN
 62
     7
370
    18
100
AcDbLine
 10
3413.2762022737
 20
2262.2372456128
 30
0.0
 11
3455.7762022737
 21
2262.2372456128
 31
0.0
  0
LINE
  5
143
330
1F
100
AcDbEntity
  8
0
  6
HIDDEN
 62
     7
370
    18
100
AcDbLine
 10
3455.7762022737
 20
2310.2372456128
 30
0.0
 11
3413.2762022737
 21
2310.2372456128
 31
0.0
  0
LINE
  5
144
330
1F
100
AcDbEntity
  8
0
  6
HIDDEN
 62
     7
370
    18
100
AcDbLine
 10
3338.2762022737
 20
2173.7372456128
 30
0.0
 11
3413.2762022737
 21
2173.7372456128
 31
0.0
  0
LINE
  5
145
330
1F
100
AcDbEntity
  8
0
  6
HIDDEN
 62
     7
370
    18
100
AcDbLine
 10
3413.2762022737
 20
2398.7372456128
 30
0.0
 11
3338.2762022737
 21
2398.7372456128
 31
0.0
  0
LINE
  5
146
330
1F
100
AcDbEntity
  8
0
  6
HIDDEN
 62
     7
370
    18
100
AcDbLine
 10
3338.2762022737
 20
3226.2372456128
 30
0.0
 11
3413.2762022737
 21
3226.2372456128
 31
0.0
  0
LINE
  5
147
330
1F
100
AcDbEntity
  8
0
  6
HIDDEN
 62
     7
370
    18
100
AcDbLine
 10
3413.2762022737
 20
3676.2372456128
 30
0.0
 11
3338.2762022737
 21
3676.2372456128
 31
0.0
  0
LINE
  5
148
330
1F
100
AcDbEntity
  8
0
  6
HIDDEN
 62
     7
370
    18
100
AcDbLine
 10
4745.7762022737
 20
1901.2372456128
 30
0.0
 11
4745.7762022737
 21
1907.7372456128
 31
0.0
  0
LINE
  5
149
330
1F
100
AcDbEntity
  8
0
  6
HIDDEN
 62
     7
370
    18
100
AcDbLine
 10
4721.7762022737
 20
1907.7372456128
 30
0.0
 11
4721.7762022737
 21
1901.2372456128
 31
0.0
  0
LINE
  5
14A
330
1F
100
AcDbEntity
  8
0
  6
HIDDEN
 62
     7
370
    18
100
AcDbLine
 10
3535.7762022737
 20
1901.2372456128
 30
0.0
 11
3535.7762022737
 21
1907.7372456128
 31
0.0
  0
LINE
  5
14B
330
1F
100
AcDbEntity
  8
0
  6
HIDDEN
 62
     7
370
    18
100
AcDbLine
 10
3511.7762022737
 20
1907.7372456128
 30
0.0
 11
3511.7762022737
 21
1901.2372456128
 31
0.0
  0
LINE
  5
14C
330
1F
100
AcDbEntity
  8
0
  6
HIDDEN
 62
     7
370
    18
100
AcDbLine
 10
4693.9762022737
 20
2776.2372456128
 30
0.0
 11
4700.7762022737
 21
2776.2372456128
 31
0.0
  0
LINE
  5
14D
330
1F
100
AcDbEntity
  8
0
  6
HIDDEN
 62
     7
370
    18
100
AcDbLine
 10
4793.7762022737
 20
3354.3815848488
 30
0.0
 11
4791.4762022737
 21
3354.3815848488
 31
0.0
  0
LINE
  5
14E
330
1F
100
AcDbEntity
  8
0
  6
HIDDEN
 62
     7
370
    18
100
AcDbLine
 10
4791.4762022737
 20
3342.3815848488
 30
0.0
 11
4793.7762022737
 21
3342.3815848488
 31
0.0
  0
LINE
  5
14F
330
1F
100
AcDbEntity
  8
0
  6
HIDDEN
 62
     7
370
    18
100
AcDbLine
 10
4793.7762022737
 20
3560.0929063767
 30
0.0
 11
4791.4762022737
 21
3560.0929063767
 31
0.0
  0
LINE
  5
150
330
1F
100
AcDbEntity
  8
0
  6
HIDDEN
 62
     7
370
    18
100
AcDbLine
 10
4791.4762022737
 20
3548.0929063767
 30
0.0
 11
4793.7762022737
 21
3548.0929063767
 31
0.0
  0
LINE
  5
151
330
1F
100
AcDbEntity
  8
0
  6
HIDDEN
 62
     7
370
    18
100
AcDbLine
 10
4700.7762022737
 20
2823.9372456128
 30
0.0
 11
4743.7762022737
 21
2823.9372456128
 31
0.0
  0
LINE
  5
152
330
1F
100
AcDbEntity
  8
0
  6
HIDDEN
 62
     7
370
    18
100
AcDbLine
 10
4690.7762022737
 20
2826.2372456128
 30
0.0
 11
4793.7762022737
 21
2826.2372456128
 31
0.0
  0
LINE
  5
153
330
1F
100
AcDbEntity
  8
0
  6
HIDDEN
 62
     7
370
    18
100
AcDbLine
 10
4793.7762022737
 20
4076.2372456128
 30
0.0
 11
4690.7762022737
 21
4076.2372456128
 31
0.0
  0
LINE
  5
154
330
1F
100
AcDbEntity
  8
0
  6
HIDDEN
 62
     7
370
    18
100
AcDbLine
 10
4793.7762022737
 20
3755.7359991915
 30
0.0
 11
4791.4762022737
 21
3755.7359991915
 31
0.0
  0
LINE
  5
155
330
1F
100
AcDbEntity
  8
0
  6
HIDDEN
 62
     7
370
    18
100
AcDbLine
 10
4791.4762022737
 20
3743.7359991915
 30
0.0
 11
4793.7762022737
 21
3743.7359991915
 31
0.0
  0
LINE
  5
156
330
1F
100
AcDbEntity
  8
0
  6
HIDDEN
 62
     7
370
    18
100
AcDbLine
 10
4793.7762022737
 20
3158.738492034
 30
0.0
 11
4791.4762022737
 21
3158.738492034
 31
0.0
  0
LINE
  5
157
330
1F
100
AcDbEntity
  8
0
  6
HIDDEN
 62
     7
370
    18
100
AcDbLine
 10
4791.4762022737
 20
3146.738492034
 30
0.0
 11
4793.7762022737
 21
3146.738492034
 31
0.0
  0
LINE
  5
158
330
1F
100
AcDbEntity
  8
0
  6
HIDDEN
 62
     7
370
    18
100
AcDbLine
 10
4793.7762022737
 20
2992.3145369826
 30
0.0
 11
4791.4762022737
 21
2992.3145369826
 31
0.0
  0
LINE
  5
159
330
1F
100
AcDbEntity
  8
0
  6
HIDDEN
 62
     7
370
    18
100
AcDbLine
 10
4791.4762022737
 20
2980.3145369826
 30
0.0
 11
4793.7762022737
 21
2980.3145369826
 31
0.0
  0
LINE
  5
15A
330
1F
100
AcDbEntity
  8
0
  6
HIDDEN
 62
     7
370
    18
100
AcDbLine
 10
4793.7762022737
 20
3922.1599542429
 30
0.0
 11
4791.4762022737
 21
3922.1599542429
 31
0.0
  0
LINE
  5
15B
330
1F
100
AcDbEntity
  8
0
  6
HIDDEN
 62
     7
370
    18
100
AcDbLine
 10
4791.4762022737
 20
3910.1599542429
 30
0.0
 11
4793.7762022737
 21
3910.1599542429
 31
0.0
  0
LINE
  5
15C
330
1F
100
AcDbEntity
  8
0
  6
HIDDEN
 62
     7
370
    18
100
AcDbLine
 10
4793.7762022737
 20
2871.4004559589
 30
0.0
 11
4791.4762022737
 21
2871.4004559589
 31
0.0
  0
LINE
  5
15D
330
1F
100
AcDbEntity
  8
0
  6
HIDDEN
 62
     7
370
    18
100
AcDbLine
 10
4791.4762022737
 20
2859.4004559589
 30
0.0
 11
4793.7762022737
 21
2859.4004559589
 31
0.0
  0
LINE
  5
15E
330
1F
100
AcDbEntity
  8
0
  6
HIDDEN
 62
     7
370
    18
100
AcDbLine
 10
4793.7762022737
 20
4043.0740352666
 30
0.0
 11
4791.4762022737
 21
4043.0740352666
 31
0.0
  0
LINE
  5
15F
330
1F
100
AcDbEntity
  8
0
  6
HIDDEN
 62
     7
370
    18
100
AcDbLine
 10
4791.4762022737
 20
4031.0740352666
 30
0.0
 11
4793.7762022737
 21
4031.0740352666
 31
0.0
  0
LINE
  5
160
330
1F
100
AcDbEntity
  8
0
  6
HIDDEN
 62
     7
370
    18
100
AcDbLine
 10
4793.7762022737
 20
2807.8321616715
 30
0.0
 11
4791.4762022737
 21
2807.8321616715
 31
0.0
  0
LINE
  5
161
330
1F
100
AcDbEntity
  8
0
  6
HIDDEN
 62
     7
370
    18
100
AcDbLine
 10
4791.4762022737
 20
2795.8321616715
 30
0.0
 11
4793.7762022737
 21
2795.8321616715
 31
0.0
  0
LINE
  5
162
330
1F
100
AcDbEntity
  8
0
  6
HIDDEN
 62
     7
370
    18
100
AcDbLine
 10
4793.7762022737
 20
4106.6423295541
 30
0.0
 11
4791.4762022737
 21
4106.6423295541
 31
0.0
  0
LINE
  5
163
330
1F
100
AcDbEntity
  8
0
  6
HIDDEN
 62
     7
370
    18
100
AcDbLine
 10
4791.4762022737
 20
4094.6423295541
 30
0.0
 11
4793.7762022737
 21
4094.6423295541
 31
0.0
  0
LINE
  5
164
330
1F
100
AcDbEntity
  8
2
100
AcDbLine
 10
3652.8241246209
 20
3451.2372456128
 30
0.0
 11
4435.846723422
 21
3451.2372456128
 31
0.0
  0
LINE
  5
165
330
1F
100
AcDbEntity
  8
2
100
AcDbLine
 10
3690.7762022737
 20
2757.2372456128
 30
0.0
 11
4740.7762022737
 21
2757.2372456128
 31
0.0
  0
LINE
  5
166
330
1F
100
AcDbEntity
  8
2
100
AcDbLine
 10
4215.7762022737
 20
3656.7011359428
 30
0.0
 11
4215.7762022737
 21
2602.3056448124
 31
0.0
  0
LINE
  5
167
330
1F
100
AcDbEntity
  8
1
100
AcDbLine
 10
2359.3505224314
 20
4875.6484307248
 30
0.0
 11
2359.3505224314
 21
5035.6484307248
 31
0.0
  0
LINE
  5
168
330
1F
100
AcDbEntity
  8
1
100
AcDbLine
 10
371.8505224314
 20
5035.6484307248
 30
0.0
 11
371.8505224314
 21
4875.6484307248
 31
0.0
  0
LINE
  5
169
330
1F
100
AcDbEntity
  8
1
100
AcDbLine
 10
779.8505224314
 20
5103.1484307248
 30
0.0
 11
779.8505224314
 21
5658.1484307248
 31
0.0
  0
LINE
  5
16A
330
1F
100
AcDbEntity
  8
1
100
AcDbLine
 10
388.8505224314
 20
5658.1484307248
 30
0.0
 11
388.8505224314
 21
5103.1484307248
 31
0.0
  0
LINE
  5
16B
330
1F
100
AcDbEntity
  8
1
100
AcDbLine
 10
608.3505224314
 20
5035.6484307248
 30
0.0
 11
608.3505224314
 21
5103.1484307248
 31
0.0
  0
LINE
  5
16C
330
1F
100
AcDbEntity
  8
1
100
AcDbLine
 10
560.3505224314
 20
5103.1484307248
 30
0.0
 11
560.3505224314
 21
5035.6484307248
 31
0.0
  0
LINE
  5
16D
330
1F
100
AcDbEntity
  8
1
100
AcDbLine
 10
1359.3505224314
 20
6373.6484307248
 30
0.0
 11
1359.3505224314
 21
6371.3484307248
 31
0.0
  0
LINE
  5
16E
330
1F
100
AcDbEntity
  8
1
100
AcDbLine
 10
2709.3505224314
 20
6371.3484307248
 30
0.0
 11
2709.3505224314
 21
6373.6484307248
 31
0.0
  0
LINE
  5
16F
330
1F
100
AcDbEntity
  8
1
100
AcDbLine
 10
2709.3505224314
 20
6273.8484307248
 30
0.0
 11
2709.3505224314
 21
6280.6484307248
 31
0.0
  0
LINE
  5
170
330
1F
100
AcDbEntity
  8
1
100
AcDbLine
 10
1359.3505224314
 20
6280.6484307248
 30
0.0
 11
1359.3505224314
 21
6273.8484307248
 31
0.0
  0
LINE
  5
171
330
1F
100
AcDbEntity
  8
1
100
AcDbLine
 10
1407.0505224314
 20
6371.3484307248
 30
0.0
 11
1407.0505224314
 21
6280.6484307248
 31
0.0
  0
LINE
  5
172
330
1F
100
AcDbEntity
  8
1
100
AcDbLine
 10
2661.6505224314
 20
6280.6484307248
 30
0.0
 11
2661.6505224314
 21
6371.3484307248
 31
0.0
  0
LINE
  5
173
330
1F
100
AcDbEntity
  8
1
100
AcDbLine
 10
2359.3505224314
 20
4875.6484307248
 30
0.0
 11
1815.8413848962
 21
4875.6484307248
 31
0.0
  0
LINE
  5
174
330
1F
100
AcDbEntity
  8
1
100
AcDbLine
 10
2359.3505224314
 20
5035.6484307248
 30
0.0
 11
1815.8413848962
 21
5035.6484307248
 31
0.0
  0
LINE
  5
175
330
1F
100
AcDbEntity
  8
1
100
AcDbLine
 10
1815.8413848962
 20
4875.6484307248
 30
0.0
 11
441.4791632738
 21
4875.6484307248
 31
0.0
  0
LINE
  5
176
330
1F
100
AcDbEntity
  8
1
100
AcDbLine
 10
1815.8413848962
 20
5035.6484307248
 30
0.0
 11
441.4791632738
 21
5035.6484307248
 31
0.0
  0
LINE
  5
177
330
1F
100
AcDbEntity
  8
1
100
AcDbLine
 10
441.4791632738
 20
4875.6484307248
 30
0.0
 11
371.8505224314
 21
4875.6484307248
 31
0.0
  0
LINE
  5
178
330
1F
100
AcDbEntity
  8
1
100
AcDbLine
 10
441.4791632738
 20
5035.6484307248
 30
0.0
 11
371.8505224314
 21
5035.6484307248
 31
0.0
  0
LINE
  5
179
330
1F
100
AcDbEntity
  8
1
100
AcDbLine
 10
779.8505224314
 20
5658.1484307248
 30
0.0
 11
388.8505224314
 21
5658.1484307248
 31
0.0
  0
LINE
  5
17A
330
1F
100
AcDbEntity
  8
1
100
AcDbLine
 10
388.8505224314
 20
5103.1484307248
 30
0.0
 11
779.8505224314
 21
5103.1484307248
 31
0.0
  0
LINE
  5
17B
330
1F
100
AcDbEntity
  8
1
100
AcDbLine
 10
809.3505224314
 20
5549.6484307248
 30
0.0
 11
809.3505224314
 21
5139.6484307248
 31
0.0
  0
LINE
  5
17C
330
1F
100
AcDbEntity
  8
1
100
AcDbLine
 10
809.3505224314
 20
5139.6484307248
 30
0.0
 11
779.8505224314
 21
5139.6484307248
 31
0.0
  0
LINE
  5
17D
330
1F
100
AcDbEntity
  8
1
100
AcDbLine
 10
388.8505224314
 20
5139.6484307248
 30
0.0
 11
359.3505224314
 21
5139.6484307248
 31
0.0
  0
LINE
  5
17E
330
1F
100
AcDbEntity
  8
1
100
AcDbLine
 10
359.3505224314
 20
5139.6484307248
 30
0.0
 11
359.3505224314
 21
5549.6484307248
 31
0.0
  0
LINE
  5
17F
330
1F
100
AcDbEntity
  8
1
100
AcDbLine
 10
359.3505224314
 20
5549.6484307248
 30
0.0
 11
388.8505224314
 21
5549.6484307248
 31
0.0
  0
LINE
  5
180
330
1F
100
AcDbEntity
  8
1
100
AcDbLine
 10
779.8505224314
 20
5549.6484307248
 30
0.0
 11
809.3505224314
 21
5549.6484307248
 31
0.0
  0
LINE
  5
181
330
1F
100
AcDbEntity
  8
1
100
AcDbLine
 10
234.3505224314
 20
5068.6484307248
 30
0.0
 11
560.3505224314
 21
5068.6484307248
 31
0.0
  0
LINE
  5
182
330
1F
100
AcDbEntity
  8
1
100
AcDbLine
 10
608.3505224314
 20
5068.6484307248
 30
0.0
 11
2784.3505224314
 21
5068.6484307248
 31
0.0
  0
LINE
  5
183
330
1F
100
AcDbEntity
  8
1
100
AcDbLine
 10
2784.3505224314
 20
6348.6484307248
 30
0.0
 11
2661.6505224314
 21
6348.6484307248
 31
0.0
  0
LINE
  5
184
330
1F
100
AcDbEntity
  8
1
100
AcDbLine
 10
1407.0505224314
 20
6348.6484307248
 30
0.0
 11
234.3505224314
 21
6348.6484307248
 31
0.0
  0
LINE
  5
185
330
1F
100
AcDbEntity
  8
1
100
AcDbLine
 10
309.3505224314
 20
5143.6484307248
 30
0.0
 11
359.3505224314
 21
5143.6484307248
 31
0.0
  0
LINE
  5
186
330
1F
100
AcDbEntity
  8
1
100
AcDbLine
 10
809.3505224314
 20
5143.6484307248
 30
0.0
 11
2709.3505224314
 21
5143.6484307248
 31
0.0
  0
LINE
  5
187
330
1F
100
AcDbEntity
  8
1
100
AcDbLine
 10
2709.3505224314
 20
5143.6484307248
 30
0.0
 11
2709.3505224314
 21
5317.4484307248
 31
0.0
  0
LINE
  5
188
330
1F
100
AcDbEntity
  8
1
100
AcDbLine
 10
953.0505224314
 20
6273.6484307248
 30
0.0
 11
309.3505224314
 21
6273.6484307248
 31
0.0
  0
LINE
  5
189
330
1F
100
AcDbEntity
  8
1
100
AcDbLine
 10
309.3505224314
 20
6273.6484307248
 30
0.0
 11
309.3505224314
 21
5143.6484307248
 31
0.0
  0
LINE
  5
18A
330
1F
100
AcDbEntity
  8
1
100
AcDbLine
 10
234.3505224314
 20
6348.6484307248
 30
0.0
 11
234.3505224314
 21
5068.6484307248
 31
0.0
  0
LINE
  5
18B
330
1F
100
AcDbEntity
  8
1
100
AcDbLine
 10
2784.3505224314
 20
5068.6484307248
 30
0.0
 11
2784.3505224314
 21
5317.4484307248
 31
0.0
  0
LINE
  5
18C
330
1F
100
AcDbEntity
  8
1
100
AcDbLine
 10
2784.3505224314
 20
6273.8484307248
 30
0.0
 11
2784.3505224314
 21
6348.6484307248
 31
0.0
  0
LINE
  5
18D
330
1F
100
AcDbEntity
  8
1
100
AcDbLine
 10
953.0505224314
 20
5317.4484307248
 30
0.0
 11
1943.3505224314
 21
5317.4484307248
 31
0.0
  0
LINE
  5
18E
330
1F
100
AcDbEntity
  8
1
100
AcDbLine
 10
953.0505224314
 20
5317.4484307248
 30
0.0
 11
953.0505224314
 21
6273.8484307248
 31
0.0
  0
LINE
  5
18F
330
1F
100
AcDbEntity
  8
1
100
AcDbLine
 10
953.0505224314
 20
6273.8484307248
 30
0.0
 11
1943.3505224314
 21
6273.8484307248
 31
0.0
  0
LINE
  5
190
330
1F
100
AcDbEntity
  8
1
100
AcDbLine
 10
1943.3505224314
 20
5317.4484307248
 30
0.0
 11
1957.3505224314
 21
5317.4484307248
 31
0.0
  0
LINE
  5
191
330
1F
100
AcDbEntity
  8
1
100
AcDbLine
 10
1943.3505224314
 20
6273.8484307248
 30
0.0
 11
1957.3505224314
 21
6273.8484307248
 31
0.0
  0
LINE
  5
192
330
1F
100
AcDbEntity
  8
1
100
AcDbLine
 10
2779.6505224314
 20
5317.4484307248
 30
0.0
 11
2779.6505224314
 21
6273.8484307248
 31
0.0
  0
LINE
  5
193
330
1F
100
AcDbEntity
  8
1
100
AcDbLine
 10
1957.3505224314
 20
5317.4484307248
 30
0.0
 11
2779.6505224314
 21
5317.4484307248
 31
0.0
  0
LINE
  5
194
330
1F
100
AcDbEntity
  8
1
100
AcDbLine
 10
1957.3505224314
 20
6273.8484307248
 30
0.0
 11
2779.6505224314
 21
6273.8484307248
 31
0.0
  0
LINE
  5
195
330
1F
100
AcDbEntity
  8
1
100
AcDbLine
 10
2709.3505224314
 20
6373.6484307248
 30
0.0
 11
1359.3505224314
 21
6373.6484307248
 31
0.0
  0
LINE
  5
196
330
1F
100
AcDbEntity
  8
1
100
AcDbLine
 10
2709.3505224314
 20
6371.3484307248
 30
0.0
 11
1359.3505224314
 21
6371.3484307248
 31
0.0
  0
LINE
  5
197
330
1F
100
AcDbEntity
  8
1
100
AcDbLine
 10
1359.3505224314
 20
6280.6484307248
 30
0.0
 11
2709.3505224314
 21
6280.6484307248
 31
0.0
  0
LINE
  5
198
330
1F
100
AcDbEntity
  8
1
100
AcDbLine
 10
2855.3505224314
 20
5267.6484307248
 30
0.0
 11
2859.3505224314
 21
5267.6484307248
 31
0.0
  0
LINE
  5
199
330
1F
100
AcDbEntity
  8
1
100
AcDbLine
 10
2855.3505224314
 20
5267.6484307248
 30
0.0
 11
2855.3505224314
 21
6323.6484307248
 31
0.0
  0
LINE
  5
19A
330
1F
100
AcDbEntity
  8
1
100
AcDbLine
 10
2855.3505224314
 20
6323.6484307248
 30
0.0
 11
2859.3505224314
 21
6323.6484307248
 31
0.0
  0
LINE
  5
19B
330
1F
100
AcDbEntity
  8
1
100
AcDbLine
 10
2859.3505224314
 20
5267.6484307248
 30
0.0
 11
2859.3505224314
 21
6323.6484307248
 31
0.0
  0
LINE
  5
19C
330
1F
100
AcDbEntity
  8
1
100
AcDbLine
 10
2779.6505224314
 20
5317.4484307248
 30
0.0
 11
2855.3505224314
 21
5317.4484307248
 31
0.0
  0
LINE
  5
19D
330
1F
100
AcDbEntity
  8
1
100
AcDbLine
 10
2779.6505224314
 20
6273.8484307248
 30
0.0
 11
2855.3505224314
 21
6273.8484307248
 31
0.0
  0
LINE
  5
19E
330
1F
100
AcDbEntity
  8
0
  6
HIDDEN
 62
     7
370
    18
100
AcDbLine
 10
474.9144680435
 20
5182.6484307248
 30
0.0
 11
489.5916178367
 21
5182.6484307248
 31
0.0
  0
LINE
  5
19F
330
1F
100
AcDbEntity
  8
0
  6
HIDDEN
 62
     7
370
    18
100
AcDbLine
 10
474.9144680435
 20
5182.6484307248
 30
0.0
 11
474.9144680435
 21
5506.6484307248
 31
0.0
  0
LINE
  5
1A0
330
1F
100
AcDbEntity
  8
0
  6
HIDDEN
 62
     7
370
    18
100
AcDbLine
 10
474.9144680435
 20
5506.6484307248
 30
0.0
 11
489.5916178367
 21
5506.6484307248
 31
0.0
  0
LINE
  5
1A1
330
1F
100
AcDbEntity
  8
0
  6
HIDDEN
 62
     7
370
    18
100
AcDbLine
 10
489.5916178367
 20
5658.1484307248
 30
0.0
 11
489.5916178367
 21
5506.6484307248
 31
0.0
  0
LINE
  5
1A2
330
1F
100
AcDbEntity
  8
0
  6
HIDDEN
 62
     7
370
    18
100
AcDbLine
 10
679.1094270262
 20
5658.1484307248
 30
0.0
 11
679.1094270262
 21
5506.6484307248
 31
0.0
  0
LINE
  5
1A3
330
1F
100
AcDbEntity
  8
0
  6
HIDDEN
 62
     7
370
    18
100
AcDbLine
 10
679.1094270262
 20
5506.6484307248
 30
0.0
 11
693.7865768194
 21
5506.6484307248
 31
0.0
  0
LINE
  5
1A4
330
1F
100
AcDbEntity
  8
0
  6
HIDDEN
 62
     7
370
    18
100
AcDbLine
 10
693.7865768194
 20
5506.6484307248
 30
0.0
 11
693.7865768194
 21
5182.6484307248
 31
0.0
  0
LINE
  5
1A5
330
1F
100
AcDbEntity
  8
0
  6
HIDDEN
 62
     7
370
    18
100
AcDbLine
 10
679.1094270262
 20
5182.6484307248
 30
0.0
 11
693.7865768194
 21
5182.6484307248
 31
0.0
  0
LINE
  5
1A6
330
1F
100
AcDbEntity
  8
0
  6
HIDDEN
 62
     7
370
    18
100
AcDbLine
 10
679.1094270262
 20
5182.6484307248
 30
0.0
 11
679.1094270262
 21
5103.1484307248
 31
0.0
  0
LINE
  5
1A7
330
1F
100
AcDbEntity
  8
0
  6
HIDDEN
 62
     7
370
    18
100
AcDbLine
 10
489.5916178367
 20
5182.6484307248
 30
0.0
 11
489.5916178367
 21
5103.1484307248
 31
0.0
  0
LINE
  5
1A8
330
1F
100
AcDbEntity
  8
0
  6
HIDDEN
 62
     7
370
    18
100
AcDbLine
 10
727.3505224314
 20
5182.6484307248
 30
0.0
 11
727.3505224314
 21
5506.6484307248
 31
0.0
  0
LINE
  5
1A9
330
1F
100
AcDbEntity
  8
0
  6
HIDDEN
 62
     7
370
    18
100
AcDbLine
 10
727.3505224314
 20
5182.6484307248
 30
0.0
 11
693.7865768194
 21
5182.6484307248
 31
0.0
  0
LINE
  5
1AA
330
1F
100
AcDbEntity
  8
0
  6
HIDDEN
 62
     7
370
    18
100
AcDbLine
 10
727.3505224314
 20
5506.6484307248
 30
0.0
 11
693.7865768194
 21
5506.6484307248
 31
0.0
  0
LINE
  5
1AB
330
1F
100
AcDbEntity
  8
0
  6
HIDDEN
 62
     7
370
    18
100
AcDbLine
 10
474.9144680435
 20
5182.6484307248
 30
0.0
 11
441.3505224314
 21
5182.6484307248
 31
0.0
  0
LINE
  5
1AC
330
1F
100
AcDbEntity
  8
0
  6
HIDDEN
 62
     7
370
    18
100
AcDbLine
 10
441.3505224314
 20
5182.6484307248
 30
0.0
 11
441.3505224314
 21
5506.6484307248
 31
0.0
  0
LINE
  5
1AD
330
1F
100
AcDbEntity
  8
0
  6
HIDDEN
 62
     7
370
    18
100
AcDbLine
 10
474.9144680435
 20
5506.6484307248
 30
0.0
 11
441.3505224314
 21
5506.6484307248
 31
0.0
  0
LINE
  5
1AE
330
1F
100
AcDbEntity
  8
0
  6
HIDDEN
 62
     7
370
    18
100
AcDbLine
 10
489.5916178367
 20
5506.6484307248
 30
0.0
 11
679.1094270262
 21
5506.6484307248
 31
0.0
  0
LINE
  5
1AF
330
1F
100
AcDbEntity
  8
0
  6
HIDDEN
 62
     7
370
    18
100
AcDbLine
 10
489.5916178367
 20
5182.6484307248
 30
0.0
 11
679.1094270262
 21
5182.6484307248
 31
0.0
  0
LINE
  5
1B0
330
1F
100
AcDbEntity
  8
0
  6
HIDDEN
 62
     7
370
    18
100
AcDbLine
 10
779.8505224314
 20
5139.6484307248
 30
0.0
 11
388.8505224314
 21
5139.6484307248
 31
0.0
  0
LINE
  5
1B1
330
1F
100
AcDbEntity
  8
0
  6
HIDDEN
 62
     7
370
    18
100
AcDbLine
 10
388.8505224314
 20
5549.6484307248
 30
0.0
 11
779.8505224314
 21
5549.6484307248
 31
0.0
  0
LINE
  5
1B2
330
1F
100
AcDbEntity
  8
0
  6
HIDDEN
 62
     7
370
    18
100
AcDbLine
 10
471.8505224314
 20
4918.1484307248
 30
0.0
 11
696.8505224314
 21
4918.1484307248
 31
0.0
  0
LINE
  5
1B3
330
1F
100
AcDbEntity
  8
0
  6
HIDDEN
 62
     7
370
    18
100
AcDbLine
 10
471.8505224314
 20
4993.1484307248
 30
0.0
 11
696.8505224314
 21
4993.1484307248
 31
0.0
  0
LINE
  5
1B4
330
1F
100
AcDbEntity
  8
0
  6
HIDDEN
 62
     7
370
    18
100
AcDbLine
 10
2050.9485113248
 20
4918.1484307248
 30
0.0
 11
2259.3505224314
 21
4918.1484307248
 31
0.0
  0
LINE
  5
1B5
330
1F
100
AcDbEntity
  8
0
  6
HIDDEN
 62
     7
370
    18
100
AcDbLine
 10
1809.3505224314
 20
4918.1484307248
 30
0.0
 11
2050.9485113248
 21
4918.1484307248
 31
0.0
  0
LINE
  5
1B6
330
1F
100
AcDbEntity
  8
0
  6
HIDDEN
 62
     7
370
    18
100
AcDbLine
 10
2050.9485113248
 20
4993.1484307248
 30
0.0
 11
2259.3505224314
 21
4993.1484307248
 31
0.0
  0
LINE
  5
1B7
330
1F
100
AcDbEntity
  8
0
  6
HIDDEN
 62
     7
370
    18
100
AcDbLine
 10
1809.3505224314
 20
4993.1484307248
 30
0.0
 11
2050.9485113248
 21
4993.1484307248
 31
0.0
  0
LINE
  5
1B8
330
1F
100
AcDbEntity
  8
0
  6
HIDDEN
 62
     7
370
    18
100
AcDbLine
 10
560.3505224314
 20
5068.6484307248
 30
0.0
 11
608.3505224314
 21
5068.6484307248
 31
0.0
  0
LINE
  5
1B9
330
1F
100
AcDbEntity
  8
0
  6
HIDDEN
 62
     7
370
    18
100
AcDbLine
 10
2661.6505224314
 20
6348.6484307248
 30
0.0
 11
1407.0505224314
 21
6348.6484307248
 31
0.0
  0
LINE
  5
1BA
330
1F
100
AcDbEntity
  8
0
  6
HIDDEN
 62
     7
370
    18
100
AcDbLine
 10
359.3505224314
 20
5143.6484307248
 30
0.0
 11
809.3505224314
 21
5143.6484307248
 31
0.0
  0
LINE
  5
1BB
330
1F
100
AcDbEntity
  8
0
  6
HIDDEN
 62
     7
370
    18
100
AcDbLine
 10
2709.3505224314
 20
5317.4484307248
 30
0.0
 11
2709.3505224314
 21
6273.6484307248
 31
0.0
  0
LINE
  5
1BC
330
1F
100
AcDbEntity
  8
0
  6
HIDDEN
 62
     7
370
    18
100
AcDbLine
 10
2709.3505224314
 20
6273.6484307248
 30
0.0
 11
953.0505224314
 21
6273.6484307248
 31
0.0
  0
LINE
  5
1BD
330
1F
100
AcDbEntity
  8
0
  6
HIDDEN
 62
     7
370
    18
100
AcDbLine
 10
2784.3505224314
 20
5317.4484307248
 30
0.0
 11
2784.3505224314
 21
6273.8484307248
 31
0.0
  0
LINE
  5
1BE
330
1F
100
AcDbEntity
  8
0
  6
HIDDEN
 62
     7
370
    18
100
AcDbLine
 10
2715.8505224314
 20
5137.1484307248
 30
0.0
 11
2715.8505224314
 21
6280.1484307248
 31
0.0
  0
LINE
  5
1BF
330
1F
100
AcDbEntity
  8
0
  6
HIDDEN
 62
     7
370
    18
100
AcDbLine
 10
2715.8505224314
 20
6280.1484307248
 30
0.0
 11
302.8505224314
 21
6280.1484307248
 31
0.0
  0
LINE
  5
1C0
330
1F
100
AcDbEntity
  8
0
  6
HIDDEN
 62
     7
370
    18
100
AcDbLine
 10
302.8505224314
 20
6280.1484307248
 30
0.0
 11
302.8505224314
 21
5137.1484307248
 31
0.0
  0
LINE
  5
1C1
330
1F
100
AcDbEntity
  8
0
  6
HIDDEN
 62
     7
370
    18
100
AcDbLine
 10
302.8505224314
 20
5137.1484307248
 30
0.0
 11
2715.8505224314
 21
5137.1484307248
 31
0.0
  0
CIRCLE
  5
1C2
330
1F
100
AcDbEntity
  8
0
  6
HIDDEN
 62
     7
370
    18
100
AcDbCircle
 10
354.3505224314
 20
6313.6484307248
 30
0.0
 40
11.99999999999909
  0
CIRCLE
  5
1C3
330
1F
100
AcDbEntity
  8
0
  6
HIDDEN
 62
     7
370
    18
100
AcDbCircle
 10
1124.3505224314
 20
6313.6484307248
 30
0.0
 40
11.99999999999909
  0
CIRCLE
  5
1C4
330
1F
100
AcDbEntity
  8
0
  6
HIDDEN
 62
     7
370
    18
100
AcDbCircle
 10
1894.3505224314
 20
6313.6484307248
 30
0.0
 40
11.99999999999909
  0
CIRCLE
  5
1C5
330
1F
100
AcDbEntity
  8
0
  6
HIDDEN
 62
     7
370
    18
100
AcDbCircle
 10
2664.3505224314
 20
6313.6484307248
 30
0.0
 40
12.00000000000091
  0
CIRCLE
  5
1C6
330
1F
100
AcDbEntity
  8
0
  6
HIDDEN
 62
     7
370
    18
100
AcDbCircle
 10
2664.3505224314
 20
5103.6484307248
 30
0.0
 40
12.0
  0
CIRCLE
  5
1C7
330
1F
100
AcDbEntity
  8
0
  6
HIDDEN
 62
     7
370
    18
100
AcDbCircle
 10
1894.3505224314
 20
5103.6484307248
 30
0.0
 40
12.0
  0
CIRCLE
  5
1C8
330
1F
100
AcDbEntity
  8
0
  6
HIDDEN
 62
     7
370
    18
100
AcDbCircle
 10
1124.3505224314
 20
5103.6484307248
 30
0.0
 40
12.0
  0
CIRCLE
  5
1C9
330
1F
100
AcDbEntity
  8
0
  6
HIDDEN
 62
     7
370
    18
100
AcDbCircle
 10
354.3505224314
 20
5103.6484307248
 30
0.0
 40
12.0
  0
LINE
  5
1CA
330
1F
100
AcDbEntity
  8
0
  6
HIDDEN
 62
     7
370
    18
100
AcDbLine
 10
1957.3505224314
 20
5320.6484307248
 30
0.0
 11
2777.3505224314
 21
5320.6484307248
 31
0.0
  0
LINE
  5
1CB
330
1F
100
AcDbEntity
  8
0
  6
HIDDEN
 62
     7
370
    18
100
AcDbLine
 10
2777.3505224314
 20
5320.6484307248
 30
0.0
 11
2777.3505224314
 21
6270.6484307248
 31
0.0
  0
LINE
  5
1CC
330
1F
100
AcDbEntity
  8
0
  6
HIDDEN
 62
     7
370
    18
100
AcDbLine
 10
1957.3505224314
 20
6270.6484307248
 30
0.0
 11
2777.3505224314
 21
6270.6484307248
 31
0.0
  0
LINE
  5
1CD
330
1F
100
AcDbEntity
  8
0
  6
HIDDEN
 62
     7
370
    18
100
AcDbLine
 10
1943.3505224314
 20
6270.6484307248
 30
0.0
 11
1957.3505224314
 21
6270.6484307248
 31
0.0
  0
LINE
  5
1CE
330
1F
100
AcDbEntity
  8
0
  6
HIDDEN
 62
     7
370
    18
100
AcDbLine
 10
955.3505224314
 20
5320.6484307248
 30
0.0
 11
955.3505224314
 21
6270.6484307248
 31
0.0
  0
LINE
  5
1CF
330
1F
100
AcDbEntity
  8
0
  6
HIDDEN
 62
     7
370
    18
100
AcDbLine
 10
955.3505224314
 20
5320.6484307248
 30
0.0
 11
1943.3505224314
 21
5320.6484307248
 31
0.0
  0
LINE
  5
1D0
330
1F
100
AcDbEntity
  8
0
  6
HIDDEN
 62
     7
370
    18
100
AcDbLine
 10
955.3505224314
 20
6270.6484307248
 30
0.0
 11
1943.3505224314
 21
6270.6484307248
 31
0.0
  0
LINE
  5
1D1
330
1F
100
AcDbEntity
  8
0
  6
HIDDEN
 62
     7
370
    18
100
AcDbLine
 10
1943.3505224314
 20
5320.6484307248
 30
0.0
 11
1957.3505224314
 21
5320.6484307248
 31
0.0
  0
LINE
  5
1D2
330
1F
100
AcDbEntity
  8
0
  6
HIDDEN
 62
     7
370
    18
100
AcDbLine
 10
2777.3505224314
 20
5320.6484307248
 30
0.0
 11
2859.3505224314
 21
5320.6484307248
 31
0.0
  0
LINE
  5
1D3
330
1F
100
AcDbEntity
  8
0
  6
HIDDEN
 62
     7
370
    18
100
AcDbLine
 10
2777.3505224314
 20
6270.6484307248
 30
0.0
 11
2859.3505224314
 21
6270.6484307248
 31
0.0
  0
LINE
  5
1D4
330
1F
100
AcDbEntity
  8
0
  6
HIDDEN
 62
     7
370
    18
100
AcDbLine
 10
608.3505224314
 20
4993.1484307248
 30
0.0
 11
608.3505224314
 21
5035.6484307248
 31
0.0
  0
LINE
  5
1D5
330
1F
100
AcDbEntity
  8
0
  6
HIDDEN
 62
     7
370
    18
100
AcDbLine
 10
560.3505224314
 20
5035.6484307248
 30
0.0
 11
560.3505224314
 21
4993.1484307248
 31
0.0
  0
LINE
  5
1D6
330
1F
100
AcDbEntity
  8
0
  6
HIDDEN
 62
     7
370
    18
100
AcDbLine
 10
696.8505224314
 20
4918.1484307248
 30
0.0
 11
696.8505224314
 21
4993.1484307248
 31
0.0
  0
LINE
  5
1D7
330
1F
100
AcDbEntity
  8
0
  6
HIDDEN
 62
     7
370
    18
100
AcDbLine
 10
471.8505224314
 20
4993.1484307248
 30
0.0
 11
471.8505224314
 21
4918.1484307248
 31
0.0
  0
LINE
  5
1D8
330
1F
100
AcDbEntity
  8
0
  6
HIDDEN
 62
     7
370
    18
100
AcDbLine
 10
2259.3505224314
 20
4918.1484307248
 30
0.0
 11
2259.3505224314
 21
4993.1484307248
 31
0.0
  0
LINE
  5
1D9
330
1F
100
AcDbEntity
  8
0
  6
HIDDEN
 62
     7
370
    18
100
AcDbLine
 10
1809.3505224314
 20
4993.1484307248
 30
0.0
 11
1809.3505224314
 21
4918.1484307248
 31
0.0
  0
LINE
  5
1DA
330
1F
100
AcDbEntity
  8
0
  6
HIDDEN
 62
     7
370
    18
100
AcDbLine
 10
2131.2061831954
 20
6373.6484307248
 30
0.0
 11
2131.2061831954
 21
6371.3484307248
 31
0.0
  0
LINE
  5
1DB
330
1F
100
AcDbEntity
  8
0
  6
HIDDEN
 62
     7
370
    18
100
AcDbLine
 10
2143.2061831954
 20
6371.3484307248
 30
0.0
 11
2143.2061831954
 21
6373.6484307248
 31
0.0
  0
LINE
  5
1DC
330
1F
100
AcDbEntity
  8
0
  6
HIDDEN
 62
     7
370
    18
100
AcDbLine
 10
1925.4948616675
 20
6373.6484307248
 30
0.0
 11
1925.4948616675
 21
6371.3484307248
 31
0.0
  0
LINE
  5
1DD
330
1F
100
AcDbEntity
  8
0
  6
HIDDEN
 62
     7
370
    18
100
AcDbLine
 10
1937.4948616675
 20
6371.3484307248
 30
0.0
 11
1937.4948616675
 21
6373.6484307248
 31
0.0
  0
LINE
  5
1DE
330
1F
100
AcDbEntity
  8
0
  6
HIDDEN
 62
     7
370
    18
100
AcDbLine
 10
2659.3505224314
 20
6270.6484307248
 30
0.0
 11
2659.3505224314
 21
6373.6484307248
 31
0.0
  0
LINE
  5
1DF
330
1F
100
AcDbEntity
  8
0
  6
HIDDEN
 62
     7
370
    18
100
AcDbLine
 10
1409.3505224314
 20
6373.6484307248
 30
0.0
 11
1409.3505224314
 21
6270.6484307248
 31
0.0
  0
LINE
  5
1E0
330
1F
100
AcDbEntity
  8
0
  6
HIDDEN
 62
     7
370
    18
100
AcDbLine
 10
1729.8517688527
 20
6373.6484307248
 30
0.0
 11
1729.8517688527
 21
6371.3484307248
 31
0.0
  0
LINE
  5
1E1
330
1F
100
AcDbEntity
  8
0
  6
HIDDEN
 62
     7
370
    18
100
AcDbLine
 10
1741.8517688527
 20
6371.3484307248
 30
0.0
 11
1741.8517688527
 21
6373.6484307248
 31
0.0
  0
LINE
  5
1E2
330
1F
100
AcDbEntity
  8
0
  6
HIDDEN
 62
     7
370
    18
100
AcDbLine
 10
2326.8492760102
 20
6373.6484307248
 30
0.0
 11
2326.8492760102
 21
6371.3484307248
 31
0.0
  0
LINE
  5
1E3
330
1F
100
AcDbEntity
  8
0
  6
HIDDEN
 62
     7
370
    18
100
AcDbLine
 10
2338.8492760102
 20
6371.3484307248
 30
0.0
 11
2338.8492760102
 21
6373.6484307248
 31
0.0
  0
LINE
  5
1E4
330
1F
100
AcDbEntity
  8
0
  6
HIDDEN
 62
     7
370
    18
100
AcDbLine
 10
1563.4278138013
 20
6373.6484307248
 30
0.0
 11
1563.4278138013
 21
6371.3484307248
 31
0.0
  0
LINE
  5
1E5
330
1F
100
AcDbEntity
  8
0
  6
HIDDEN
 62
     7
370
    18
100
AcDbLine
 10
1575.4278138013
 20
6371.3484307248
 30
0.0
 11
1575.4278138013
 21
6373.6484307248
 31
0.0
  0
LINE
  5
1E6
330
1F
100
AcDbEntity
  8
0
  6
HIDDEN
 62
     7
370
    18
100
AcDbLine
 10
2493.2732310616
 20
6373.6484307248
 30
0.0
 11
2493.2732310616
 21
6371.3484307248
 31
0.0
  0
LINE
  5
1E7
330
1F
100
AcDbEntity
  8
0
  6
HIDDEN
 62
     7
370
    18
100
AcDbLine
 10
2505.2732310616
 20
6371.3484307248
 30
0.0
 11
2505.2732310616
 21
6373.6484307248
 31
0.0
  0
LINE
  5
1E8
330
1F
100
AcDbEntity
  8
0
  6
HIDDEN
 62
     7
370
    18
100
AcDbLine
 10
1442.5137327776
 20
6373.6484307248
 30
0.0
 11
1442.5137327776
 21
6371.3484307248
 31
0.0
  0
LINE
  5
1E9
330
1F
100
AcDbEntity
  8
0
  6
HIDDEN
 62
     7
370
    18
100
AcDbLine
 10
1454.5137327776
 20
6371.3484307248
 30
0.0
 11
1454.5137327776
 21
6373.6484307248
 31
0.0
  0
LINE
  5
1EA
330
1F
100
AcDbEntity
  8
0
  6
HIDDEN
 62
     7
370
    18
100
AcDbLine
 10
2614.1873120853
 20
6373.6484307248
 30
0.0
 11
2614.1873120853
 21
6371.3484307248
 31
0.0
  0
LINE
  5
1EB
330
1F
100
AcDbEntity
  8
0
  6
HIDDEN
 62
     7
370
    18
100
AcDbLine
 10
2626.1873120853
 20
6371.3484307248
 30
0.0
 11
2626.1873120853
 21
6373.6484307248
 31
0.0
  0
LINE
  5
1EC
330
1F
100
AcDbEntity
  8
0
  6
HIDDEN
 62
     7
370
    18
100
AcDbLine
 10
1378.9454384901
 20
6373.6484307248
 30
0.0
 11
1378.9454384901
 21
6371.3484307248
 31
0.0
  0
LINE
  5
1ED
330
1F
100
AcDbEntity
  8
0
  6
HIDDEN
 62
     7
370
    18
100
AcDbLine
 10
1390.9454384901
 20
6371.3484307248
 30
0.0
 11
1390.9454384901
 21
6373.6484307248
 31
0.0
  0
LINE
  5
1EE
330
1F
100
AcDbEntity
  8
0
  6
HIDDEN
 62
     7
370
    18
100
AcDbLine
 10
2677.7556063727
 20
6373.6484307248
 30
0.0
 11
2677.7556063727
 21
6371.3484307248
 31
0.0
  0
LINE
  5
1EF
330
1F
100
AcDbEntity
  8
0
  6
HIDDEN
 62
     7
370
    18
100
AcDbLine
 10
2689.7556063727
 20
6371.3484307248
 30
0.0
 11
2689.7556063727
 21
6373.6484307248
 31
0.0
  0
LINE
  5
1F0
330
1F
100
AcDbEntity
  8
0
  6
HIDDEN
 62
     7
370
    18
100
AcDbLine
 10
2859.3505224314
 20
6309.6484307248
 30
0.0
 11
2855.3505224314
 21
6309.6484307248
 31
0.0
  0
LINE
  5
1F1
330
1F
100
AcDbEntity
  8
0
  6
HIDDEN
 62
     7
370
    18
100
AcDbLine
 10
2855.3505224314
 20
6297.6484307248
 30
0.0
 11
2859.3505224314
 21
6297.6484307248
 31
0.0
  0
LINE
  5
1F2
330
1F
100
AcDbEntity
  8
0
  6
HIDDEN
 62
     7
370
    18
100
AcDbLine
 10
2859.3505224314
 20
6201.6484307248
 30
0.0
 11
2855.3505224314
 21
6201.6484307248
 31
0.0
  0
LINE
  5
1F3
330
1F
100
AcDbEntity
  8
0
  6
HIDDEN
 62
     7
370
    18
100
AcDbLine
 10
2855.3505224314
 20
6189.6484307248
 30
0.0
 11
2859.3505224314
 21
6189.6484307248
 31
0.0
  0
LINE
  5
1F4
330
1F
100
AcDbEntity
  8
0
  6
HIDDEN
 62
     7
370
    18
100
AcDbLine
 10
2859.3505224314
 20
6001.6484307248
 30
0.0
 11
2855.3505224314
 21
6001.6484307248
 31
0.0
  0
LINE
  5
1F5
330
1F
100
AcDbEntity
  8
0
  6
HIDDEN
 62
     7
370
    18
100
AcDbLine
 10
2855.3505224314
 20
5989.6484307248
 30
0.0
 11
2859.3505224314
 21
5989.6484307248
 31
0.0
  0
LINE
  5
1F6
330
1F
100
AcDbEntity
  8
0
  6
HIDDEN
 62
     7
370
    18
100
AcDbLine
 10
2859.3505224314
 20
5801.6484307248
 30
0.0
 11
2855.3505224314
 21
5801.6484307248
 31
0.0
  0
LINE
  5
1F7
330
1F
100
AcDbEntity
  8
0
  6
HIDDEN
 62
     7
370
    18
100
AcDbLine
 10
2855.3505224314
 20
5789.6484307248
 30
0.0
 11
2859.3505224314
 21
5789.6484307248
 31
0.0
  0
LINE
  5
1F8
330
1F
100
AcDbEntity
  8
0
  6
HIDDEN
 62
     7
370
    18
100
AcDbLine
 10
2859.3505224314
 20
5601.6484307248
 30
0.0
 11
2855.3505224314
 21
5601.6484307248
 31
0.0
  0
LINE
  5
1F9
330
1F
100
AcDbEntity
  8
0
  6
HIDDEN
 62
     7
370
    18
100
AcDbLine
 10
2855.3505224314
 20
5589.6484307248
 30
0.0
 11
2859.3505224314
 21
5589.6484307248
 31
0.0
  0
LINE
  5
1FA
330
1F
100
AcDbEntity
  8
0
  6
HIDDEN
 62
     7
370
    18
100
AcDbLine
 10
2859.3505224314
 20
5401.6484307248
 30
0.0
 11
2855.3505224314
 21
5401.6484307248
 31
0.0
  0
LINE
  5
1FB
330
1F
100
AcDbEntity
  8
0
  6
HIDDEN
 62
     7
370
    18
100
AcDbLine
 10
2855.3505224314
 20
5389.6484307248
 30
0.0
 11
2859.3505224314
 21
5389.6484307248
 31
0.0
  0
LINE
  5
1FC
330
1F
100
AcDbEntity
  8
0
  6
HIDDEN
 62
     7
370
    18
100
AcDbLine
 10
2859.3505224314
 20
5293.6484307248
 30
0.0
 11
2855.3505224314
 21
5293.6484307248
 31
0.0
  0
LINE
  5
1FD
330
1F
100
AcDbEntity
  8
0
  6
HIDDEN
 62
     7
370
    18
100
AcDbLine
 10
2855.3505224314
 20
5281.6484307248
 30
0.0
 11
2859.3505224314
 21
5281.6484307248
 31
0.0
  0
CIRCLE
  5
1FE
330
1F
100
AcDbEntity
  8
基礎穴
100
AcDbCircle
 10
354.3505224314
 20
5103.6484307248
 30
0.0
 40
11.99999999999994
  0
CIRCLE
  5
1FF
330
1F
100
AcDbEntity
  8
基礎穴
100
AcDbCircle
 10
1124.3505224314
 20
5103.6484307248
 30
0.0
 40
12.00000000000005
  0
CIRCLE
  5
200
330
1F
100
AcDbEntity
  8
基礎穴
100
AcDbCircle
 10
1894.3505224314
 20
5103.6484307248
 30
0.0
 40
12.00000000000005
  0
CIRCLE
  5
201
330
1F
100
AcDbEntity
  8
基礎穴
100
AcDbCircle
 10
2664.3505224314
 20
5103.6484307248
 30
0.0
 40
11.99999999999983
  0
CIRCLE
  5
202
330
1F
100
AcDbEntity
  8
基礎穴
100
AcDbCircle
 10
2664.3505224314
 20
6313.6484307248
 30
0.0
 40
12.00000000000009
  0
CIRCLE
  5
203
330
1F
100
AcDbEntity
  8
基礎穴
100
AcDbCircle
 10
1894.3505224314
 20
6313.6484307248
 30
0.0
 40
12.00000000000031
  0
CIRCLE
  5
204
330
1F
100
AcDbEntity
  8
基礎穴
100
AcDbCircle
 10
1124.3505224314
 20
6313.6484307248
 30
0.0
 40
12.00000000000031
  0
CIRCLE
  5
205
330
1F
100
AcDbEntity
  8
基礎穴
100
AcDbCircle
 10
354.3505224314
 20
6313.6484307248
 30
0.0
 40
12.0000000000002
  0
LINE
  5
206
330
1F
100
AcDbEntity
  8
2
100
AcDbLine
 10
2034.3505224314
 20
5241.092523277
 30
0.0
 11
2034.3505224314
 21
6015.6606214718
 31
0.0
  0
LINE
  5
207
330
1F
100
AcDbEntity
  8
2
100
AcDbLine
 10
1326.2477653218
 20
5795.6484307249
 30
0.0
 11
2239.5845853582
 21
5795.6484307249
 31
0.0
  0
ENDSEC
  0
SECTION
  2
OBJECTS
  0
DICTIONARY
  5
C
330
0
100
AcDbDictionary
281
     1
  3
ACAD_GROUP
350
D
  3
ACAD_LAYOUT
350
1A
  3
ACAD_MLINESTYLE
350
17
  3
ACAD_PLOTSETTINGS
350
19
  3
ACAD_PLOTSTYLENAME
350
E
  3
ACAD_SCALELIST
350
47
  3
DWGPROPS
350
208
  0
DICTIONARY
  5
D
102
{ACAD_REACTORS
330
C
102
}
330
C
100
AcDbDictionary
281
     1
  0
DICTIONARY
  5
1A
102
{ACAD_REACTORS
330
C
102
}
330
C
100
AcDbDictionary
281
     1
  3
Layout1
350
1E
  3
Layout2
350
26
  3
Model
350
22
  0
DICTIONARY
  5
17
102
{ACAD_REACTORS
330
C
102
}
330
C
100
AcDbDictionary
281
     1
  3
Standard
350
18
  0
DICTIONARY
  5
19
102
{ACAD_REACTORS
330
C
102
}
330
C
100
AcDbDictionary
281
     1
  0
ACDBDICTIONARYWDFLT
  5
E
102
{ACAD_REACTORS
330
C
102
}
330
C
100
AcDbDictionary
281
     1
  3
Normal
350
F
100
AcDbDictionaryWithDefault
340
F
  0
DICTIONARY
  5
47
102
{ACAD_REACTORS
330
C
102
}
330
C
100
AcDbDictionary
281
     1
  3
A0
350
48
  3
A1
350
49
  3
A2
350
4A
  3
A3
350
4B
  3
A4
350
4C
  3
A5
350
4D
  3
A6
350
4E
  3
A7
350
4F
  3
A8
350
50
  3
A9
350
51
  3
B0
350
52
  3
B1
350
53
  3
B2
350
54
  3
B3
350
55
  3
B4
350
56
  3
B5
350
57
  3
B6
350
58
  0
XRECORD
  5
208
102
{ACAD_REACTORS
330
C
102
}
330
C
100
AcDbXrecord
280
     1
  1
DWGPROPS COOKIE
  2

  3

  4

  6

  7

  8
yuta.kunimatsu
  9

300
=
301
=
302
=
303
=
304
=
305
=
306
=
307
=
308
=
309
=
 40
0.0
 41
2460150.390085012
 42
2460150.39008537
  1

 90
        0
  0
LAYOUT
  5
1E
102
{ACAD_REACTORS
330
1A
102
}
330
1A
100
AcDbPlotSettings
  1

  2
none_device
  4

  6

 40
0.0
 41
0.0
 42
0.0
 43
0.0
 44
0.0
 45
0.0
 46
0.0
 47
0.0
 48
0.0
 49
0.0
140
0.0
141
0.0
142
1.0
143
1.0
 70
   688
 72
     1
 73
     0
 74
     5
  7

 75
    16
147
1.0
148
0.0
149
0.0
100
AcDbLayout
  1
Layout1
 70
     1
 71
     1
 10
0.0
 20
0.0
 11
420.0
 21
297.0
 12
0.0
 22
0.0
 32
0.0
 14
1.0000000000E+20
 24
1.0000000000E+20
 34
1.0000000000E+20
 15
-1.0000000000E+20
 25
-1.0000000000E+20
 35
-1.0000000000E+20
146
0.0
 13
0.0
 23
0.0
 33
0.0
 16
1.0
 26
0.0
 36
0.0
 17
0.0
 27
1.0
 37
0.0
 76
     0
330
1B
  0
LAYOUT
  5
26
102
{ACAD_REACTORS
330
1A
102
}
330
1A
100
AcDbPlotSettings
  1

  2
none_device
  4

  6

 40
0.0
 41
0.0
 42
0.0
 43
0.0
 44
0.0
 45
0.0
 46
0.0
 47
0.0
 48
0.0
 49
0.0
140
0.0
141
0.0
142
1.0
143
1.0
 70
   688
 72
     1
 73
     0
 74
     5
  7

 75
    16
147
1.0
148
0.0
149
0.0
100
AcDbLayout
  1
Layout2
 70
     1
 71
     2
 10
0.0
 20
0.0
 11
0.0
 21
0.0
 12
0.0
 22
0.0
 32
0.0
 14
0.0
 24
0.0
 34
0.0
 15
0.0
 25
0.0
 35
0.0
146
0.0
 13
0.0
 23
0.0
 33
0.0
 16
1.0
 26
0.0
 36
0.0
 17
0.0
 27
1.0
 37
0.0
 76
     0
330
23
  0
LAYOUT
  5
22
102
{ACAD_REACTORS
330
1A
102
}
330
1A
100
AcDbPlotSettings
  1

  2
none_device
  4
Letter_(8.50_x_11.00_Inches)
  6

 40
6.35
 41
6.35
 42
6.35000508
 43
6.35000508
 44
215.9
 45
279.4
 46
0.0
 47
0.0
 48
0.0
 49
0.0
140
0.0
141
0.0
142
1.0
143
1.0
 70
  1712
 72
     1
 73
     0
 74
     0
  7

 75
     0
147
1.0
148
0.0
149
0.0
100
AcDbLayout
  1
Model
 70
     1
 71
     0
 10
0.0
 20
0.0
 11
5250.0
 21
7425.0
 12
0.0
 22
0.0
 32
0.0
 14
0.0
 24
0.0
 34
0.0
 15
5250.0
 25
7425.0
 35
0.0
146
0.0
 13
0.0
 23
0.0
 33
0.0
 16
1.0
 26
0.0
 36
0.0
 17
0.0
 27
1.0
 37
0.0
 76
     0
330
1F
331
29
  0
MLINESTYLE
  5
18
102
{ACAD_REACTORS
330
17
102
}
330
17
100
AcDbMlineStyle
  2
Standard
 70
     0
  3

 62
   256
 51
90.0
 52
90.0
 71
     2
 49
0.5
 62
   256
  6
BYLAYER
 49
-0.5
 62
   256
  6
BYLAYER
  0
ACDBPLACEHOLDER
  5
F
102
{ACAD_REACTORS
330
E
102
}
330
E
  0
SCALE
  5
48
102
{ACAD_REACTORS
330
47
102
}
330
47
100
AcDbScale
 70
     0
300
1:1
140
1.0
141
1.0
290
     1
  0
SCALE
  5
49
102
{ACAD_REACTORS
330
47
102
}
330
47
100
AcDbScale
 70
     0
300
1:2
140
1.0
141
2.0
290
     0
  0
SCALE
  5
4A
102
{ACAD_REACTORS
330
47
102
}
330
47
100
AcDbScale
 70
     0
300
1:4
140
1.0
141
4.0
290
     0
  0
SCALE
  5
4B
102
{ACAD_REACTORS
330
47
102
}
330
47
100
AcDbScale
 70
     0
300
1:5
140
1.0
141
5.0
290
     0
  0
SCALE
  5
4C
102
{ACAD_REACTORS
330
47
102
}
330
47
100
AcDbScale
 70
     0
300
1:8
140
1.0
141
8.0
290
     0
  0
SCALE
  5
4D
102
{ACAD_REACTORS
330
47
102
}
330
47
100
AcDbScale
 70
     0
300
1:10
140
1.0
141
10.0
290
     0
  0
SCALE
  5
4E
102
{ACAD_REACTORS
330
47
102
}
330
47
100
AcDbScale
 70
     0
300
1:16
140
1.0
141
16.0
290
     0
  0
SCALE
  5
4F
102
{ACAD_REACTORS
330
47
102
}
330
47
100
AcDbScale
 70
     0
300
1:20
140
1.0
141
20.0
290
     0
  0
SCALE
  5
50
102
{ACAD_REACTORS
330
47
102
}
330
47
100
AcDbScale
 70
     0
300
1:30
140
1.0
141
30.0
290
     0
  0
SCALE
  5
51
102
{ACAD_REACTORS
330
47
102
}
330
47
100
AcDbScale
 70
     0
300
1:40
140
1.0
141
40.0
290
     0
  0
SCALE
  5
52
102
{ACAD_REACTORS
330
47
102
}
330
47
100
AcDbScale
 70
     0
300
1:50
140
1.0
141
50.0
290
     0
  0
SCALE
  5
53
102
{ACAD_REACTORS
330
47
102
}
330
47
100
AcDbScale
 70
     0
300
1:100
140
1.0
141
100.0
290
     0
  0
SCALE
  5
54
102
{ACAD_REACTORS
330
47
102
}
330
47
100
AcDbScale
 70
     0
300
2:1
140
2.0
141
1.0
290
     0
  0
SCALE
  5
55
102
{ACAD_REACTORS
330
47
102
}
330
47
100
AcDbScale
 70
     0
300
4:1
140
4.0
141
1.0
290
     0
  0
SCALE
  5
56
102
{ACAD_REACTORS
330
47
102
}
330
47
100
AcDbScale
 70
     0
300
8:1
140
8.0
141
1.0
290
     0
  0
SCALE
  5
57
102
{ACAD_REACTORS
330
47
102
}
330
47
100
AcDbScale
 70
     0
300
10:1
140
10.0
141
1.0
290
     0
  0
SCALE
  5
58
102
{ACAD_REACTORS
330
47
102
}
330
47
100
AcDbScale
 70
     0
300
100:1
140
100.0
141
1.0
290
     0
  0
ENDSEC
  0
EOF
