  0
SECTION
  2
HEADER
  9
$ACADVER
  1
AC1015
  9
$ACADMAINTVER
 70
     6
  9
$DWGCODEPAGE
  3
DOS932
  9
$INSBASE
 10
0.0
 20
0.0
 30
0.0
  9
$EXTMIN
 10
0.0
 20
0.0
 30
0.0
  9
$EXTMAX
 10
5250.0
 20
7425.0
 30
0.0
  9
$LIMMIN
 10
0.0
 20
0.0
  9
$LIMMAX
 10
5250.0
 20
7425.0
  9
$ORTHOMODE
 70
     0
  9
$REGENMODE
 70
     1
  9
$FILLMODE
 70
     1
  9
$QTEXTMODE
 70
     0
  9
$MIRRTEXT
 70
     1
  9
$LTSCALE
 40
25.0
  9
$ATTMODE
 70
     1
  9
$TEXTSIZE
 40
70.5555555556
  9
$TRACEWID
 40
1.0
  9
$TEXTSTYLE
  7
Standard
  9
$CLAYER
  8
0
  9
$CELTYPE
  6
ByLayer
  9
$CECOLOR
 62
   256
  9
$CELTSCALE
 40
1.0
  9
$DISPSILH
 70
     0
  9
$DIMSCALE
 40
1.0
  9
$DIMASZ
 40
37.5
  9
$DIMEXO
 40
25.0
  9
$DIMDLI
 40
3.75
  9
$DIMRND
 40
0.0
  9
$DIMDLE
 40
0.0
  9
$DIMEXE
 40
25.0
  9
$DIMTP
 40
0.0
  9
$DIMTM
 40
0.0
  9
$DIMTXT
 40
70.5555555556
  9
$DIMCEN
 40
2.5
  9
$DIMTSZ
 40
0.0
  9
$DIMTOL
 70
     0
  9
$DIMLIM
 70
     0
  9
$DIMTIH
 70
     1
  9
$DIMTOH
 70
     1
  9
$DIMSE1
 70
     0
  9
$DIMSE2
 70
     0
  9
$DIMTAD
 70
     1
  9
$DIMZIN
 70
     0
  9
$DIMBLK
  1

  9
$DIMASO
 70
     1
  9
$DIMSHO
 70
     1
  9
$DIMPOST
  1

  9
$DIMAPOST
  1

  9
$DIMALT
 70
     0
  9
$DIMALTD
 70
     3
  9
$DIMALTF
 40
0.0393700787
  9
$DIMLFAC
 40
1.0
  9
$DIMTOFL
 70
     1
  9
$DIMTVP
 40
0.0
  9
$DIMTIX
 70
     0
  9
$DIMSOXD
 70
     0
  9
$DIMSAH
 70
     0
  9
$DIMBLK1
  1

  9
$DIMBLK2
  1

  9
$DIMSTYLE
  2
ISO-25
  9
$DIMCLRD
 70
     0
  9
$DIMCLRE
 70
     0
  9
$DIMCLRT
 70
     0
  9
$DIMTFAC
 40
1.0
  9
$DIMGAP
 40
38.1
  9
$DIMJUST
 70
     0
  9
$DIMSD1
 70
     0
  9
$DIMSD2
 70
     0
  9
$DIMTOLJ
 70
     0
  9
$DIMTZIN
 70
     0
  9
$DIMALTZ
 70
     0
  9
$DIMALTTZ
 70
     0
  9
$DIMUPT
 70
     0
  9
$DIMDEC
 70
     0
  9
$DIMTDEC
 70
     0
  9
$DIMALTU
 70
     2
  9
$DIMALTTD
 70
     3
  9
$DIMTXSTY
  7
Standard
  9
$DIMAUNIT
 70
     0
  9
$DIMADEC
 70
     2
  9
$DIMALTRND
 40
0.0
  9
$DIMAZIN
 70
     0
  9
$DIMDSEP
 70
    44
  9
$DIMATFIT
 70
     3
  9
$DIMFRAC
 70
     0
  9
$DIMLDRBLK
  1

  9
$DIMLUNIT
 70
     2
  9
$DIMLWD
 70
    -2
  9
$DIMLWE
 70
    -2
  9
$DIMTMOVE
 70
     0
  9
$LUNITS
 70
     2
  9
$LUPREC
 70
     2
  9
$SKETCHINC
 40
1.0
  9
$FILLETRAD
 40
0.0
  9
$AUNITS
 70
     0
  9
$AUPREC
 70
     2
  9
$MENU
  1
.
  9
$ELEVATION
 40
0.0
  9
$PELEVATION
 40
0.0
  9
$THICKNESS
 40
0.0
  9
$LIMCHECK
 70
     0
  9
$CHAMFERA
 40
0.0
  9
$CHAMFERB
 40
0.0
  9
$CHAMFERC
 40
0.0
  9
$CHAMFERD
 40
0.0
  9
$SKPOLY
 70
     0
  9
$TDCREATE
 40
2460174.791615185
  9
$TDUCREATE
 40
2460174.416615185
  9
$TDUPDATE
 40
2460174.791618299
  9
$TDUUPDATE
 40
2460174.416618299
  9
$TDINDWG
 40
0.0000000116
  9
$TDUSRTIMER
 40
0.0000000116
  9
$USRTIMER
 70
     1
  9
$ANGBASE
 50
0.0
  9
$ANGDIR
 70
     0
  9
$PDMODE
 70
     0
  9
$PDSIZE
 40
-1.0
  9
$PLINEWID
 40
0.0
  9
$SPLFRAME
 70
     0
  9
$SPLINETYPE
 70
     6
  9
$SPLINESEGS
 70
     8
  9
$HANDSEED
  5
229
  9
$SURFTAB1
 70
     6
  9
$SURFTAB2
 70
     6
  9
$SURFTYPE
 70
     6
  9
$SURFU
 70
     6
  9
$SURFV
 70
     6
  9
$UCSBASE
  2

  9
$UCSNAME
  2

  9
$UCSORG
 10
0.0
 20
0.0
 30
0.0
  9
$UCSXDIR
 10
1.0
 20
0.0
 30
0.0
  9
$UCSYDIR
 10
0.0
 20
1.0
 30
0.0
  9
$UCSORTHOREF
  2

  9
$UCSORTHOVIEW
 70
     0
  9
$UCSORGTOP
 10
0.0
 20
0.0
 30
0.0
  9
$UCSORGBOTTOM
 10
0.0
 20
0.0
 30
0.0
  9
$UCSORGLEFT
 10
0.0
 20
0.0
 30
0.0
  9
$UCSORGRIGHT
 10
0.0
 20
0.0
 30
0.0
  9
$UCSORGFRONT
 10
0.0
 20
0.0
 30
0.0
  9
$UCSORGBACK
 10
0.0
 20
0.0
 30
0.0
  9
$PUCSBASE
  2

  9
$PUCSNAME
  2

  9
$PUCSORG
 10
0.0
 20
0.0
 30
0.0
  9
$PUCSXDIR
 10
1.0
 20
0.0
 30
0.0
  9
$PUCSYDIR
 10
0.0
 20
1.0
 30
0.0
  9
$PUCSORTHOREF
  2

  9
$PUCSORTHOVIEW
 70
     0
  9
$PUCSORGTOP
 10
0.0
 20
0.0
 30
0.0
  9
$PUCSORGBOTTOM
 10
0.0
 20
0.0
 30
0.0
  9
$PUCSORGLEFT
 10
0.0
 20
0.0
 30
0.0
  9
$PUCSORGRIGHT
 10
0.0
 20
0.0
 30
0.0
  9
$PUCSORGFRONT
 10
0.0
 20
0.0
 30
0.0
  9
$PUCSORGBACK
 10
0.0
 20
0.0
 30
0.0
  9
$USERI1
 70
     0
  9
$USERI2
 70
     0
  9
$USERI3
 70
     0
  9
$USERI4
 70
     0
  9
$USERI5
 70
     0
  9
$USERR1
 40
0.0
  9
$USERR2
 40
0.0
  9
$USERR3
 40
0.0
  9
$USERR4
 40
0.0
  9
$USERR5
 40
0.0
  9
$WORLDVIEW
 70
     1
  9
$SHADEDGE
 70
     3
  9
$SHADEDIF
 70
    70
  9
$TILEMODE
 70
     1
  9
$MAXACTVP
 70
    64
  9
$PINSBASE
 10
0.0
 20
0.0
 30
0.0
  9
$PLIMCHECK
 70
     0
  9
$PEXTMIN
 10
1.0000000000E+20
 20
1.0000000000E+20
 30
1.0000000000E+20
  9
$PEXTMAX
 10
-1.0000000000E+20
 20
-1.0000000000E+20
 30
-1.0000000000E+20
  9
$PLIMMIN
 10
0.0
 20
0.0
  9
$PLIMMAX
 10
420.0
 20
297.0
  9
$UNITMODE
 70
     0
  9
$VISRETAIN
 70
     1
  9
$PLINEGEN
 70
     0
  9
$PSLTSCALE
 70
     1
  9
$TREEDEPTH
 70
  3020
  9
$CMLSTYLE
  2
Standard
  9
$CMLJUST
 70
     0
  9
$CMLSCALE
 40
20.0
  9
$PROXYGRAPHICS
 70
     1
  9
$MEASUREMENT
 70
     1
  9
$CELWEIGHT
370
    -1
  9
$ENDCAPS
280
     0
  9
$JOINSTYLE
280
     0
  9
$LWDISPLAY
290
     1
  9
$INSUNITS
 70
     4
  9
$HYPERLINKBASE
  1

  9
$STYLESHEET
  1

  9
$XEDIT
290
     1
  9
$CEPSNTYPE
380
     0
  9
$PSTYLEMODE
290
     1
  9
$FINGERPRINTGUID
  2
{12d19e00-fe42-4a47-a34d-290dd0f91b40}
  9
$VERSIONGUID
  2
{FAEB1C32-E019-11D5-929B-00C0DF256EC4}
  9
$EXTNAMES
290
     1
  9
$PSVPSCALE
 40
0.0
  9
$OLESTARTUP
290
     0
  0
ENDSEC
  0
SECTION
  2
CLASSES
  0
CLASS
  1
ACDBDICTIONARYWDFLT
  2
AcDbDictionaryWithDefault
  3
ObjectDBX Classes
 90
        0
280
     0
281
     0
  0
CLASS
  1
VISUALSTYLE
  2
AcDbVisualStyle
  3
ObjectDBX Classes
 90
     4095
280
     0
281
     0
  0
CLASS
  1
MATERIAL
  2
AcDbMaterial
  3
ObjectDBX Classes
 90
     1153
280
     0
281
     0
  0
CLASS
  1
SCALE
  2
AcDbScale
  3
ObjectDBX Classes
 90
     1153
280
     0
281
     0
  0
CLASS
  1
TABLESTYLE
  2
AcDbTableStyle
  3
ObjectDBX Classes
 90
     4095
280
     0
281
     0
  0
CLASS
  1
MLEADERSTYLE
  2
AcDbMLeaderStyle
  3
ACDB_MLEADERSTYLE_CLASS
 90
     4095
280
     0
281
     0
  0
CLASS
  1
SUN
  2
AcDbSun
  3
SCENEOE
 90
     1153
280
     0
281
     0
  0
CLASS
  1
ACDBPLACEHOLDER
  2
AcDbPlaceHolder
  3
ObjectDBX Classes
 90
        0
280
     0
281
     0
  0
CLASS
  1
LAYOUT
  2
AcDbLayout
  3
ObjectDBX Classes
 90
        0
280
     0
281
     0
  0
ENDSEC
  0
SECTION
  2
TABLES
  0
TABLE
  2
VPORT
  5
8
330
0
100
AcDbSymbolTable
 70
     1
  0
VPORT
  5
29
330
8
100
AcDbSymbolTableRecord
100
AcDbViewportTableRecord
  2
*Active
 70
     0
 10
0.0
 20
0.0
 11
1.0
 21
1.0
 12
2625.0
 22
3712.5
 13
0.0
 23
0.0
 14
10.0
 24
10.0
 15
10.0
 25
10.0
 16
0.0
 26
0.0
 36
1.0
 17
0.0
 27
0.0
 37
0.0
 40
7425.0
 41
0.7070707071
 42
50.0
 43
0.0
 44
0.0
 50
0.0
 51
0.0
 71
     0
 72
  2000
 73
     1
 74
     3
 75
     0
 76
     0
 77
     0
 78
     0
281
     0
 65
     1
110
0.0
120
0.0
130
0.0
111
1.0
121
0.0
131
0.0
112
0.0
122
1.0
132
0.0
 79
     0
146
0.0
  0
ENDTAB
  0
TABLE
  2
LTYPE
  5
5
330
0
100
AcDbSymbolTable
 70
     6
  0
LTYPE
  5
14
330
5
100
AcDbSymbolTableRecord
100
AcDbLinetypeTableRecord
  2
ByBlock
 70
     0
  3

 72
    65
 73
     0
 40
0.0
  0
LTYPE
  5
15
330
5
100
AcDbSymbolTableRecord
100
AcDbLinetypeTableRecord
  2
ByLayer
 70
     0
  3

 72
    65
 73
     0
 40
0.0
  0
LTYPE
  5
16
330
5
100
AcDbSymbolTableRecord
100
AcDbLinetypeTableRecord
  2
Continuous
 70
     0
  3
Solid line
 72
    65
 73
     0
 40
0.0
  0
LTYPE
  5
5E
330
5
100
AcDbSymbolTableRecord
100
AcDbLinetypeTableRecord
  2
HIDDEN
 70
     0
  3
Hidden __ __ __ __ __ __ __ __ __ __ __ __ __ __
 72
    65
 73
     2
 40
1.905
 49
1.27
 74
     0
 49
-0.635
 74
     0
  0
LTYPE
  5
5F
330
5
100
AcDbSymbolTableRecord
100
AcDbLinetypeTableRecord
  2
PHANTOM
 70
     0
  3
Phantom ______  __  __  ______  __  __  ______
 72
    65
 73
     6
 40
12.7
 49
6.35
 74
     0
 49
-1.27
 74
     0
 49
1.27
 74
     0
 49
-1.27
 74
     0
 49
1.27
 74
     0
 49
-1.27
 74
     0
  0
LTYPE
  5
60
330
5
100
AcDbSymbolTableRecord
100
AcDbLinetypeTableRecord
  2
CENTER
 70
     0
  3
Center ____ _ ____ _ ____ _ ____ _ ____ _ ____
 72
    65
 73
     4
 40
10.16
 49
6.35
 74
     0
 49
-1.27
 74
     0
 49
1.27
 74
     0
 49
-1.27
 74
     0
  0
LTYPE
  5
61
330
5
100
AcDbSymbolTableRecord
100
AcDbLinetypeTableRecord
  2
CENTERX2
 70
     0
  3
Center (2x) ________  __  ________  __  _____
 72
    65
 73
     4
 40
20.32
 49
12.7
 74
     0
 49
-2.54
 74
     0
 49
2.54
 74
     0
 49
-2.54
 74
     0
  0
LTYPE
  5
62
330
5
100
AcDbSymbolTableRecord
100
AcDbLinetypeTableRecord
  2
DOT2
 70
     0
  3
Dot (.5x) ........................................
 72
    65
 73
     2
 40
0.635
 49
0.0
 74
     0
 49
-0.635
 74
     0
  0
ENDTAB
  0
TABLE
  2
LAYER
  5
2
330
0
100
AcDbSymbolTable
 70
     6
  0
LAYER
  5
10
330
2
100
AcDbSymbolTableRecord
100
AcDbLayerTableRecord
  2
0
 70
     0
 62
     7
  6
Continuous
370
    -3
390
F
  0
LAYER
  5
63
330
2
100
AcDbSymbolTableRecord
100
AcDbLayerTableRecord
  2
1
 70
     0
 62
     4
  6
Continuous
370
    25
390
F
  0
LAYER
  5
64
330
2
100
AcDbSymbolTableRecord
100
AcDbLayerTableRecord
  2
2
 70
     0
 62
     3
  6
CENTERX2
370
    -3
390
F
  0
LAYER
  5
65
330
2
100
AcDbSymbolTableRecord
100
AcDbLayerTableRecord
  2
3
 70
     0
 62
     2
  6
Continuous
370
    -3
390
F
  0
LAYER
  5
66
330
2
100
AcDbSymbolTableRecord
100
AcDbLayerTableRecord
  2
4
 70
     0
 62
     7
  6
Continuous
370
    -3
390
F
  0
LAYER
  5
67
330
2
100
AcDbSymbolTableRecord
100
AcDbLayerTableRecord
  2
基礎穴
 70
     0
 62
     1
  6
PHANTOM
370
    35
390
F
  0
ENDTAB
  0
TABLE
  2
STYLE
  5
3
330
0
100
AcDbSymbolTable
 70
     1
  0
STYLE
  5
11
330
3
100
AcDbSymbolTableRecord
100
AcDbTextStyleTableRecord
  2
Standard
 70
     0
 40
0.0
 41
1.0
 50
0.0
 71
     0
 42
70.5555555556
  3
txt
  4
bigfont
  0
ENDTAB
  0
TABLE
  2
VIEW
  5
6
330
0
100
AcDbSymbolTable
 70
     0
  0
ENDTAB
  0
TABLE
  2
UCS
  5
7
330
0
100
AcDbSymbolTable
 70
     0
  0
ENDTAB
  0
TABLE
  2
APPID
  5
9
330
0
100
AcDbSymbolTable
 70
     1
  0
APPID
  5
12
330
9
100
AcDbSymbolTableRecord
100
AcDbRegAppTableRecord
  2
ACAD
 70
     0
  0
ENDTAB
  0
TABLE
  2
DIMSTYLE
  5
A
330
0
100
AcDbSymbolTable
 70
     1
100
AcDbDimStyleTable
  0
DIMSTYLE
105
27
330
A
100
AcDbSymbolTableRecord
100
AcDbDimStyleTableRecord
  2
ISO-25
 70
     0
 41
2.5
 42
0.625
 43
3.75
 44
1.25
 73
     0
 74
     0
 77
     1
 78
     8
140
2.5
141
2.5
143
0.0393700787
147
0.625
171
     3
172
     1
178
     0
271
     2
272
     2
274
     3
278
    44
283
     0
284
     8
340
11
  0
ENDTAB
  0
TABLE
  2
BLOCK_RECORD
  5
1
330
0
100
AcDbSymbolTable
 70
     2
  0
BLOCK_RECORD
  5
1F
330
1
100
AcDbSymbolTableRecord
100
AcDbBlockTableRecord
  2
*Model_Space
340
22
  0
BLOCK_RECORD
  5
1B
330
1
100
AcDbSymbolTableRecord
100
AcDbBlockTableRecord
  2
*Paper_Space
340
1E
  0
BLOCK_RECORD
  5
23
330
1
100
AcDbSymbolTableRecord
100
AcDbBlockTableRecord
  2
*Paper_Space0
340
26
  0
BLOCK_RECORD
  5
DD
330
1
100
AcDbSymbolTableRecord
100
AcDbBlockTableRecord
  2
SW_CENTERMARKSYMBOL_0
340
0
102
{BLKREFS
331
E8
102
}
  0
ENDTAB
  0
ENDSEC
  0
SECTION
  2
BLOCKS
  0
BLOCK
  5
20
330
1F
100
AcDbEntity
  8
0
100
AcDbBlockBegin
  2
*Model_Space
 70
     0
 10
0.0
 20
0.0
 30
0.0
  3
*Model_Space
  1

  0
ENDBLK
  5
21
330
1F
100
AcDbEntity
  8
0
100
AcDbBlockEnd
  0
BLOCK
  5
1C
330
1B
100
AcDbEntity
 67
     1
  8
0
100
AcDbBlockBegin
  2
*Paper_Space
 70
     0
 10
0.0
 20
0.0
 30
0.0
  3
*Paper_Space
  1

  0
ENDBLK
  5
1D
330
1B
100
AcDbEntity
 67
     1
  8
0
100
AcDbBlockEnd
  0
BLOCK
  5
24
330
23
100
AcDbEntity
  8
0
100
AcDbBlockBegin
  2
*Paper_Space0
 70
     0
 10
0.0
 20
0.0
 30
0.0
  3
*Paper_Space0
  1

  0
ENDBLK
  5
25
330
23
100
AcDbEntity
  8
0
100
AcDbBlockEnd
  0
BLOCK
  5
DE
330
DD
100
AcDbEntity
  8
0
100
AcDbBlockBegin
  2
SW_CENTERMARKSYMBOL_0
 70
     0
 10
0.0
 20
0.0
 30
0.0
  3
SW_CENTERMARKSYMBOL_0
  1

  0
LINE
  5
E0
330
DD
100
AcDbEntity
  8
2
 62
     0
100
AcDbLine
 10
0.0
 20
0.0
 30
0.0
 11
0.0
 21
2.5
 31
0.0
  0
LINE
  5
E1
330
DD
100
AcDbEntity
  8
2
 62
     0
100
AcDbLine
 10
0.0
 20
0.0
 30
0.0
 11
-2.5
 21
0.0
 31
0.0
  0
LINE
  5
E2
330
DD
100
AcDbEntity
  8
2
 62
     0
100
AcDbLine
 10
0.0
 20
0.0
 30
0.0
 11
0.0
 21
-2.5
 31
0.0
  0
LINE
  5
E3
330
DD
100
AcDbEntity
  8
2
 62
     0
100
AcDbLine
 10
0.0
 20
0.0
 30
0.0
 11
2.5
 21
0.0
 31
0.0
  0
LINE
  5
E4
330
DD
100
AcDbEntity
  8
2
 62
     0
100
AcDbLine
 10
0.0
 20
5.0
 30
0.0
 11
0.0
 21
612.5
 31
0.0
  0
LINE
  5
E5
330
DD
100
AcDbEntity
  8
2
 62
     0
100
AcDbLine
 10
-5.0
 20
0.0
 30
0.0
 11
-612.5
 21
0.0
 31
0.0
  0
LINE
  5
E6
330
DD
100
AcDbEntity
  8
2
 62
     0
100
AcDbLine
 10
0.0
 20
-5.0
 30
0.0
 11
0.0
 21
-612.5
 31
0.0
  0
LINE
  5
E7
330
DD
100
AcDbEntity
  8
2
 62
     0
100
AcDbLine
 10
5.0
 20
0.0
 30
0.0
 11
612.5
 21
0.0
 31
0.0
  0
ENDBLK
  5
DF
330
DD
100
AcDbEntity
  8
0
100
AcDbBlockEnd
  0
ENDSEC
  0
SECTION
  2
ENTITIES
  0
LINE
  5
68
330
1F
100
AcDbEntity
  8
1
100
AcDbLine
 10
2549.6381018633
 20
2141.8031642936
 30
0.0
 11
2549.6381018633
 21
2036.8031642936
 31
0.0
  0
LINE
  5
69
330
1F
100
AcDbEntity
  8
1
100
AcDbLine
 10
2584.6381018633
 20
2036.8031642936
 30
0.0
 11
2584.6381018633
 21
2141.8031642936
 31
0.0
  0
LINE
  5
6A
330
1F
100
AcDbEntity
  8
1
100
AcDbLine
 10
319.6381018633
 20
2141.8031642936
 30
0.0
 11
319.6381018633
 21
2036.8031642936
 31
0.0
  0
LINE
  5
6B
330
1F
100
AcDbEntity
  8
1
100
AcDbLine
 10
354.6381018633
 20
2036.8031642936
 30
0.0
 11
354.6381018633
 21
2141.8031642936
 31
0.0
  0
LINE
  5
6C
330
1F
100
AcDbEntity
  8
1
100
AcDbLine
 10
1814.1561414817
 20
3435.8220020385
 30
0.0
 11
468.8422046907
 21
2687.507788973
 31
0.0
  0
ARC
  5
6D
330
1F
100
AcDbEntity
  8
1
100
AcDbCircle
 10
1972.1381018633
 20
3151.8031642936
 30
0.0
 40
325.0000000000034
100
AcDbArc
 50
290.7250798952
 51
119.084457721
  0
LINE
  5
6E
330
1F
100
AcDbEntity
  8
1
100
AcDbLine
 10
647.338511103
 20
2303.0542059311
 30
0.0
 11
2087.1504924653
 21
2847.8341691509
 31
0.0
  0
ARC
  5
6F
330
1F
100
AcDbEntity
  8
1
100
AcDbCircle
 10
572.1381018633
 20
2501.8031642936
 30
0.0
 40
212.5000000000003
100
AcDbArc
 50
119.084457721
 51
290.7250798952
  0
LINE
  5
70
330
1F
100
AcDbEntity
  8
1
100
AcDbLine
 10
797.1381018633
 20
2266.8031642936
 30
0.0
 11
797.1381018633
 21
2321.8031642936
 31
0.0
  0
LINE
  5
71
330
1F
100
AcDbEntity
  8
1
100
AcDbLine
 10
347.1381018633
 20
2266.8031642936
 30
0.0
 11
347.1381018633
 21
2321.8031642936
 31
0.0
  0
LINE
  5
72
330
1F
100
AcDbEntity
  8
1
100
AcDbLine
 10
797.1381018633
 20
2321.8031642936
 30
0.0
 11
696.890581133
 21
2321.8031642936
 31
0.0
  0
LINE
  5
73
330
1F
100
AcDbEntity
  8
1
100
AcDbLine
 10
459.1945318826
 20
2321.8031642936
 30
0.0
 11
347.1381018633
 21
2321.8031642936
 31
0.0
  0
LINE
  5
74
330
1F
100
AcDbEntity
  8
1
100
AcDbLine
 10
715.1381018633
 20
2321.8031642936
 30
0.0
 11
715.1381018633
 21
2328.7074572158
 31
0.0
  0
LINE
  5
75
330
1F
100
AcDbEntity
  8
1
100
AcDbLine
 10
429.1381018633
 20
2339.8031642936
 30
0.0
 11
429.1381018633
 21
2321.8031642936
 31
0.0
  0
LINE
  5
76
330
1F
100
AcDbEntity
  8
1
100
AcDbLine
 10
434.6162854123
 20
2339.8031642936
 30
0.0
 11
429.1381018633
 21
2339.8031642936
 31
0.0
  0
LINE
  5
77
330
1F
100
AcDbEntity
  8
1
100
AcDbLine
 10
2632.1381018633
 20
1971.8031642936
 30
0.0
 11
272.1381018633
 21
1971.8031642936
 31
0.0
  0
LINE
  5
78
330
1F
100
AcDbEntity
  8
1
100
AcDbLine
 10
272.1381018633
 20
1971.8031642936
 30
0.0
 11
272.1381018633
 21
1977.8031642936
 31
0.0
  0
LINE
  5
79
330
1F
100
AcDbEntity
  8
1
100
AcDbLine
 10
2632.1381018633
 20
1977.8031642936
 30
0.0
 11
272.1381018633
 21
1977.8031642936
 31
0.0
  0
LINE
  5
7A
330
1F
100
AcDbEntity
  8
1
100
AcDbLine
 10
2632.1381018633
 20
1971.8031642936
 30
0.0
 11
2632.1381018633
 21
1977.8031642936
 31
0.0
  0
LINE
  5
7B
330
1F
100
AcDbEntity
  8
1
100
AcDbLine
 10
272.1381018633
 20
2036.8031642936
 30
0.0
 11
2632.1381018633
 21
2036.8031642936
 31
0.0
  0
LINE
  5
7C
330
1F
100
AcDbEntity
  8
1
100
AcDbLine
 10
2632.1381018633
 20
2030.8031642936
 30
0.0
 11
2632.1381018633
 21
2036.8031642936
 31
0.0
  0
LINE
  5
7D
330
1F
100
AcDbEntity
  8
1
100
AcDbLine
 10
272.1381018633
 20
2030.8031642936
 30
0.0
 11
2632.1381018633
 21
2030.8031642936
 31
0.0
  0
LINE
  5
7E
330
1F
100
AcDbEntity
  8
1
100
AcDbLine
 10
272.1381018633
 20
2030.8031642936
 30
0.0
 11
272.1381018633
 21
2036.8031642936
 31
0.0
  0
LINE
  5
7F
330
1F
100
AcDbEntity
  8
1
100
AcDbLine
 10
2573.1381018633
 20
1977.8031642936
 30
0.0
 11
2573.1381018633
 21
2030.8031642936
 31
0.0
  0
LINE
  5
80
330
1F
100
AcDbEntity
  8
1
100
AcDbLine
 10
331.1381018633
 20
1977.8031642936
 30
0.0
 11
331.1381018633
 21
2030.8031642936
 31
0.0
  0
LINE
  5
81
330
1F
100
AcDbEntity
  8
1
100
AcDbLine
 10
2632.1381018633
 20
2147.8031642936
 30
0.0
 11
2632.1381018633
 21
2141.8031642936
 31
0.0
  0
LINE
  5
82
330
1F
100
AcDbEntity
  8
1
100
AcDbLine
 10
272.1381018633
 20
2141.8031642936
 30
0.0
 11
2632.1381018633
 21
2141.8031642936
 31
0.0
  0
LINE
  5
83
330
1F
100
AcDbEntity
  8
1
100
AcDbLine
 10
272.1381018633
 20
2147.8031642936
 30
0.0
 11
272.1381018633
 21
2141.8031642936
 31
0.0
  0
LINE
  5
84
330
1F
100
AcDbEntity
  8
1
100
AcDbLine
 10
272.1381018633
 20
2147.8031642936
 30
0.0
 11
2632.1381018633
 21
2147.8031642936
 31
0.0
  0
LINE
  5
85
330
1F
100
AcDbEntity
  8
1
100
AcDbLine
 10
272.1381018633
 20
2266.8031642936
 30
0.0
 11
2632.1381018633
 21
2266.8031642936
 31
0.0
  0
LINE
  5
86
330
1F
100
AcDbEntity
  8
1
100
AcDbLine
 10
272.1381018633
 20
2260.8031642936
 30
0.0
 11
2632.1381018633
 21
2260.8031642936
 31
0.0
  0
LINE
  5
87
330
1F
100
AcDbEntity
  8
1
100
AcDbLine
 10
272.1381018633
 20
2266.8031642936
 30
0.0
 11
272.1381018633
 21
2260.8031642936
 31
0.0
  0
LINE
  5
88
330
1F
100
AcDbEntity
  8
1
100
AcDbLine
 10
2632.1381018633
 20
2266.8031642936
 30
0.0
 11
2632.1381018633
 21
2260.8031642936
 31
0.0
  0
LINE
  5
89
330
1F
100
AcDbEntity
  8
1
100
AcDbLine
 10
2573.1381018633
 20
2260.8031642936
 30
0.0
 11
2573.1381018633
 21
2147.8031642936
 31
0.0
  0
LINE
  5
8A
330
1F
100
AcDbEntity
  8
1
100
AcDbLine
 10
331.1381018633
 20
2260.8031642936
 30
0.0
 11
331.1381018633
 21
2147.8031642936
 31
0.0
  0
LINE
  5
8B
330
1F
100
AcDbEntity
  8
1
100
AcDbLine
 10
1977.1381018633
 20
3907.8031642936
 30
0.0
 11
1977.1381018633
 21
3911.8031642936
 31
0.0
  0
LINE
  5
8C
330
1F
100
AcDbEntity
  8
1
100
AcDbLine
 10
721.1381018633
 20
3907.8031642936
 30
0.0
 11
1977.1381018633
 21
3907.8031642936
 31
0.0
  0
LINE
  5
8D
330
1F
100
AcDbEntity
  8
1
100
AcDbLine
 10
721.1381018633
 20
3907.8031642936
 30
0.0
 11
721.1381018633
 21
3911.8031642936
 31
0.0
  0
LINE
  5
8E
330
1F
100
AcDbEntity
  8
1
100
AcDbLine
 10
721.1381018633
 20
3911.8031642936
 30
0.0
 11
1977.1381018633
 21
3911.8031642936
 31
0.0
  0
LINE
  5
8F
330
1F
100
AcDbEntity
  8
1
100
AcDbLine
 10
1925.7381018633
 20
3821.4031642936
 30
0.0
 11
1925.7381018633
 21
3907.8031642936
 31
0.0
  0
LINE
  5
90
330
1F
100
AcDbEntity
  8
1
100
AcDbLine
 10
2040.6381018633
 20
3821.4031642936
 30
0.0
 11
1925.7381018633
 21
3821.4031642936
 31
0.0
  0
ARC
  5
91
330
1F
100
AcDbEntity
  8
1
100
AcDbCircle
 10
2040.6381018633
 20
3083.3031642936
 30
0.0
 40
738.1000000000008
100
AcDbArc
 50
0.0
 51
90.0
  0
LINE
  5
92
330
1F
100
AcDbEntity
  8
1
100
AcDbLine
 10
772.8902962486
 20
3907.8031642936
 30
0.0
 11
841.7429827483
 21
3139.8114933019
 31
0.0
  0
LINE
  5
93
330
1F
100
AcDbEntity
  8
1
100
AcDbLine
 10
2778.7381018633
 20
3069.8031642936
 30
0.0
 11
2778.7381018633
 21
3083.3031642936
 31
0.0
  0
ARC
  5
94
330
1F
100
AcDbEntity
  8
1
100
AcDbCircle
 10
1890.1381018633
 20
3233.8031642936
 30
0.0
 40
1052.600000000001
100
AcDbArc
 50
185.1230368211
 51
197.3830184696
  0
ARC
  5
95
330
1F
100
AcDbEntity
  8
1
100
AcDbCircle
 10
1890.1381018633
 20
3233.8031642936
 30
0.0
 40
1052.6
100
AcDbArc
 50
224.8789722705
 51
246.7335096233
  0
ARC
  5
96
330
1F
100
AcDbEntity
  8
1
100
AcDbCircle
 10
1890.1381018633
 20
3069.8031642936
 30
0.0
 40
888.6000000000006
100
AcDbArc
 50
295.3554290549
 51
0.0
  0
CIRCLE
  5
97
330
1F
100
AcDbEntity
  8
0
  6
HIDDEN
 62
     7
370
    18
100
AcDbCircle
 10
572.1381018633
 20
2501.8031642936
 30
0.0
 40
24.00000000000011
  0
ARC
  5
98
330
1F
100
AcDbEntity
  8
0
  6
HIDDEN
 62
     7
370
    18
100
AcDbCircle
 10
572.1381018633
 20
2501.8031642936
 30
0.0
 40
195.5
100
AcDbArc
 50
298.9928373896
 51
241.0071626104
  0
LINE
  5
99
330
1F
100
AcDbEntity
  8
0
  6
HIDDEN
 62
     7
370
    18
100
AcDbLine
 10
666.8970064581
 20
2330.8031642936
 30
0.0
 11
477.3791972686
 21
2330.8031642936
 31
0.0
  0
LINE
  5
9A
330
1F
100
AcDbEntity
  8
0
  6
HIDDEN
 62
     7
370
    18
100
AcDbLine
 10
696.890581133
 20
2321.8031642936
 30
0.0
 11
459.1945318826
 21
2321.8031642936
 31
0.0
  0
LINE
  5
9B
330
1F
100
AcDbEntity
  8
0
  6
HIDDEN
 62
     7
370
    18
100
AcDbLine
 10
715.1381018633
 20
2328.7074572158
 30
0.0
 11
715.1381018633
 21
2339.8031642936
 31
0.0
  0
LINE
  5
9C
330
1F
100
AcDbEntity
  8
0
  6
HIDDEN
 62
     7
370
    18
100
AcDbLine
 10
462.7020474754
 20
2339.8031642936
 30
0.0
 11
434.6162854123
 21
2339.8031642936
 31
0.0
  0
LINE
  5
9D
330
1F
100
AcDbEntity
  8
0
  6
HIDDEN
 62
     7
370
    18
100
AcDbLine
 10
715.1381018633
 20
2339.8031642936
 30
0.0
 11
681.5741562513
 21
2339.8031642936
 31
0.0
  0
CIRCLE
  5
9E
330
1F
100
AcDbEntity
  8
0
  6
HIDDEN
 62
     7
370
    18
100
AcDbCircle
 10
572.1381018633
 20
2501.8031642936
 30
0.0
 40
112.4999999999998
  0
CIRCLE
  5
9F
330
1F
100
AcDbEntity
  8
0
  6
HIDDEN
 62
     7
370
    18
100
AcDbCircle
 10
1972.1381018633
 20
3151.8031642936
 30
0.0
 40
225.0000000000006
  0
LINE
  5
A0
330
1F
100
AcDbEntity
  8
0
  6
HIDDEN
 62
     7
370
    18
100
AcDbLine
 10
337.1381018633
 20
1971.8031642936
 30
0.0
 11
337.1381018633
 21
2036.8031642936
 31
0.0
  0
LINE
  5
A1
330
1F
100
AcDbEntity
  8
0
  6
HIDDEN
 62
     7
370
    18
100
AcDbLine
 10
2567.1381018633
 20
1971.8031642936
 30
0.0
 11
2567.1381018633
 21
2036.8031642936
 31
0.0
  0
LINE
  5
A2
330
1F
100
AcDbEntity
  8
0
  6
HIDDEN
 62
     7
370
    18
100
AcDbLine
 10
2567.1381018633
 20
2266.8031642936
 30
0.0
 11
2567.1381018633
 21
2141.8031642936
 31
0.0
  0
LINE
  5
A3
330
1F
100
AcDbEntity
  8
0
  6
HIDDEN
 62
     7
370
    18
100
AcDbLine
 10
337.1381018633
 20
2266.8031642936
 30
0.0
 11
337.1381018633
 21
2141.8031642936
 31
0.0
  0
ARC
  5
A4
330
1F
100
AcDbEntity
  8
0
  6
HIDDEN
 62
     7
370
    18
100
AcDbCircle
 10
1890.1381018633
 20
3233.8031642936
 30
0.0
 40
1052.6
100
AcDbArc
 50
197.3830184696
 51
224.8789722705
  0
ARC
  5
A5
330
1F
100
AcDbEntity
  8
0
  6
HIDDEN
 62
     7
370
    18
100
AcDbCircle
 10
1890.1381018633
 20
3233.8031642936
 30
0.0
 40
1052.6
100
AcDbArc
 50
246.7335096233
 51
270.0
  0
ARC
  5
A6
330
1F
100
AcDbEntity
  8
0
  6
HIDDEN
 62
     7
370
    18
100
AcDbCircle
 10
1890.1381018633
 20
3069.8031642936
 30
0.0
 40
888.6000000000006
100
AcDbArc
 50
270.0
 51
295.3554290549
  0
LINE
  5
A7
330
1F
100
AcDbEntity
  8
0
  6
HIDDEN
 62
     7
370
    18
100
AcDbLine
 10
774.1381018633
 20
3911.8031642936
 30
0.0
 11
843.3365911376
 21
3139.9543649279
 31
0.0
  0
ARC
  5
A8
330
1F
100
AcDbEntity
  8
0
  6
HIDDEN
 62
     7
370
    18
100
AcDbCircle
 10
2040.6381018633
 20
3083.3031642936
 30
0.0
 40
736.5000000000005
100
AcDbArc
 50
0.0
 51
90.0
  0
LINE
  5
A9
330
1F
100
AcDbEntity
  8
0
  6
HIDDEN
 62
     7
370
    18
100
AcDbLine
 10
2040.6381018633
 20
3819.8031642936
 30
0.0
 11
1924.1381018633
 21
3819.8031642936
 31
0.0
  0
LINE
  5
AA
330
1F
100
AcDbEntity
  8
0
  6
HIDDEN
 62
     7
370
    18
100
AcDbLine
 10
1924.1381018633
 20
3819.8031642936
 30
0.0
 11
1924.1381018633
 21
3911.8031642936
 31
0.0
  0
LINE
  5
AB
330
1F
100
AcDbEntity
  8
0
  6
HIDDEN
 62
     7
370
    18
100
AcDbLine
 10
2777.1381018633
 20
3069.8031642936
 30
0.0
 11
2777.1381018633
 21
3083.3031642936
 31
0.0
  0
ARC
  5
AC
330
1F
100
AcDbEntity
  8
0
  6
HIDDEN
 62
     7
370
    18
100
AcDbCircle
 10
1890.1381018633
 20
3069.8031642936
 30
0.0
 40
887.0000000000009
100
AcDbArc
 50
270.0
 51
0.0
  0
ARC
  5
AD
330
1F
100
AcDbEntity
  8
0
  6
HIDDEN
 62
     7
370
    18
100
AcDbCircle
 10
1890.1381018633
 20
3233.8031642936
 30
0.0
 40
1051.0
100
AcDbArc
 50
185.1230368211
 51
270.0
  0
CIRCLE
  5
AE
330
1F
100
AcDbEntity
  8
0
  6
HIDDEN
 62
     7
370
    18
100
AcDbCircle
 10
1972.1381018633
 20
3151.8031642936
 30
0.0
 40
560.0
  0
CIRCLE
  5
AF
330
1F
100
AcDbEntity
  8
0
  6
HIDDEN
 62
     7
370
    18
100
AcDbCircle
 10
1972.1381018633
 20
3151.8031642936
 30
0.0
 40
610.0
  0
CIRCLE
  5
B0
330
1F
100
AcDbEntity
  8
0
  6
HIDDEN
 62
     7
370
    18
100
AcDbCircle
 10
1972.1381018633
 20
3151.8031642936
 30
0.0
 40
562.2999999999997
  0
CIRCLE
  5
B1
330
1F
100
AcDbEntity
  8
0
  6
HIDDEN
 62
     7
370
    18
100
AcDbCircle
 10
1444.2167362817
 20
3420.7925353892
 30
0.0
 40
6.000000000000455
  0
CIRCLE
  5
B2
330
1F
100
AcDbEntity
  8
0
  6
HIDDEN
 62
     7
370
    18
100
AcDbCircle
 10
1553.1773340103
 20
3570.7639321466
 30
0.0
 40
5.999999999999545
  0
CIRCLE
  5
B3
330
1F
100
AcDbEntity
  8
0
  6
HIDDEN
 62
     7
370
    18
100
AcDbCircle
 10
1703.1487307676
 20
3679.7245298752
 30
0.0
 40
6.000000000000455
  0
CIRCLE
  5
B4
330
1F
100
AcDbEntity
  8
0
  6
HIDDEN
 62
     7
370
    18
100
AcDbCircle
 10
1879.450681327
 20
3737.0085060962
 30
0.0
 40
5.999999999999545
  0
CIRCLE
  5
B5
330
1F
100
AcDbEntity
  8
0
  6
HIDDEN
 62
     7
370
    18
100
AcDbCircle
 10
2064.8255223997
 20
3737.0085060962
 30
0.0
 40
6.000000000000455
  0
CIRCLE
  5
B6
330
1F
100
AcDbEntity
  8
0
  6
HIDDEN
 62
     7
370
    18
100
AcDbCircle
 10
2241.127472959
 20
3679.7245298752
 30
0.0
 40
6.000000000000455
  0
CIRCLE
  5
B7
330
1F
100
AcDbEntity
  8
0
  6
HIDDEN
 62
     7
370
    18
100
AcDbCircle
 10
2391.0988697163
 20
3570.7639321466
 30
0.0
 40
5.999999999999545
  0
CIRCLE
  5
B8
330
1F
100
AcDbEntity
  8
0
  6
HIDDEN
 62
     7
370
    18
100
AcDbCircle
 10
2500.0594674449
 20
3420.7925353892
 30
0.0
 40
5.999999999999545
  0
CIRCLE
  5
B9
330
1F
100
AcDbEntity
  8
0
  6
HIDDEN
 62
     7
370
    18
100
AcDbCircle
 10
2557.3434436659
 20
3244.4905848299
 30
0.0
 40
6.000000000000455
  0
CIRCLE
  5
BA
330
1F
100
AcDbEntity
  8
0
  6
HIDDEN
 62
     7
370
    18
100
AcDbCircle
 10
2557.3434436659
 20
3059.1157437572
 30
0.0
 40
6.0
  0
CIRCLE
  5
BB
330
1F
100
AcDbEntity
  8
0
  6
HIDDEN
 62
     7
370
    18
100
AcDbCircle
 10
2500.0594674449
 20
2882.8137931979
 30
0.0
 40
6.0
  0
CIRCLE
  5
BC
330
1F
100
AcDbEntity
  8
0
  6
HIDDEN
 62
     7
370
    18
100
AcDbCircle
 10
2391.0988697163
 20
2732.8423964405
 30
0.0
 40
6.0
  0
CIRCLE
  5
BD
330
1F
100
AcDbEntity
  8
0
  6
HIDDEN
 62
     7
370
    18
100
AcDbCircle
 10
2241.127472959
 20
2623.881798712
 30
0.0
 40
6.0
  0
CIRCLE
  5
BE
330
1F
100
AcDbEntity
  8
0
  6
HIDDEN
 62
     7
370
    18
100
AcDbCircle
 10
2064.8255223997
 20
2566.5978224909
 30
0.0
 40
6.0
  0
CIRCLE
  5
BF
330
1F
100
AcDbEntity
  8
0
  6
HIDDEN
 62
     7
370
    18
100
AcDbCircle
 10
1879.450681327
 20
2566.5978224909
 30
0.0
 40
6.0
  0
CIRCLE
  5
C0
330
1F
100
AcDbEntity
  8
0
  6
HIDDEN
 62
     7
370
    18
100
AcDbCircle
 10
1703.1487307676
 20
2623.881798712
 30
0.0
 40
6.0
  0
CIRCLE
  5
C1
330
1F
100
AcDbEntity
  8
0
  6
HIDDEN
 62
     7
370
    18
100
AcDbCircle
 10
1553.1773340103
 20
2732.8423964405
 30
0.0
 40
6.0
  0
CIRCLE
  5
C2
330
1F
100
AcDbEntity
  8
0
  6
HIDDEN
 62
     7
370
    18
100
AcDbCircle
 10
1444.2167362817
 20
2882.8137931979
 30
0.0
 40
6.0
  0
CIRCLE
  5
C3
330
1F
100
AcDbEntity
  8
0
  6
HIDDEN
 62
     7
370
    18
100
AcDbCircle
 10
1386.9327600607
 20
3059.1157437572
 30
0.0
 40
6.0
  0
CIRCLE
  5
C4
330
1F
100
AcDbEntity
  8
0
  6
HIDDEN
 62
     7
370
    18
100
AcDbCircle
 10
1386.9327600607
 20
3244.4905848299
 30
0.0
 40
6.000000000000455
  0
LINE
  5
C5
330
1F
100
AcDbEntity
  8
0
  6
HIDDEN
 62
     7
370
    18
100
AcDbLine
 10
1101.1381018633
 20
1971.8031642936
 30
0.0
 11
1101.1381018633
 21
1977.8031642936
 31
0.0
  0
LINE
  5
C6
330
1F
100
AcDbEntity
  8
0
  6
HIDDEN
 62
     7
370
    18
100
AcDbLine
 10
1083.1381018633
 20
1977.8031642936
 30
0.0
 11
1083.1381018633
 21
1971.8031642936
 31
0.0
  0
LINE
  5
C7
330
1F
100
AcDbEntity
  8
0
  6
HIDDEN
 62
     7
370
    18
100
AcDbLine
 10
381.1381018633
 20
1971.8031642936
 30
0.0
 11
381.1381018633
 21
1977.8031642936
 31
0.0
  0
LINE
  5
C8
330
1F
100
AcDbEntity
  8
0
  6
HIDDEN
 62
     7
370
    18
100
AcDbLine
 10
363.1381018633
 20
1977.8031642936
 30
0.0
 11
363.1381018633
 21
1971.8031642936
 31
0.0
  0
LINE
  5
C9
330
1F
100
AcDbEntity
  8
0
  6
HIDDEN
 62
     7
370
    18
100
AcDbLine
 10
1821.1381018633
 20
1971.8031642936
 30
0.0
 11
1821.1381018633
 21
1977.8031642936
 31
0.0
  0
LINE
  5
CA
330
1F
100
AcDbEntity
  8
0
  6
HIDDEN
 62
     7
370
    18
100
AcDbLine
 10
1803.1381018633
 20
1977.8031642936
 30
0.0
 11
1803.1381018633
 21
1971.8031642936
 31
0.0
  0
LINE
  5
CB
330
1F
100
AcDbEntity
  8
0
  6
HIDDEN
 62
     7
370
    18
100
AcDbLine
 10
2541.1381018633
 20
1971.8031642936
 30
0.0
 11
2541.1381018633
 21
1977.8031642936
 31
0.0
  0
LINE
  5
CC
330
1F
100
AcDbEntity
  8
0
  6
HIDDEN
 62
     7
370
    18
100
AcDbLine
 10
2523.1381018633
 20
1977.8031642936
 30
0.0
 11
2523.1381018633
 21
1971.8031642936
 31
0.0
  0
LINE
  5
CD
330
1F
100
AcDbEntity
  8
0
  6
HIDDEN
 62
     7
370
    18
100
AcDbLine
 10
735.1381018633
 20
3911.8031642936
 30
0.0
 11
735.1381018633
 21
3907.8031642936
 31
0.0
  0
LINE
  5
CE
330
1F
100
AcDbEntity
  8
0
  6
HIDDEN
 62
     7
370
    18
100
AcDbLine
 10
747.1381018633
 20
3907.8031642936
 30
0.0
 11
747.1381018633
 21
3911.8031642936
 31
0.0
  0
LINE
  5
CF
330
1F
100
AcDbEntity
  8
0
  6
HIDDEN
 62
     7
370
    18
100
AcDbLine
 10
1243.1381018633
 20
3911.8031642936
 30
0.0
 11
1243.1381018633
 21
3907.8031642936
 31
0.0
  0
LINE
  5
D0
330
1F
100
AcDbEntity
  8
0
  6
HIDDEN
 62
     7
370
    18
100
AcDbLine
 10
1255.1381018633
 20
3907.8031642936
 30
0.0
 11
1255.1381018633
 21
3911.8031642936
 31
0.0
  0
LINE
  5
D1
330
1F
100
AcDbEntity
  8
0
  6
HIDDEN
 62
     7
370
    18
100
AcDbLine
 10
1951.1381018633
 20
3911.8031642936
 30
0.0
 11
1951.1381018633
 21
3907.8031642936
 31
0.0
  0
LINE
  5
D2
330
1F
100
AcDbEntity
  8
0
  6
HIDDEN
 62
     7
370
    18
100
AcDbLine
 10
1963.1381018633
 20
3907.8031642936
 30
0.0
 11
1963.1381018633
 21
3911.8031642936
 31
0.0
  0
LINE
  5
D3
330
1F
100
AcDbEntity
  8
0
  6
HIDDEN
 62
     7
370
    18
100
AcDbLine
 10
843.1381018633
 20
3911.8031642936
 30
0.0
 11
843.1381018633
 21
3907.8031642936
 31
0.0
  0
LINE
  5
D4
330
1F
100
AcDbEntity
  8
0
  6
HIDDEN
 62
     7
370
    18
100
AcDbLine
 10
855.1381018633
 20
3907.8031642936
 30
0.0
 11
855.1381018633
 21
3911.8031642936
 31
0.0
  0
LINE
  5
D5
330
1F
100
AcDbEntity
  8
0
  6
HIDDEN
 62
     7
370
    18
100
AcDbLine
 10
1643.1381018633
 20
3911.8031642936
 30
0.0
 11
1643.1381018633
 21
3907.8031642936
 31
0.0
  0
LINE
  5
D6
330
1F
100
AcDbEntity
  8
0
  6
HIDDEN
 62
     7
370
    18
100
AcDbLine
 10
1655.1381018633
 20
3907.8031642936
 30
0.0
 11
1655.1381018633
 21
3911.8031642936
 31
0.0
  0
LINE
  5
D7
330
1F
100
AcDbEntity
  8
0
  6
HIDDEN
 62
     7
370
    18
100
AcDbLine
 10
1843.1381018633
 20
3911.8031642936
 30
0.0
 11
1843.1381018633
 21
3907.8031642936
 31
0.0
  0
LINE
  5
D8
330
1F
100
AcDbEntity
  8
0
  6
HIDDEN
 62
     7
370
    18
100
AcDbLine
 10
1855.1381018633
 20
3907.8031642936
 30
0.0
 11
1855.1381018633
 21
3911.8031642936
 31
0.0
  0
LINE
  5
D9
330
1F
100
AcDbEntity
  8
0
  6
HIDDEN
 62
     7
370
    18
100
AcDbLine
 10
1443.1381018633
 20
3911.8031642936
 30
0.0
 11
1443.1381018633
 21
3907.8031642936
 31
0.0
  0
LINE
  5
DA
330
1F
100
AcDbEntity
  8
0
  6
HIDDEN
 62
     7
370
    18
100
AcDbLine
 10
1455.1381018633
 20
3907.8031642936
 30
0.0
 11
1455.1381018633
 21
3911.8031642936
 31
0.0
  0
LINE
  5
DB
330
1F
100
AcDbEntity
  8
0
  6
HIDDEN
 62
     7
370
    18
100
AcDbLine
 10
1043.1381018633
 20
3911.8031642936
 30
0.0
 11
1043.1381018633
 21
3907.8031642936
 31
0.0
  0
LINE
  5
DC
330
1F
100
AcDbEntity
  8
0
  6
HIDDEN
 62
     7
370
    18
100
AcDbLine
 10
1055.1381018633
 20
3907.8031642936
 30
0.0
 11
1055.1381018633
 21
3911.8031642936
 31
0.0
  0
INSERT
  5
E8
330
1F
100
AcDbEntity
  8
2
100
AcDbBlockReference
  2
SW_CENTERMARKSYMBOL_0
 10
1972.1381018633
 20
3151.8031642936
 30
0.0
  0
LINE
  5
E9
330
1F
100
AcDbEntity
  8
1
100
AcDbLine
 10
3531.863764984
 20
3476.8031642936
 30
0.0
 11
3371.863764984
 21
3476.8031642936
 31
0.0
  0
LINE
  5
EA
330
1F
100
AcDbEntity
  8
1
100
AcDbLine
 10
3371.863764984
 20
2289.3031642936
 30
0.0
 11
3531.863764984
 21
2289.3031642936
 31
0.0
  0
LINE
  5
EB
330
1F
100
AcDbEntity
  8
1
100
AcDbLine
 10
3804.563764984
 20
2697.3031642936
 30
0.0
 11
3599.363764984
 21
2697.3031642936
 31
0.0
  0
LINE
  5
EC
330
1F
100
AcDbEntity
  8
1
100
AcDbLine
 10
3531.863764984
 20
2477.8031642936
 30
0.0
 11
3599.363764984
 21
2477.8031642936
 31
0.0
  0
LINE
  5
ED
330
1F
100
AcDbEntity
  8
1
100
AcDbLine
 10
3599.363764984
 20
2525.8031642936
 30
0.0
 11
3531.863764984
 21
2525.8031642936
 31
0.0
  0
LINE
  5
EE
330
1F
100
AcDbEntity
  8
1
100
AcDbLine
 10
4674.863764984
 20
2141.8031642936
 30
0.0
 11
4674.863764984
 21
2036.8031642936
 31
0.0
  0
LINE
  5
EF
330
1F
100
AcDbEntity
  8
1
100
AcDbLine
 10
4709.863764984
 20
2036.8031642936
 30
0.0
 11
4709.863764984
 21
2141.8031642936
 31
0.0
  0
LINE
  5
F0
330
1F
100
AcDbEntity
  8
1
100
AcDbLine
 10
3559.863764984
 20
2141.8031642936
 30
0.0
 11
3559.863764984
 21
2036.8031642936
 31
0.0
  0
LINE
  5
F1
330
1F
100
AcDbEntity
  8
1
100
AcDbLine
 10
3594.863764984
 20
2036.8031642936
 30
0.0
 11
3594.863764984
 21
2141.8031642936
 31
0.0
  0
LINE
  5
F2
330
1F
100
AcDbEntity
  8
1
100
AcDbLine
 10
4759.863764984
 20
3761.8031642936
 30
0.0
 11
4757.563764984
 21
3761.8031642936
 31
0.0
  0
LINE
  5
F3
330
1F
100
AcDbEntity
  8
1
100
AcDbLine
 10
4757.563764984
 20
2541.8031642936
 30
0.0
 11
4759.863764984
 21
2541.8031642936
 31
0.0
  0
LINE
  5
F4
330
1F
100
AcDbEntity
  8
1
100
AcDbLine
 10
4659.163764984
 20
2541.8031642936
 30
0.0
 11
4666.863764984
 21
2541.8031642936
 31
0.0
  0
LINE
  5
F5
330
1F
100
AcDbEntity
  8
1
100
AcDbLine
 10
4666.863764984
 20
3761.8031642936
 30
0.0
 11
4659.163764984
 21
3761.8031642936
 31
0.0
  0
LINE
  5
F6
330
1F
100
AcDbEntity
  8
1
100
AcDbLine
 10
4757.563764984
 20
3714.1031642936
 30
0.0
 11
4666.863764984
 21
3714.1031642936
 31
0.0
  0
LINE
  5
F7
330
1F
100
AcDbEntity
  8
1
100
AcDbLine
 10
4666.863764984
 20
2589.5031642936
 30
0.0
 11
4757.563764984
 21
2589.5031642936
 31
0.0
  0
LINE
  5
F8
330
1F
100
AcDbEntity
  8
1
100
AcDbLine
 10
3371.863764984
 20
2847.8341691509
 30
0.0
 11
3371.863764984
 21
3476.8031642936
 31
0.0
  0
LINE
  5
F9
330
1F
100
AcDbEntity
  8
1
100
AcDbLine
 10
3531.863764984
 20
2847.8341691509
 30
0.0
 11
3531.863764984
 21
3476.8031642936
 31
0.0
  0
LINE
  5
FA
330
1F
100
AcDbEntity
  8
1
100
AcDbLine
 10
3371.863764984
 20
2303.0542059311
 30
0.0
 11
3371.863764984
 21
2847.8341691509
 31
0.0
  0
LINE
  5
FB
330
1F
100
AcDbEntity
  8
1
100
AcDbLine
 10
3531.863764984
 20
2303.0542059311
 30
0.0
 11
3531.863764984
 21
2847.8341691509
 31
0.0
  0
LINE
  5
FC
330
1F
100
AcDbEntity
  8
1
100
AcDbLine
 10
3371.863764984
 20
2289.3031642936
 30
0.0
 11
3371.863764984
 21
2303.0542059311
 31
0.0
  0
LINE
  5
FD
330
1F
100
AcDbEntity
  8
1
100
AcDbLine
 10
3531.863764984
 20
2289.3031642936
 30
0.0
 11
3531.863764984
 21
2303.0542059311
 31
0.0
  0
LINE
  5
FE
330
1F
100
AcDbEntity
  8
1
100
AcDbLine
 10
3635.863764984
 20
2266.8031642936
 30
0.0
 11
3635.863764984
 21
2321.8031642936
 31
0.0
  0
LINE
  5
FF
330
1F
100
AcDbEntity
  8
1
100
AcDbLine
 10
3804.563764984
 20
2321.8031642936
 30
0.0
 11
3635.863764984
 21
2321.8031642936
 31
0.0
  0
LINE
  5
100
330
1F
100
AcDbEntity
  8
1
100
AcDbLine
 10
3678.863764984
 20
2330.8031642936
 30
0.0
 11
3599.363764984
 21
2330.8031642936
 31
0.0
  0
LINE
  5
101
330
1F
100
AcDbEntity
  8
1
100
AcDbLine
 10
3599.363764984
 20
2697.3031642936
 30
0.0
 11
3599.363764984
 21
2330.8031642936
 31
0.0
  0
LINE
  5
102
330
1F
100
AcDbEntity
  8
1
100
AcDbLine
 10
3678.863764984
 20
2321.8031642936
 30
0.0
 11
3678.863764984
 21
2339.8031642936
 31
0.0
  0
LINE
  5
103
330
1F
100
AcDbEntity
  8
1
100
AcDbLine
 10
3678.863764984
 20
2339.8031642936
 30
0.0
 11
3804.563764984
 21
2339.8031642936
 31
0.0
  0
LINE
  5
104
330
1F
100
AcDbEntity
  8
1
100
AcDbLine
 10
4724.863764984
 20
1971.8031642936
 30
0.0
 11
3544.863764984
 21
1971.8031642936
 31
0.0
  0
LINE
  5
105
330
1F
100
AcDbEntity
  8
1
100
AcDbLine
 10
3544.863764984
 20
1971.8031642936
 30
0.0
 11
3544.863764984
 21
1977.8031642936
 31
0.0
  0
LINE
  5
106
330
1F
100
AcDbEntity
  8
1
100
AcDbLine
 10
4724.863764984
 20
1977.8031642936
 30
0.0
 11
3544.863764984
 21
1977.8031642936
 31
0.0
  0
LINE
  5
107
330
1F
100
AcDbEntity
  8
1
100
AcDbLine
 10
4724.863764984
 20
1971.8031642936
 30
0.0
 11
4724.863764984
 21
1977.8031642936
 31
0.0
  0
LINE
  5
108
330
1F
100
AcDbEntity
  8
1
100
AcDbLine
 10
4724.863764984
 20
2030.8031642936
 30
0.0
 11
4724.863764984
 21
2036.8031642936
 31
0.0
  0
LINE
  5
109
330
1F
100
AcDbEntity
  8
1
100
AcDbLine
 10
3544.863764984
 20
2030.8031642936
 30
0.0
 11
3544.863764984
 21
2036.8031642936
 31
0.0
  0
LINE
  5
10A
330
1F
100
AcDbEntity
  8
1
100
AcDbLine
 10
3544.863764984
 20
2030.8031642936
 30
0.0
 11
4724.863764984
 21
2030.8031642936
 31
0.0
  0
LINE
  5
10B
330
1F
100
AcDbEntity
  8
1
100
AcDbLine
 10
3544.863764984
 20
2036.8031642936
 30
0.0
 11
4724.863764984
 21
2036.8031642936
 31
0.0
  0
LINE
  5
10C
330
1F
100
AcDbEntity
  8
1
100
AcDbLine
 10
3603.863764984
 20
1977.8031642936
 30
0.0
 11
3603.863764984
 21
2030.8031642936
 31
0.0
  0
LINE
  5
10D
330
1F
100
AcDbEntity
  8
1
100
AcDbLine
 10
4665.863764984
 20
1977.8031642936
 30
0.0
 11
4665.863764984
 21
2030.8031642936
 31
0.0
  0
LINE
  5
10E
330
1F
100
AcDbEntity
  8
1
100
AcDbLine
 10
3544.863764984
 20
2266.8031642936
 30
0.0
 11
4724.863764984
 21
2266.8031642936
 31
0.0
  0
LINE
  5
10F
330
1F
100
AcDbEntity
  8
1
100
AcDbLine
 10
4724.863764984
 20
2266.8031642936
 30
0.0
 11
4724.863764984
 21
2260.8031642936
 31
0.0
  0
LINE
  5
110
330
1F
100
AcDbEntity
  8
1
100
AcDbLine
 10
3544.863764984
 20
2260.8031642936
 30
0.0
 11
4724.863764984
 21
2260.8031642936
 31
0.0
  0
LINE
  5
111
330
1F
100
AcDbEntity
  8
1
100
AcDbLine
 10
3544.863764984
 20
2266.8031642936
 30
0.0
 11
3544.863764984
 21
2260.8031642936
 31
0.0
  0
LINE
  5
112
330
1F
100
AcDbEntity
  8
1
100
AcDbLine
 10
4724.863764984
 20
2147.8031642936
 30
0.0
 11
4724.863764984
 21
2141.8031642936
 31
0.0
  0
LINE
  5
113
330
1F
100
AcDbEntity
  8
1
100
AcDbLine
 10
3544.863764984
 20
2141.8031642936
 30
0.0
 11
4724.863764984
 21
2141.8031642936
 31
0.0
  0
LINE
  5
114
330
1F
100
AcDbEntity
  8
1
100
AcDbLine
 10
3544.863764984
 20
2147.8031642936
 30
0.0
 11
3544.863764984
 21
2141.8031642936
 31
0.0
  0
LINE
  5
115
330
1F
100
AcDbEntity
  8
1
100
AcDbLine
 10
3544.863764984
 20
2147.8031642936
 30
0.0
 11
4724.863764984
 21
2147.8031642936
 31
0.0
  0
LINE
  5
116
330
1F
100
AcDbEntity
  8
1
100
AcDbLine
 10
3603.863764984
 20
2260.8031642936
 30
0.0
 11
3603.863764984
 21
2147.8031642936
 31
0.0
  0
LINE
  5
117
330
1F
100
AcDbEntity
  8
1
100
AcDbLine
 10
4665.863764984
 20
2260.8031642936
 30
0.0
 11
4665.863764984
 21
2147.8031642936
 31
0.0
  0
LINE
  5
118
330
1F
100
AcDbEntity
  8
1
100
AcDbLine
 10
3804.563764984
 20
2266.8031642936
 30
0.0
 11
3804.563764984
 21
3069.8031642936
 31
0.0
  0
LINE
  5
119
330
1F
100
AcDbEntity
  8
1
100
AcDbLine
 10
4659.163764984
 20
2266.8031642936
 30
0.0
 11
4659.163764984
 21
3069.8031642936
 31
0.0
  0
LINE
  5
11A
330
1F
100
AcDbEntity
  8
1
100
AcDbLine
 10
3804.563764984
 20
3083.3031642936
 30
0.0
 11
3804.563764984
 21
3821.4031642936
 31
0.0
  0
LINE
  5
11B
330
1F
100
AcDbEntity
  8
1
100
AcDbLine
 10
3804.563764984
 20
3821.4031642936
 30
0.0
 11
4659.163764984
 21
3821.4031642936
 31
0.0
  0
LINE
  5
11C
330
1F
100
AcDbEntity
  8
1
100
AcDbLine
 10
4659.163764984
 20
3083.3031642936
 30
0.0
 11
4659.163764984
 21
3821.4031642936
 31
0.0
  0
LINE
  5
11D
330
1F
100
AcDbEntity
  8
1
100
AcDbLine
 10
3804.563764984
 20
3069.8031642936
 30
0.0
 11
3804.563764984
 21
3083.3031642936
 31
0.0
  0
LINE
  5
11E
330
1F
100
AcDbEntity
  8
1
100
AcDbLine
 10
4659.163764984
 20
3069.8031642936
 30
0.0
 11
4659.163764984
 21
3083.3031642936
 31
0.0
  0
LINE
  5
11F
330
1F
100
AcDbEntity
  8
1
100
AcDbLine
 10
4757.563764984
 20
3761.8031642936
 30
0.0
 11
4757.563764984
 21
2541.8031642936
 31
0.0
  0
LINE
  5
120
330
1F
100
AcDbEntity
  8
1
100
AcDbLine
 10
4759.863764984
 20
3761.8031642936
 30
0.0
 11
4759.863764984
 21
2541.8031642936
 31
0.0
  0
LINE
  5
121
330
1F
100
AcDbEntity
  8
1
100
AcDbLine
 10
4666.863764984
 20
2541.8031642936
 30
0.0
 11
4666.863764984
 21
3761.8031642936
 31
0.0
  0
LINE
  5
122
330
1F
100
AcDbEntity
  8
1
100
AcDbLine
 10
3753.863764984
 20
3907.8031642936
 30
0.0
 11
3753.863764984
 21
3911.8031642936
 31
0.0
  0
LINE
  5
123
330
1F
100
AcDbEntity
  8
1
100
AcDbLine
 10
4709.863764984
 20
3907.8031642936
 30
0.0
 11
4709.863764984
 21
3911.8031642936
 31
0.0
  0
LINE
  5
124
330
1F
100
AcDbEntity
  8
1
100
AcDbLine
 10
3753.863764984
 20
3907.8031642936
 30
0.0
 11
4709.863764984
 21
3907.8031642936
 31
0.0
  0
LINE
  5
125
330
1F
100
AcDbEntity
  8
1
100
AcDbLine
 10
3753.863764984
 20
3911.8031642936
 30
0.0
 11
4709.863764984
 21
3911.8031642936
 31
0.0
  0
LINE
  5
126
330
1F
100
AcDbEntity
  8
1
100
AcDbLine
 10
3804.563764984
 20
3821.4031642936
 30
0.0
 11
3804.563764984
 21
3907.8031642936
 31
0.0
  0
LINE
  5
127
330
1F
100
AcDbEntity
  8
1
100
AcDbLine
 10
4659.163764984
 20
3821.4031642936
 30
0.0
 11
4659.163764984
 21
3907.8031642936
 31
0.0
  0
LINE
  5
128
330
1F
100
AcDbEntity
  8
0
  6
HIDDEN
 62
     7
370
    18
100
AcDbLine
 10
4045.863764984
 20
2321.8031642936
 30
0.0
 11
3804.563764984
 21
2321.8031642936
 31
0.0
  0
LINE
  5
129
330
1F
100
AcDbEntity
  8
0
  6
HIDDEN
 62
     7
370
    18
100
AcDbLine
 10
4045.863764984
 20
2266.8031642936
 30
0.0
 11
4045.863764984
 21
2321.8031642936
 31
0.0
  0
LINE
  5
12A
330
1F
100
AcDbEntity
  8
0
  6
HIDDEN
 62
     7
370
    18
100
AcDbLine
 10
4154.363764984
 20
2330.8031642936
 30
0.0
 11
4002.863764984
 21
2330.8031642936
 31
0.0
  0
LINE
  5
12B
330
1F
100
AcDbEntity
  8
0
  6
HIDDEN
 62
     7
370
    18
100
AcDbLine
 10
4154.363764984
 20
2330.8031642936
 30
0.0
 11
4154.363764984
 21
2697.3031642936
 31
0.0
  0
LINE
  5
12C
330
1F
100
AcDbEntity
  8
0
  6
HIDDEN
 62
     7
370
    18
100
AcDbLine
 10
4002.863764984
 20
2321.8031642936
 30
0.0
 11
4002.863764984
 21
2339.8031642936
 31
0.0
  0
LINE
  5
12D
330
1F
100
AcDbEntity
  8
0
  6
HIDDEN
 62
     7
370
    18
100
AcDbLine
 10
3804.563764984
 20
2339.8031642936
 30
0.0
 11
4002.863764984
 21
2339.8031642936
 31
0.0
  0
LINE
  5
12E
330
1F
100
AcDbEntity
  8
0
  6
HIDDEN
 62
     7
370
    18
100
AcDbLine
 10
3489.363764984
 20
2389.6622222897
 30
0.0
 11
3489.363764984
 21
2389.3031642936
 31
0.0
  0
LINE
  5
12F
330
1F
100
AcDbEntity
  8
0
  6
HIDDEN
 62
     7
370
    18
100
AcDbLine
 10
3489.363764984
 20
2614.3031642936
 30
0.0
 11
3489.363764984
 21
2389.6622222897
 31
0.0
  0
LINE
  5
130
330
1F
100
AcDbEntity
  8
0
  6
HIDDEN
 62
     7
370
    18
100
AcDbLine
 10
3414.363764984
 20
2389.6622222897
 30
0.0
 11
3414.363764984
 21
2389.3031642936
 31
0.0
  0
LINE
  5
131
330
1F
100
AcDbEntity
  8
0
  6
HIDDEN
 62
     7
370
    18
100
AcDbLine
 10
3414.363764984
 20
2614.3031642936
 30
0.0
 11
3414.363764984
 21
2389.6622222897
 31
0.0
  0
LINE
  5
132
330
1F
100
AcDbEntity
  8
0
  6
HIDDEN
 62
     7
370
    18
100
AcDbLine
 10
3414.363764984
 20
3376.8031642936
 30
0.0
 11
3414.363764984
 21
2926.8031642936
 31
0.0
  0
LINE
  5
133
330
1F
100
AcDbEntity
  8
0
  6
HIDDEN
 62
     7
370
    18
100
AcDbLine
 10
3489.363764984
 20
3376.8031642936
 30
0.0
 11
3489.363764984
 21
2926.8031642936
 31
0.0
  0
LINE
  5
134
330
1F
100
AcDbEntity
  8
0
  6
HIDDEN
 62
     7
370
    18
100
AcDbLine
 10
4659.863764984
 20
1971.8031642936
 30
0.0
 11
4659.863764984
 21
2036.8031642936
 31
0.0
  0
LINE
  5
135
330
1F
100
AcDbEntity
  8
0
  6
HIDDEN
 62
     7
370
    18
100
AcDbLine
 10
3609.863764984
 20
1971.8031642936
 30
0.0
 11
3609.863764984
 21
2036.8031642936
 31
0.0
  0
LINE
  5
136
330
1F
100
AcDbEntity
  8
0
  6
HIDDEN
 62
     7
370
    18
100
AcDbLine
 10
4659.863764984
 20
2266.8031642936
 30
0.0
 11
4659.863764984
 21
2141.8031642936
 31
0.0
  0
LINE
  5
137
330
1F
100
AcDbEntity
  8
0
  6
HIDDEN
 62
     7
370
    18
100
AcDbLine
 10
3609.863764984
 20
2266.8031642936
 30
0.0
 11
3609.863764984
 21
2141.8031642936
 31
0.0
  0
LINE
  5
138
330
1F
100
AcDbEntity
  8
0
  6
HIDDEN
 62
     7
370
    18
100
AcDbLine
 10
3804.563764984
 20
2181.2031642936
 30
0.0
 11
4659.163764984
 21
2181.2031642936
 31
0.0
  0
LINE
  5
139
330
1F
100
AcDbEntity
  8
0
  6
HIDDEN
 62
     7
370
    18
100
AcDbLine
 10
3804.563764984
 20
2181.2031642936
 30
0.0
 11
3804.563764984
 21
2266.8031642936
 31
0.0
  0
LINE
  5
13A
330
1F
100
AcDbEntity
  8
0
  6
HIDDEN
 62
     7
370
    18
100
AcDbLine
 10
4659.163764984
 20
2181.2031642936
 30
0.0
 11
4659.163764984
 21
2266.8031642936
 31
0.0
  0
LINE
  5
13B
330
1F
100
AcDbEntity
  8
0
  6
HIDDEN
 62
     7
370
    18
100
AcDbLine
 10
3806.863764984
 20
2182.8031642936
 30
0.0
 11
3806.863764984
 21
3069.8031642936
 31
0.0
  0
LINE
  5
13C
330
1F
100
AcDbEntity
  8
0
  6
HIDDEN
 62
     7
370
    18
100
AcDbLine
 10
3806.863764984
 20
2182.8031642936
 30
0.0
 11
4656.863764984
 21
2182.8031642936
 31
0.0
  0
LINE
  5
13D
330
1F
100
AcDbEntity
  8
0
  6
HIDDEN
 62
     7
370
    18
100
AcDbLine
 10
4656.863764984
 20
2182.8031642936
 30
0.0
 11
4656.863764984
 21
3069.8031642936
 31
0.0
  0
LINE
  5
13E
330
1F
100
AcDbEntity
  8
0
  6
HIDDEN
 62
     7
370
    18
100
AcDbLine
 10
4656.863764984
 20
3069.8031642936
 30
0.0
 11
4656.863764984
 21
3083.3031642936
 31
0.0
  0
LINE
  5
13F
330
1F
100
AcDbEntity
  8
0
  6
HIDDEN
 62
     7
370
    18
100
AcDbLine
 10
3806.863764984
 20
3819.8031642936
 30
0.0
 11
4656.863764984
 21
3819.8031642936
 31
0.0
  0
LINE
  5
140
330
1F
100
AcDbEntity
  8
0
  6
HIDDEN
 62
     7
370
    18
100
AcDbLine
 10
3806.863764984
 20
3083.3031642936
 30
0.0
 11
3806.863764984
 21
3819.8031642936
 31
0.0
  0
LINE
  5
141
330
1F
100
AcDbEntity
  8
0
  6
HIDDEN
 62
     7
370
    18
100
AcDbLine
 10
4656.863764984
 20
3083.3031642936
 30
0.0
 11
4656.863764984
 21
3819.8031642936
 31
0.0
  0
LINE
  5
142
330
1F
100
AcDbEntity
  8
0
  6
HIDDEN
 62
     7
370
    18
100
AcDbLine
 10
3806.863764984
 20
3069.8031642936
 30
0.0
 11
3806.863764984
 21
3083.3031642936
 31
0.0
  0
LINE
  5
143
330
1F
100
AcDbEntity
  8
0
  6
HIDDEN
 62
     7
370
    18
100
AcDbLine
 10
3806.863764984
 20
3819.8031642936
 30
0.0
 11
3806.863764984
 21
3911.8031642936
 31
0.0
  0
LINE
  5
144
330
1F
100
AcDbEntity
  8
0
  6
HIDDEN
 62
     7
370
    18
100
AcDbLine
 10
4656.863764984
 20
3819.8031642936
 30
0.0
 11
4656.863764984
 21
3911.8031642936
 31
0.0
  0
LINE
  5
145
330
1F
100
AcDbEntity
  8
0
  6
HIDDEN
 62
     7
370
    18
100
AcDbLine
 10
4154.363764984
 20
2697.3031642936
 30
0.0
 11
3804.563764984
 21
2697.3031642936
 31
0.0
  0
LINE
  5
146
330
1F
100
AcDbEntity
  8
0
  6
HIDDEN
 62
     7
370
    18
100
AcDbLine
 10
3489.363764984
 20
2477.8031642936
 30
0.0
 11
3531.863764984
 21
2477.8031642936
 31
0.0
  0
LINE
  5
147
330
1F
100
AcDbEntity
  8
0
  6
HIDDEN
 62
     7
370
    18
100
AcDbLine
 10
3531.863764984
 20
2525.8031642936
 30
0.0
 11
3489.363764984
 21
2525.8031642936
 31
0.0
  0
LINE
  5
148
330
1F
100
AcDbEntity
  8
0
  6
HIDDEN
 62
     7
370
    18
100
AcDbLine
 10
3414.363764984
 20
2389.3031642936
 30
0.0
 11
3489.363764984
 21
2389.3031642936
 31
0.0
  0
LINE
  5
149
330
1F
100
AcDbEntity
  8
0
  6
HIDDEN
 62
     7
370
    18
100
AcDbLine
 10
3489.363764984
 20
2614.3031642936
 30
0.0
 11
3414.363764984
 21
2614.3031642936
 31
0.0
  0
LINE
  5
14A
330
1F
100
AcDbEntity
  8
0
  6
HIDDEN
 62
     7
370
    18
100
AcDbLine
 10
3414.363764984
 20
2926.8031642936
 30
0.0
 11
3489.363764984
 21
2926.8031642936
 31
0.0
  0
LINE
  5
14B
330
1F
100
AcDbEntity
  8
0
  6
HIDDEN
 62
     7
370
    18
100
AcDbLine
 10
3489.363764984
 20
3376.8031642936
 30
0.0
 11
3414.363764984
 21
3376.8031642936
 31
0.0
  0
LINE
  5
14C
330
1F
100
AcDbEntity
  8
0
  6
HIDDEN
 62
     7
370
    18
100
AcDbLine
 10
4703.863764984
 20
1971.8031642936
 30
0.0
 11
4703.863764984
 21
1977.8031642936
 31
0.0
  0
LINE
  5
14D
330
1F
100
AcDbEntity
  8
0
  6
HIDDEN
 62
     7
370
    18
100
AcDbLine
 10
4685.863764984
 20
1977.8031642936
 30
0.0
 11
4685.863764984
 21
1971.8031642936
 31
0.0
  0
LINE
  5
14E
330
1F
100
AcDbEntity
  8
0
  6
HIDDEN
 62
     7
370
    18
100
AcDbLine
 10
3583.863764984
 20
1971.8031642936
 30
0.0
 11
3583.863764984
 21
1977.8031642936
 31
0.0
  0
LINE
  5
14F
330
1F
100
AcDbEntity
  8
0
  6
HIDDEN
 62
     7
370
    18
100
AcDbLine
 10
3565.863764984
 20
1977.8031642936
 30
0.0
 11
3565.863764984
 21
1971.8031642936
 31
0.0
  0
LINE
  5
150
330
1F
100
AcDbEntity
  8
0
  6
HIDDEN
 62
     7
370
    18
100
AcDbLine
 10
4759.863764984
 20
3065.1157437572
 30
0.0
 11
4757.563764984
 21
3065.1157437572
 31
0.0
  0
LINE
  5
151
330
1F
100
AcDbEntity
  8
0
  6
HIDDEN
 62
     7
370
    18
100
AcDbLine
 10
4757.563764984
 20
3053.1157437572
 30
0.0
 11
4759.863764984
 21
3053.1157437572
 31
0.0
  0
LINE
  5
152
330
1F
100
AcDbEntity
  8
0
  6
HIDDEN
 62
     7
370
    18
100
AcDbLine
 10
4759.863764984
 20
3250.4905848299
 30
0.0
 11
4757.563764984
 21
3250.4905848299
 31
0.0
  0
LINE
  5
153
330
1F
100
AcDbEntity
  8
0
  6
HIDDEN
 62
     7
370
    18
100
AcDbLine
 10
4757.563764984
 20
3238.4905848299
 30
0.0
 11
4759.863764984
 21
3238.4905848299
 31
0.0
  0
LINE
  5
154
330
1F
100
AcDbEntity
  8
0
  6
HIDDEN
 62
     7
370
    18
100
AcDbLine
 10
4656.863764984
 20
2591.8031642936
 30
0.0
 11
4759.863764984
 21
2591.8031642936
 31
0.0
  0
LINE
  5
155
330
1F
100
AcDbEntity
  8
0
  6
HIDDEN
 62
     7
370
    18
100
AcDbLine
 10
4759.863764984
 20
3711.8031642936
 30
0.0
 11
4656.863764984
 21
3711.8031642936
 31
0.0
  0
LINE
  5
156
330
1F
100
AcDbEntity
  8
0
  6
HIDDEN
 62
     7
370
    18
100
AcDbLine
 10
4759.863764984
 20
3426.7925353892
 30
0.0
 11
4757.563764984
 21
3426.7925353892
 31
0.0
  0
LINE
  5
157
330
1F
100
AcDbEntity
  8
0
  6
HIDDEN
 62
     7
370
    18
100
AcDbLine
 10
4757.563764984
 20
3414.7925353892
 30
0.0
 11
4759.863764984
 21
3414.7925353892
 31
0.0
  0
LINE
  5
158
330
1F
100
AcDbEntity
  8
0
  6
HIDDEN
 62
     7
370
    18
100
AcDbLine
 10
4759.863764984
 20
2888.8137931979
 30
0.0
 11
4757.563764984
 21
2888.8137931979
 31
0.0
  0
LINE
  5
159
330
1F
100
AcDbEntity
  8
0
  6
HIDDEN
 62
     7
370
    18
100
AcDbLine
 10
4757.563764984
 20
2876.8137931979
 30
0.0
 11
4759.863764984
 21
2876.8137931979
 31
0.0
  0
LINE
  5
15A
330
1F
100
AcDbEntity
  8
0
  6
HIDDEN
 62
     7
370
    18
100
AcDbLine
 10
4759.863764984
 20
2738.8423964405
 30
0.0
 11
4757.563764984
 21
2738.8423964405
 31
0.0
  0
LINE
  5
15B
330
1F
100
AcDbEntity
  8
0
  6
HIDDEN
 62
     7
370
    18
100
AcDbLine
 10
4757.563764984
 20
2726.8423964405
 30
0.0
 11
4759.863764984
 21
2726.8423964405
 31
0.0
  0
LINE
  5
15C
330
1F
100
AcDbEntity
  8
0
  6
HIDDEN
 62
     7
370
    18
100
AcDbLine
 10
4759.863764984
 20
3576.7639321466
 30
0.0
 11
4757.563764984
 21
3576.7639321466
 31
0.0
  0
LINE
  5
15D
330
1F
100
AcDbEntity
  8
0
  6
HIDDEN
 62
     7
370
    18
100
AcDbLine
 10
4757.563764984
 20
3564.7639321466
 30
0.0
 11
4759.863764984
 21
3564.7639321466
 31
0.0
  0
LINE
  5
15E
330
1F
100
AcDbEntity
  8
0
  6
HIDDEN
 62
     7
370
    18
100
AcDbLine
 10
4759.863764984
 20
3685.7245298752
 30
0.0
 11
4757.563764984
 21
3685.7245298752
 31
0.0
  0
LINE
  5
15F
330
1F
100
AcDbEntity
  8
0
  6
HIDDEN
 62
     7
370
    18
100
AcDbLine
 10
4757.563764984
 20
3673.7245298752
 30
0.0
 11
4759.863764984
 21
3673.7245298752
 31
0.0
  0
LINE
  5
160
330
1F
100
AcDbEntity
  8
0
  6
HIDDEN
 62
     7
370
    18
100
AcDbLine
 10
4759.863764984
 20
2629.881798712
 30
0.0
 11
4757.563764984
 21
2629.881798712
 31
0.0
  0
LINE
  5
161
330
1F
100
AcDbEntity
  8
0
  6
HIDDEN
 62
     7
370
    18
100
AcDbLine
 10
4757.563764984
 20
2617.881798712
 30
0.0
 11
4759.863764984
 21
2617.881798712
 31
0.0
  0
LINE
  5
162
330
1F
100
AcDbEntity
  8
0
  6
HIDDEN
 62
     7
370
    18
100
AcDbLine
 10
4759.863764984
 20
3743.0085060962
 30
0.0
 11
4757.563764984
 21
3743.0085060962
 31
0.0
  0
LINE
  5
163
330
1F
100
AcDbEntity
  8
0
  6
HIDDEN
 62
     7
370
    18
100
AcDbLine
 10
4757.563764984
 20
3731.0085060962
 30
0.0
 11
4759.863764984
 21
3731.0085060962
 31
0.0
  0
LINE
  5
164
330
1F
100
AcDbEntity
  8
0
  6
HIDDEN
 62
     7
370
    18
100
AcDbLine
 10
4759.863764984
 20
2572.5978224909
 30
0.0
 11
4757.563764984
 21
2572.5978224909
 31
0.0
  0
LINE
  5
165
330
1F
100
AcDbEntity
  8
0
  6
HIDDEN
 62
     7
370
    18
100
AcDbLine
 10
4757.563764984
 20
2560.5978224909
 30
0.0
 11
4759.863764984
 21
2560.5978224909
 31
0.0
  0
LINE
  5
166
330
1F
100
AcDbEntity
  8
0
  6
HIDDEN
 62
     7
370
    18
100
AcDbLine
 10
4683.863764984
 20
3911.8031642936
 30
0.0
 11
4683.863764984
 21
3907.8031642936
 31
0.0
  0
LINE
  5
167
330
1F
100
AcDbEntity
  8
0
  6
HIDDEN
 62
     7
370
    18
100
AcDbLine
 10
4695.863764984
 20
3907.8031642936
 30
0.0
 11
4695.863764984
 21
3911.8031642936
 31
0.0
  0
LINE
  5
168
330
1F
100
AcDbEntity
  8
0
  6
HIDDEN
 62
     7
370
    18
100
AcDbLine
 10
4525.863764984
 20
3911.8031642936
 30
0.0
 11
4525.863764984
 21
3907.8031642936
 31
0.0
  0
LINE
  5
169
330
1F
100
AcDbEntity
  8
0
  6
HIDDEN
 62
     7
370
    18
100
AcDbLine
 10
4537.863764984
 20
3907.8031642936
 30
0.0
 11
4537.863764984
 21
3911.8031642936
 31
0.0
  0
LINE
  5
16A
330
1F
100
AcDbEntity
  8
0
  6
HIDDEN
 62
     7
370
    18
100
AcDbLine
 10
4325.863764984
 20
3911.8031642936
 30
0.0
 11
4325.863764984
 21
3907.8031642936
 31
0.0
  0
LINE
  5
16B
330
1F
100
AcDbEntity
  8
0
  6
HIDDEN
 62
     7
370
    18
100
AcDbLine
 10
4337.863764984
 20
3907.8031642936
 30
0.0
 11
4337.863764984
 21
3911.8031642936
 31
0.0
  0
LINE
  5
16C
330
1F
100
AcDbEntity
  8
0
  6
HIDDEN
 62
     7
370
    18
100
AcDbLine
 10
4125.863764984
 20
3911.8031642936
 30
0.0
 11
4125.863764984
 21
3907.8031642936
 31
0.0
  0
LINE
  5
16D
330
1F
100
AcDbEntity
  8
0
  6
HIDDEN
 62
     7
370
    18
100
AcDbLine
 10
4137.863764984
 20
3907.8031642936
 30
0.0
 11
4137.863764984
 21
3911.8031642936
 31
0.0
  0
LINE
  5
16E
330
1F
100
AcDbEntity
  8
0
  6
HIDDEN
 62
     7
370
    18
100
AcDbLine
 10
3925.863764984
 20
3911.8031642936
 30
0.0
 11
3925.863764984
 21
3907.8031642936
 31
0.0
  0
LINE
  5
16F
330
1F
100
AcDbEntity
  8
0
  6
HIDDEN
 62
     7
370
    18
100
AcDbLine
 10
3937.863764984
 20
3907.8031642936
 30
0.0
 11
3937.863764984
 21
3911.8031642936
 31
0.0
  0
LINE
  5
170
330
1F
100
AcDbEntity
  8
0
  6
HIDDEN
 62
     7
370
    18
100
AcDbLine
 10
3767.863764984
 20
3911.8031642936
 30
0.0
 11
3767.863764984
 21
3907.8031642936
 31
0.0
  0
LINE
  5
171
330
1F
100
AcDbEntity
  8
0
  6
HIDDEN
 62
     7
370
    18
100
AcDbLine
 10
3779.863764984
 20
3907.8031642936
 30
0.0
 11
3779.863764984
 21
3911.8031642936
 31
0.0
  0
LINE
  5
172
330
1F
100
AcDbEntity
  8
2
100
AcDbLine
 10
3687.1897835093
 20
3151.8031642936
 30
0.0
 11
4451.1155148751
 21
3151.8031642936
 31
0.0
  0
LINE
  5
173
330
1F
100
AcDbEntity
  8
2
100
AcDbLine
 10
4231.863764984
 20
2593.8401111378
 30
0.0
 11
4231.863764984
 21
3480.151876986
 31
0.0
  0
LINE
  5
174
330
1F
100
AcDbEntity
  8
1
100
AcDbLine
 10
2297.1381018633
 20
4685.2321940624
 30
0.0
 11
2297.1381018633
 21
4845.2321940624
 31
0.0
  0
LINE
  5
175
330
1F
100
AcDbEntity
  8
1
100
AcDbLine
 10
359.6381018633
 20
4845.2321940624
 30
0.0
 11
359.6381018633
 21
4685.2321940624
 31
0.0
  0
LINE
  5
176
330
1F
100
AcDbEntity
  8
1
100
AcDbLine
 10
767.6381018633
 20
4912.7321940624
 30
0.0
 11
767.6381018633
 21
5067.2321940624
 31
0.0
  0
LINE
  5
177
330
1F
100
AcDbEntity
  8
1
100
AcDbLine
 10
376.6381018633
 20
5467.7321940624
 30
0.0
 11
376.6381018633
 21
4912.7321940624
 31
0.0
  0
LINE
  5
178
330
1F
100
AcDbEntity
  8
1
100
AcDbLine
 10
596.1381018633
 20
4845.2321940624
 30
0.0
 11
596.1381018633
 21
4912.7321940624
 31
0.0
  0
LINE
  5
179
330
1F
100
AcDbEntity
  8
1
100
AcDbLine
 10
548.1381018633
 20
4912.7321940624
 30
0.0
 11
548.1381018633
 21
4845.2321940624
 31
0.0
  0
LINE
  5
17A
330
1F
100
AcDbEntity
  8
1
100
AcDbLine
 10
1362.1381018633
 20
6073.2321940624
 30
0.0
 11
1362.1381018633
 21
6070.9321940624
 31
0.0
  0
LINE
  5
17B
330
1F
100
AcDbEntity
  8
1
100
AcDbLine
 10
2582.1381018633
 20
6070.9321940624
 30
0.0
 11
2582.1381018633
 21
6073.2321940624
 31
0.0
  0
LINE
  5
17C
330
1F
100
AcDbEntity
  8
1
100
AcDbLine
 10
2582.1381018633
 20
5972.5321940624
 30
0.0
 11
2582.1381018633
 21
5980.2321940624
 31
0.0
  0
LINE
  5
17D
330
1F
100
AcDbEntity
  8
1
100
AcDbLine
 10
1409.8381018633
 20
6070.9321940624
 30
0.0
 11
1409.8381018633
 21
6023.2321940624
 31
0.0
  0
LINE
  5
17E
330
1F
100
AcDbEntity
  8
1
100
AcDbLine
 10
2534.4381018633
 20
5980.2321940624
 30
0.0
 11
2534.4381018633
 21
6070.9321940624
 31
0.0
  0
LINE
  5
17F
330
1F
100
AcDbEntity
  8
1
100
AcDbLine
 10
2297.1381018633
 20
4685.2321940624
 30
0.0
 11
1814.1561414817
 21
4685.2321940624
 31
0.0
  0
LINE
  5
180
330
1F
100
AcDbEntity
  8
1
100
AcDbLine
 10
2297.1381018633
 20
4845.2321940624
 30
0.0
 11
1814.1561414817
 21
4845.2321940624
 31
0.0
  0
LINE
  5
181
330
1F
100
AcDbEntity
  8
1
100
AcDbLine
 10
1814.1561414817
 20
4685.2321940624
 30
0.0
 11
468.8422046907
 21
4685.2321940624
 31
0.0
  0
LINE
  5
182
330
1F
100
AcDbEntity
  8
1
100
AcDbLine
 10
1814.1561414817
 20
4845.2321940624
 30
0.0
 11
468.8422046907
 21
4845.2321940624
 31
0.0
  0
LINE
  5
183
330
1F
100
AcDbEntity
  8
1
100
AcDbLine
 10
468.8422046907
 20
4685.2321940624
 30
0.0
 11
359.6381018633
 21
4685.2321940624
 31
0.0
  0
LINE
  5
184
330
1F
100
AcDbEntity
  8
1
100
AcDbLine
 10
468.8422046907
 20
4845.2321940624
 30
0.0
 11
359.6381018633
 21
4845.2321940624
 31
0.0
  0
LINE
  5
185
330
1F
100
AcDbEntity
  8
1
100
AcDbLine
 10
721.1381018633
 20
5467.7321940624
 30
0.0
 11
376.6381018633
 21
5467.7321940624
 31
0.0
  0
LINE
  5
186
330
1F
100
AcDbEntity
  8
1
100
AcDbLine
 10
376.6381018633
 20
4912.7321940624
 30
0.0
 11
767.6381018633
 21
4912.7321940624
 31
0.0
  0
LINE
  5
187
330
1F
100
AcDbEntity
  8
1
100
AcDbLine
 10
347.1381018633
 20
5359.2321940624
 30
0.0
 11
376.6381018633
 21
5359.2321940624
 31
0.0
  0
LINE
  5
188
330
1F
100
AcDbEntity
  8
1
100
AcDbLine
 10
797.1381018633
 20
5067.2321940624
 30
0.0
 11
797.1381018633
 21
4949.2321940624
 31
0.0
  0
LINE
  5
189
330
1F
100
AcDbEntity
  8
1
100
AcDbLine
 10
797.1381018633
 20
4949.2321940624
 30
0.0
 11
767.6381018633
 21
4949.2321940624
 31
0.0
  0
LINE
  5
18A
330
1F
100
AcDbEntity
  8
1
100
AcDbLine
 10
376.6381018633
 20
4949.2321940624
 30
0.0
 11
347.1381018633
 21
4949.2321940624
 31
0.0
  0
LINE
  5
18B
330
1F
100
AcDbEntity
  8
1
100
AcDbLine
 10
347.1381018633
 20
4949.2321940624
 30
0.0
 11
347.1381018633
 21
5359.2321940624
 31
0.0
  0
LINE
  5
18C
330
1F
100
AcDbEntity
  8
1
100
AcDbLine
 10
272.1381018633
 20
4858.2321940624
 30
0.0
 11
548.1381018633
 21
4858.2321940624
 31
0.0
  0
LINE
  5
18D
330
1F
100
AcDbEntity
  8
1
100
AcDbLine
 10
596.1381018633
 20
4858.2321940624
 30
0.0
 11
2632.1381018633
 21
4858.2321940624
 31
0.0
  0
LINE
  5
18E
330
1F
100
AcDbEntity
  8
1
100
AcDbLine
 10
337.1381018633
 20
4923.2321940624
 30
0.0
 11
376.6381018633
 21
4923.2321940624
 31
0.0
  0
LINE
  5
18F
330
1F
100
AcDbEntity
  8
1
100
AcDbLine
 10
767.6381018633
 20
4923.2321940624
 30
0.0
 11
2567.1381018633
 21
4923.2321940624
 31
0.0
  0
LINE
  5
190
330
1F
100
AcDbEntity
  8
1
100
AcDbLine
 10
721.1381018633
 20
5973.2321940624
 30
0.0
 11
337.1381018633
 21
5973.2321940624
 31
0.0
  0
LINE
  5
191
330
1F
100
AcDbEntity
  8
1
100
AcDbLine
 10
337.1381018633
 20
5973.2321940624
 30
0.0
 11
337.1381018633
 21
4923.2321940624
 31
0.0
  0
LINE
  5
192
330
1F
100
AcDbEntity
  8
1
100
AcDbLine
 10
2567.1381018633
 20
4923.2321940624
 30
0.0
 11
2567.1381018633
 21
5117.9321940624
 31
0.0
  0
LINE
  5
193
330
1F
100
AcDbEntity
  8
1
100
AcDbLine
 10
2632.1381018633
 20
6038.2321940624
 30
0.0
 11
2534.4381018633
 21
6038.2321940624
 31
0.0
  0
LINE
  5
194
330
1F
100
AcDbEntity
  8
1
100
AcDbLine
 10
1409.8381018633
 20
6038.2321940624
 30
0.0
 11
272.1381018633
 21
6038.2321940624
 31
0.0
  0
LINE
  5
195
330
1F
100
AcDbEntity
  8
1
100
AcDbLine
 10
272.1381018633
 20
6038.2321940624
 30
0.0
 11
272.1381018633
 21
4858.2321940624
 31
0.0
  0
LINE
  5
196
330
1F
100
AcDbEntity
  8
1
100
AcDbLine
 10
2632.1381018633
 20
4858.2321940624
 30
0.0
 11
2632.1381018633
 21
5117.9321940624
 31
0.0
  0
LINE
  5
197
330
1F
100
AcDbEntity
  8
1
100
AcDbLine
 10
2632.1381018633
 20
5972.5321940624
 30
0.0
 11
2632.1381018633
 21
6038.2321940624
 31
0.0
  0
CIRCLE
  5
198
330
1F
100
AcDbEntity
  8
1
100
AcDbCircle
 10
741.1381018633
 20
5087.2321940624
 30
0.0
 40
6.0
  0
CIRCLE
  5
199
330
1F
100
AcDbEntity
  8
1
100
AcDbCircle
 10
741.1381018633
 20
5245.2321940624
 30
0.0
 40
5.999999999999091
  0
CIRCLE
  5
19A
330
1F
100
AcDbEntity
  8
1
100
AcDbCircle
 10
741.1381018633
 20
5445.2321940624
 30
0.0
 40
6.0
  0
CIRCLE
  5
19B
330
1F
100
AcDbEntity
  8
1
100
AcDbCircle
 10
849.1381018633
 20
5087.2321940624
 30
0.0
 40
6.0
  0
CIRCLE
  5
19C
330
1F
100
AcDbEntity
  8
1
100
AcDbCircle
 10
1049.1381018633
 20
5087.2321940624
 30
0.0
 40
6.0
  0
CIRCLE
  5
19D
330
1F
100
AcDbEntity
  8
1
100
AcDbCircle
 10
1249.1381018633
 20
5087.2321940624
 30
0.0
 40
6.0
  0
CIRCLE
  5
19E
330
1F
100
AcDbEntity
  8
1
100
AcDbCircle
 10
1249.1381018633
 20
6003.2321940624
 30
0.0
 40
6.0
  0
CIRCLE
  5
19F
330
1F
100
AcDbEntity
  8
1
100
AcDbCircle
 10
1049.1381018633
 20
6003.2321940624
 30
0.0
 40
6.0
  0
CIRCLE
  5
1A0
330
1F
100
AcDbEntity
  8
1
100
AcDbCircle
 10
849.1381018633
 20
6003.2321940624
 30
0.0
 40
6.0
  0
CIRCLE
  5
1A1
330
1F
100
AcDbEntity
  8
1
100
AcDbCircle
 10
741.1381018633
 20
5645.2321940624
 30
0.0
 40
6.0
  0
CIRCLE
  5
1A2
330
1F
100
AcDbEntity
  8
1
100
AcDbCircle
 10
741.1381018633
 20
5845.2321940624
 30
0.0
 40
6.0
  0
CIRCLE
  5
1A3
330
1F
100
AcDbEntity
  8
1
100
AcDbCircle
 10
741.1381018633
 20
6003.2321940624
 30
0.0
 40
6.0
  0
CIRCLE
  5
1A4
330
1F
100
AcDbEntity
  8
1
100
AcDbCircle
 10
1957.1381018633
 20
6003.2321940624
 30
0.0
 40
6.0
  0
CIRCLE
  5
1A5
330
1F
100
AcDbEntity
  8
1
100
AcDbCircle
 10
1957.1381018633
 20
5845.2321940624
 30
0.0
 40
6.0
  0
CIRCLE
  5
1A6
330
1F
100
AcDbEntity
  8
1
100
AcDbCircle
 10
1957.1381018633
 20
5645.2321940624
 30
0.0
 40
6.0
  0
CIRCLE
  5
1A7
330
1F
100
AcDbEntity
  8
1
100
AcDbCircle
 10
1849.1381018633
 20
6003.2321940624
 30
0.0
 40
6.0
  0
CIRCLE
  5
1A8
330
1F
100
AcDbEntity
  8
1
100
AcDbCircle
 10
1649.1381018633
 20
6003.2321940624
 30
0.0
 40
6.0
  0
CIRCLE
  5
1A9
330
1F
100
AcDbEntity
  8
1
100
AcDbCircle
 10
1449.1381018633
 20
6003.2321940624
 30
0.0
 40
6.0
  0
CIRCLE
  5
1AA
330
1F
100
AcDbEntity
  8
1
100
AcDbCircle
 10
1449.1381018633
 20
5087.2321940624
 30
0.0
 40
6.0
  0
CIRCLE
  5
1AB
330
1F
100
AcDbEntity
  8
1
100
AcDbCircle
 10
1649.1381018633
 20
5087.2321940624
 30
0.0
 40
6.0
  0
CIRCLE
  5
1AC
330
1F
100
AcDbEntity
  8
1
100
AcDbCircle
 10
1849.1381018633
 20
5087.2321940624
 30
0.0
 40
6.0
  0
CIRCLE
  5
1AD
330
1F
100
AcDbEntity
  8
1
100
AcDbCircle
 10
1957.1381018633
 20
5245.2321940624
 30
0.0
 40
5.999999999999091
  0
CIRCLE
  5
1AE
330
1F
100
AcDbEntity
  8
1
100
AcDbCircle
 10
1957.1381018633
 20
5087.2321940624
 30
0.0
 40
6.0
  0
LINE
  5
1AF
330
1F
100
AcDbEntity
  8
1
100
AcDbLine
 10
721.1381018633
 20
6023.2321940624
 30
0.0
 11
721.1381018633
 21
5067.2321940624
 31
0.0
  0
LINE
  5
1B0
330
1F
100
AcDbEntity
  8
1
100
AcDbLine
 10
1977.1381018633
 20
6023.2321940624
 30
0.0
 11
721.1381018633
 21
6023.2321940624
 31
0.0
  0
LINE
  5
1B1
330
1F
100
AcDbEntity
  8
1
100
AcDbLine
 10
1977.1381018633
 20
5067.2321940624
 30
0.0
 11
1977.1381018633
 21
6023.2321940624
 31
0.0
  0
LINE
  5
1B2
330
1F
100
AcDbEntity
  8
1
100
AcDbLine
 10
721.1381018633
 20
5067.2321940624
 30
0.0
 11
1977.1381018633
 21
5067.2321940624
 31
0.0
  0
LINE
  5
1B3
330
1F
100
AcDbEntity
  8
1
100
AcDbLine
 10
774.1381018633
 20
5120.2321940624
 30
0.0
 11
774.1381018633
 21
5970.2321940624
 31
0.0
  0
LINE
  5
1B4
330
1F
100
AcDbEntity
  8
1
100
AcDbLine
 10
1924.1381018633
 20
5120.2321940624
 30
0.0
 11
774.1381018633
 21
5120.2321940624
 31
0.0
  0
LINE
  5
1B5
330
1F
100
AcDbEntity
  8
1
100
AcDbLine
 10
1924.1381018633
 20
5120.2321940624
 30
0.0
 11
1924.1381018633
 21
5970.2321940624
 31
0.0
  0
LINE
  5
1B6
330
1F
100
AcDbEntity
  8
1
100
AcDbLine
 10
1924.1381018633
 20
5970.2321940624
 30
0.0
 11
774.1381018633
 21
5970.2321940624
 31
0.0
  0
CIRCLE
  5
1B7
330
1F
100
AcDbEntity
  8
1
100
AcDbCircle
 10
1957.1381018633
 20
5445.2321940624
 30
0.0
 40
6.0
  0
LINE
  5
1B8
330
1F
100
AcDbEntity
  8
1
100
AcDbLine
 10
2778.7381018633
 20
5117.9321940624
 30
0.0
 11
2778.7381018633
 21
5972.5321940624
 31
0.0
  0
LINE
  5
1B9
330
1F
100
AcDbEntity
  8
1
100
AcDbLine
 10
2778.7381018633
 20
5117.9321940624
 30
0.0
 11
2040.6381018633
 21
5117.9321940624
 31
0.0
  0
LINE
  5
1BA
330
1F
100
AcDbEntity
  8
1
100
AcDbLine
 10
2778.7381018633
 20
5972.5321940624
 30
0.0
 11
2040.6381018633
 21
5972.5321940624
 31
0.0
  0
LINE
  5
1BB
330
1F
100
AcDbEntity
  8
1
100
AcDbLine
 10
2040.6381018633
 20
5117.9321940624
 30
0.0
 11
1977.1381018633
 21
5117.9321940624
 31
0.0
  0
LINE
  5
1BC
330
1F
100
AcDbEntity
  8
1
100
AcDbLine
 10
2040.6381018633
 20
5972.5321940624
 30
0.0
 11
1977.1381018633
 21
5972.5321940624
 31
0.0
  0
LINE
  5
1BD
330
1F
100
AcDbEntity
  8
1
100
AcDbLine
 10
1362.1381018633
 20
6073.2321940624
 30
0.0
 11
2582.1381018633
 21
6073.2321940624
 31
0.0
  0
LINE
  5
1BE
330
1F
100
AcDbEntity
  8
1
100
AcDbLine
 10
1362.1381018633
 20
6070.9321940624
 30
0.0
 11
2582.1381018633
 21
6070.9321940624
 31
0.0
  0
LINE
  5
1BF
330
1F
100
AcDbEntity
  8
1
100
AcDbLine
 10
2582.1381018633
 20
5980.2321940624
 30
0.0
 11
1977.1381018633
 21
5980.2321940624
 31
0.0
  0
LINE
  5
1C0
330
1F
100
AcDbEntity
  8
0
  6
HIDDEN
 62
     7
370
    18
100
AcDbLine
 10
462.7020474754
 20
4992.2321940624
 30
0.0
 11
477.3791972686
 21
4992.2321940624
 31
0.0
  0
LINE
  5
1C1
330
1F
100
AcDbEntity
  8
0
  6
HIDDEN
 62
     7
370
    18
100
AcDbLine
 10
462.7020474754
 20
4992.2321940624
 30
0.0
 11
462.7020474754
 21
5316.2321940624
 31
0.0
  0
LINE
  5
1C2
330
1F
100
AcDbEntity
  8
0
  6
HIDDEN
 62
     7
370
    18
100
AcDbLine
 10
462.7020474754
 20
5316.2321940624
 30
0.0
 11
477.3791972686
 21
5316.2321940624
 31
0.0
  0
LINE
  5
1C3
330
1F
100
AcDbEntity
  8
0
  6
HIDDEN
 62
     7
370
    18
100
AcDbLine
 10
477.3791972686
 20
5467.7321940624
 30
0.0
 11
477.3791972686
 21
5316.2321940624
 31
0.0
  0
LINE
  5
1C4
330
1F
100
AcDbEntity
  8
0
  6
HIDDEN
 62
     7
370
    18
100
AcDbLine
 10
767.6381018633
 20
5467.7321940624
 30
0.0
 11
721.1381018633
 21
5467.7321940624
 31
0.0
  0
LINE
  5
1C5
330
1F
100
AcDbEntity
  8
0
  6
HIDDEN
 62
     7
370
    18
100
AcDbLine
 10
666.8970064581
 20
5467.7321940624
 30
0.0
 11
666.8970064581
 21
5316.2321940624
 31
0.0
  0
LINE
  5
1C6
330
1F
100
AcDbEntity
  8
0
  6
HIDDEN
 62
     7
370
    18
100
AcDbLine
 10
666.8970064581
 20
5316.2321940624
 30
0.0
 11
681.5741562513
 21
5316.2321940624
 31
0.0
  0
LINE
  5
1C7
330
1F
100
AcDbEntity
  8
0
  6
HIDDEN
 62
     7
370
    18
100
AcDbLine
 10
681.5741562513
 20
5316.2321940624
 30
0.0
 11
681.5741562513
 21
4992.2321940624
 31
0.0
  0
LINE
  5
1C8
330
1F
100
AcDbEntity
  8
0
  6
HIDDEN
 62
     7
370
    18
100
AcDbLine
 10
666.8970064581
 20
4992.2321940624
 30
0.0
 11
681.5741562513
 21
4992.2321940624
 31
0.0
  0
LINE
  5
1C9
330
1F
100
AcDbEntity
  8
0
  6
HIDDEN
 62
     7
370
    18
100
AcDbLine
 10
666.8970064581
 20
4992.2321940624
 30
0.0
 11
666.8970064581
 21
4912.7321940624
 31
0.0
  0
LINE
  5
1CA
330
1F
100
AcDbEntity
  8
0
  6
HIDDEN
 62
     7
370
    18
100
AcDbLine
 10
477.3791972686
 20
4992.2321940624
 30
0.0
 11
477.3791972686
 21
4912.7321940624
 31
0.0
  0
LINE
  5
1CB
330
1F
100
AcDbEntity
  8
0
  6
HIDDEN
 62
     7
370
    18
100
AcDbLine
 10
462.7020474754
 20
5316.2321940624
 30
0.0
 11
429.1381018633
 21
5316.2321940624
 31
0.0
  0
LINE
  5
1CC
330
1F
100
AcDbEntity
  8
0
  6
HIDDEN
 62
     7
370
    18
100
AcDbLine
 10
462.7020474754
 20
4992.2321940624
 30
0.0
 11
429.1381018633
 21
4992.2321940624
 31
0.0
  0
LINE
  5
1CD
330
1F
100
AcDbEntity
  8
0
  6
HIDDEN
 62
     7
370
    18
100
AcDbLine
 10
429.1381018633
 20
4992.2321940624
 30
0.0
 11
429.1381018633
 21
5316.2321940624
 31
0.0
  0
LINE
  5
1CE
330
1F
100
AcDbEntity
  8
0
  6
HIDDEN
 62
     7
370
    18
100
AcDbLine
 10
715.1381018633
 20
4992.2321940624
 30
0.0
 11
715.1381018633
 21
5316.2321940624
 31
0.0
  0
LINE
  5
1CF
330
1F
100
AcDbEntity
  8
0
  6
HIDDEN
 62
     7
370
    18
100
AcDbLine
 10
715.1381018633
 20
4992.2321940624
 30
0.0
 11
681.5741562513
 21
4992.2321940624
 31
0.0
  0
LINE
  5
1D0
330
1F
100
AcDbEntity
  8
0
  6
HIDDEN
 62
     7
370
    18
100
AcDbLine
 10
715.1381018633
 20
5316.2321940624
 30
0.0
 11
681.5741562513
 21
5316.2321940624
 31
0.0
  0
LINE
  5
1D1
330
1F
100
AcDbEntity
  8
0
  6
HIDDEN
 62
     7
370
    18
100
AcDbLine
 10
477.3791972686
 20
5316.2321940624
 30
0.0
 11
666.8970064581
 21
5316.2321940624
 31
0.0
  0
LINE
  5
1D2
330
1F
100
AcDbEntity
  8
0
  6
HIDDEN
 62
     7
370
    18
100
AcDbLine
 10
477.3791972686
 20
4992.2321940624
 30
0.0
 11
666.8970064581
 21
4992.2321940624
 31
0.0
  0
LINE
  5
1D3
330
1F
100
AcDbEntity
  8
0
  6
HIDDEN
 62
     7
370
    18
100
AcDbLine
 10
376.6381018633
 20
5359.2321940624
 30
0.0
 11
797.1381018633
 21
5359.2321940624
 31
0.0
  0
LINE
  5
1D4
330
1F
100
AcDbEntity
  8
0
  6
HIDDEN
 62
     7
370
    18
100
AcDbLine
 10
797.1381018633
 20
5359.2321940624
 30
0.0
 11
797.1381018633
 21
5067.2321940624
 31
0.0
  0
LINE
  5
1D5
330
1F
100
AcDbEntity
  8
0
  6
HIDDEN
 62
     7
370
    18
100
AcDbLine
 10
767.6381018633
 20
4949.2321940624
 30
0.0
 11
376.6381018633
 21
4949.2321940624
 31
0.0
  0
LINE
  5
1D6
330
1F
100
AcDbEntity
  8
0
  6
HIDDEN
 62
     7
370
    18
100
AcDbLine
 10
459.6381018633
 20
4727.7321940624
 30
0.0
 11
684.6381018633
 21
4727.7321940624
 31
0.0
  0
LINE
  5
1D7
330
1F
100
AcDbEntity
  8
0
  6
HIDDEN
 62
     7
370
    18
100
AcDbLine
 10
459.6381018633
 20
4802.7321940624
 30
0.0
 11
684.6381018633
 21
4802.7321940624
 31
0.0
  0
LINE
  5
1D8
330
1F
100
AcDbEntity
  8
0
  6
HIDDEN
 62
     7
370
    18
100
AcDbLine
 10
1966.7773960286
 20
4727.7321940624
 30
0.0
 11
2197.1381018633
 21
4727.7321940624
 31
0.0
  0
LINE
  5
1D9
330
1F
100
AcDbEntity
  8
0
  6
HIDDEN
 62
     7
370
    18
100
AcDbLine
 10
1747.1381018633
 20
4727.7321940624
 30
0.0
 11
1966.7773960286
 21
4727.7321940624
 31
0.0
  0
LINE
  5
1DA
330
1F
100
AcDbEntity
  8
0
  6
HIDDEN
 62
     7
370
    18
100
AcDbLine
 10
1966.7773960286
 20
4802.7321940624
 30
0.0
 11
2197.1381018633
 21
4802.7321940624
 31
0.0
  0
LINE
  5
1DB
330
1F
100
AcDbEntity
  8
0
  6
HIDDEN
 62
     7
370
    18
100
AcDbLine
 10
1747.1381018633
 20
4802.7321940624
 30
0.0
 11
1966.7773960286
 21
4802.7321940624
 31
0.0
  0
CIRCLE
  5
1DC
330
1F
100
AcDbEntity
  8
0
  6
HIDDEN
 62
     7
370
    18
100
AcDbCircle
 10
372.1381018633
 20
6008.2321940624
 30
0.0
 40
9.0
  0
CIRCLE
  5
1DD
330
1F
100
AcDbEntity
  8
0
  6
HIDDEN
 62
     7
370
    18
100
AcDbCircle
 10
1092.1381018633
 20
6008.2321940624
 30
0.0
 40
9.0
  0
CIRCLE
  5
1DE
330
1F
100
AcDbEntity
  8
0
  6
HIDDEN
 62
     7
370
    18
100
AcDbCircle
 10
1812.1381018633
 20
6008.2321940624
 30
0.0
 40
9.0
  0
CIRCLE
  5
1DF
330
1F
100
AcDbEntity
  8
0
  6
HIDDEN
 62
     7
370
    18
100
AcDbCircle
 10
2532.1381018633
 20
6008.2321940624
 30
0.0
 40
9.0
  0
CIRCLE
  5
1E0
330
1F
100
AcDbEntity
  8
0
  6
HIDDEN
 62
     7
370
    18
100
AcDbCircle
 10
2532.1381018633
 20
4888.2321940624
 30
0.0
 40
9.0
  0
CIRCLE
  5
1E1
330
1F
100
AcDbEntity
  8
0
  6
HIDDEN
 62
     7
370
    18
100
AcDbCircle
 10
1812.1381018633
 20
4888.2321940624
 30
0.0
 40
9.00000000000091
  0
CIRCLE
  5
1E2
330
1F
100
AcDbEntity
  8
0
  6
HIDDEN
 62
     7
370
    18
100
AcDbCircle
 10
1092.1381018633
 20
4888.2321940624
 30
0.0
 40
9.0
  0
CIRCLE
  5
1E3
330
1F
100
AcDbEntity
  8
0
  6
HIDDEN
 62
     7
370
    18
100
AcDbCircle
 10
372.1381018633
 20
4888.2321940624
 30
0.0
 40
9.0
  0
LINE
  5
1E4
330
1F
100
AcDbEntity
  8
0
  6
HIDDEN
 62
     7
370
    18
100
AcDbLine
 10
548.1381018633
 20
4858.2321940624
 30
0.0
 11
596.1381018633
 21
4858.2321940624
 31
0.0
  0
LINE
  5
1E5
330
1F
100
AcDbEntity
  8
0
  6
HIDDEN
 62
     7
370
    18
100
AcDbLine
 10
376.6381018633
 20
4923.2321940624
 30
0.0
 11
767.6381018633
 21
4923.2321940624
 31
0.0
  0
LINE
  5
1E6
330
1F
100
AcDbEntity
  8
0
  6
HIDDEN
 62
     7
370
    18
100
AcDbLine
 10
2567.1381018633
 20
5973.2321940624
 30
0.0
 11
721.1381018633
 21
5973.2321940624
 31
0.0
  0
LINE
  5
1E7
330
1F
100
AcDbEntity
  8
0
  6
HIDDEN
 62
     7
370
    18
100
AcDbLine
 10
2567.1381018633
 20
5117.9321940624
 30
0.0
 11
2567.1381018633
 21
5973.2321940624
 31
0.0
  0
LINE
  5
1E8
330
1F
100
AcDbEntity
  8
0
  6
HIDDEN
 62
     7
370
    18
100
AcDbLine
 10
2534.4381018633
 20
6038.2321940624
 30
0.0
 11
1409.8381018633
 21
6038.2321940624
 31
0.0
  0
LINE
  5
1E9
330
1F
100
AcDbEntity
  8
0
  6
HIDDEN
 62
     7
370
    18
100
AcDbLine
 10
2632.1381018633
 20
5117.9321940624
 30
0.0
 11
2632.1381018633
 21
5972.5321940624
 31
0.0
  0
LINE
  5
1EA
330
1F
100
AcDbEntity
  8
0
  6
HIDDEN
 62
     7
370
    18
100
AcDbLine
 10
2573.1381018633
 20
4917.2321940624
 30
0.0
 11
2573.1381018633
 21
5979.2321940624
 31
0.0
  0
LINE
  5
1EB
330
1F
100
AcDbEntity
  8
0
  6
HIDDEN
 62
     7
370
    18
100
AcDbLine
 10
331.1381018633
 20
5979.2321940624
 30
0.0
 11
331.1381018633
 21
4917.2321940624
 31
0.0
  0
LINE
  5
1EC
330
1F
100
AcDbEntity
  8
0
  6
HIDDEN
 62
     7
370
    18
100
AcDbLine
 10
2573.1381018633
 20
5979.2321940624
 30
0.0
 11
331.1381018633
 21
5979.2321940624
 31
0.0
  0
LINE
  5
1ED
330
1F
100
AcDbEntity
  8
0
  6
HIDDEN
 62
     7
370
    18
100
AcDbLine
 10
331.1381018633
 20
4917.2321940624
 30
0.0
 11
2573.1381018633
 21
4917.2321940624
 31
0.0
  0
CIRCLE
  5
1EE
330
1F
100
AcDbEntity
  8
0
  6
HIDDEN
 62
     7
370
    18
100
AcDbCircle
 10
2567.1381018633
 20
6005.7321940624
 30
0.0
 40
17.5
  0
CIRCLE
  5
1EF
330
1F
100
AcDbEntity
  8
0
  6
HIDDEN
 62
     7
370
    18
100
AcDbCircle
 10
337.1381018633
 20
6005.7321940624
 30
0.0
 40
17.5
  0
CIRCLE
  5
1F0
330
1F
100
AcDbEntity
  8
0
  6
HIDDEN
 62
     7
370
    18
100
AcDbCircle
 10
2567.1381018633
 20
4890.7321940624
 30
0.0
 40
17.5
  0
CIRCLE
  5
1F1
330
1F
100
AcDbEntity
  8
0
  6
HIDDEN
 62
     7
370
    18
100
AcDbCircle
 10
337.1381018633
 20
4890.7321940624
 30
0.0
 40
17.5
  0
LINE
  5
1F2
330
1F
100
AcDbEntity
  8
0
  6
HIDDEN
 62
     7
370
    18
100
AcDbLine
 10
772.8902962486
 20
5972.5321940624
 30
0.0
 11
772.8902962486
 21
5117.9321940624
 31
0.0
  0
LINE
  5
1F3
330
1F
100
AcDbEntity
  8
0
  6
HIDDEN
 62
     7
370
    18
100
AcDbLine
 10
772.8902962486
 20
5972.5321940624
 30
0.0
 11
1925.7381018633
 21
5972.5321940624
 31
0.0
  0
LINE
  5
1F4
330
1F
100
AcDbEntity
  8
0
  6
HIDDEN
 62
     7
370
    18
100
AcDbLine
 10
1925.7381018633
 20
5117.9321940624
 30
0.0
 11
1925.7381018633
 21
5972.5321940624
 31
0.0
  0
LINE
  5
1F5
330
1F
100
AcDbEntity
  8
0
  6
HIDDEN
 62
     7
370
    18
100
AcDbLine
 10
772.8902962486
 20
5117.9321940624
 30
0.0
 11
1925.7381018633
 21
5117.9321940624
 31
0.0
  0
LINE
  5
1F6
330
1F
100
AcDbEntity
  8
0
  6
HIDDEN
 62
     7
370
    18
100
AcDbLine
 10
1977.1381018633
 20
5117.9321940624
 30
0.0
 11
1925.7381018633
 21
5117.9321940624
 31
0.0
  0
LINE
  5
1F7
330
1F
100
AcDbEntity
  8
0
  6
HIDDEN
 62
     7
370
    18
100
AcDbLine
 10
1977.1381018633
 20
5972.5321940624
 30
0.0
 11
1925.7381018633
 21
5972.5321940624
 31
0.0
  0
LINE
  5
1F8
330
1F
100
AcDbEntity
  8
0
  6
HIDDEN
 62
     7
370
    18
100
AcDbLine
 10
2777.1381018633
 20
5120.2321940624
 30
0.0
 11
2777.1381018633
 21
5970.2321940624
 31
0.0
  0
LINE
  5
1F9
330
1F
100
AcDbEntity
  8
0
  6
HIDDEN
 62
     7
370
    18
100
AcDbLine
 10
2777.1381018633
 20
5120.2321940624
 30
0.0
 11
2040.6381018633
 21
5120.2321940624
 31
0.0
  0
LINE
  5
1FA
330
1F
100
AcDbEntity
  8
0
  6
HIDDEN
 62
     7
370
    18
100
AcDbLine
 10
2777.1381018633
 20
5970.2321940624
 30
0.0
 11
2040.6381018633
 21
5970.2321940624
 31
0.0
  0
LINE
  5
1FB
330
1F
100
AcDbEntity
  8
0
  6
HIDDEN
 62
     7
370
    18
100
AcDbLine
 10
2040.6381018633
 20
5120.2321940624
 30
0.0
 11
1924.1381018633
 21
5120.2321940624
 31
0.0
  0
LINE
  5
1FC
330
1F
100
AcDbEntity
  8
0
  6
HIDDEN
 62
     7
370
    18
100
AcDbLine
 10
2040.6381018633
 20
5970.2321940624
 30
0.0
 11
1924.1381018633
 21
5970.2321940624
 31
0.0
  0
LINE
  5
1FD
330
1F
100
AcDbEntity
  8
0
  6
HIDDEN
 62
     7
370
    18
100
AcDbLine
 10
1977.1381018633
 20
5980.2321940624
 30
0.0
 11
1362.1381018633
 21
5980.2321940624
 31
0.0
  0
LINE
  5
1FE
330
1F
100
AcDbEntity
  8
0
  6
HIDDEN
 62
     7
370
    18
100
AcDbLine
 10
767.6381018633
 20
5067.2321940624
 30
0.0
 11
767.6381018633
 21
5467.7321940624
 31
0.0
  0
LINE
  5
1FF
330
1F
100
AcDbEntity
  8
0
  6
HIDDEN
 62
     7
370
    18
100
AcDbLine
 10
596.1381018633
 20
4802.7321940624
 30
0.0
 11
596.1381018633
 21
4845.2321940624
 31
0.0
  0
LINE
  5
200
330
1F
100
AcDbEntity
  8
0
  6
HIDDEN
 62
     7
370
    18
100
AcDbLine
 10
548.1381018633
 20
4845.2321940624
 30
0.0
 11
548.1381018633
 21
4802.7321940624
 31
0.0
  0
LINE
  5
201
330
1F
100
AcDbEntity
  8
0
  6
HIDDEN
 62
     7
370
    18
100
AcDbLine
 10
684.6381018633
 20
4727.7321940624
 30
0.0
 11
684.6381018633
 21
4802.7321940624
 31
0.0
  0
LINE
  5
202
330
1F
100
AcDbEntity
  8
0
  6
HIDDEN
 62
     7
370
    18
100
AcDbLine
 10
459.6381018633
 20
4802.7321940624
 30
0.0
 11
459.6381018633
 21
4727.7321940624
 31
0.0
  0
LINE
  5
203
330
1F
100
AcDbEntity
  8
0
  6
HIDDEN
 62
     7
370
    18
100
AcDbLine
 10
2197.1381018633
 20
4727.7321940624
 30
0.0
 11
2197.1381018633
 21
4802.7321940624
 31
0.0
  0
LINE
  5
204
330
1F
100
AcDbEntity
  8
0
  6
HIDDEN
 62
     7
370
    18
100
AcDbLine
 10
1747.1381018633
 20
4802.7321940624
 30
0.0
 11
1747.1381018633
 21
4727.7321940624
 31
0.0
  0
LINE
  5
205
330
1F
100
AcDbEntity
  8
0
  6
HIDDEN
 62
     7
370
    18
100
AcDbLine
 10
1362.1381018633
 20
5980.2321940624
 30
0.0
 11
1362.1381018633
 21
5972.5321940624
 31
0.0
  0
LINE
  5
206
330
1F
100
AcDbEntity
  8
0
  6
HIDDEN
 62
     7
370
    18
100
AcDbLine
 10
2058.8255223997
 20
6073.2321940624
 30
0.0
 11
2058.8255223997
 21
6070.9321940624
 31
0.0
  0
LINE
  5
207
330
1F
100
AcDbEntity
  8
0
  6
HIDDEN
 62
     7
370
    18
100
AcDbLine
 10
2070.8255223997
 20
6070.9321940624
 30
0.0
 11
2070.8255223997
 21
6073.2321940624
 31
0.0
  0
LINE
  5
208
330
1F
100
AcDbEntity
  8
0
  6
HIDDEN
 62
     7
370
    18
100
AcDbLine
 10
1873.450681327
 20
6073.2321940624
 30
0.0
 11
1873.450681327
 21
6070.9321940624
 31
0.0
  0
LINE
  5
209
330
1F
100
AcDbEntity
  8
0
  6
HIDDEN
 62
     7
370
    18
100
AcDbLine
 10
1885.450681327
 20
6070.9321940624
 30
0.0
 11
1885.450681327
 21
6073.2321940624
 31
0.0
  0
LINE
  5
20A
330
1F
100
AcDbEntity
  8
0
  6
HIDDEN
 62
     7
370
    18
100
AcDbLine
 10
1409.8381018633
 20
6023.2321940624
 30
0.0
 11
1409.8381018633
 21
5980.2321940624
 31
0.0
  0
LINE
  5
20B
330
1F
100
AcDbEntity
  8
0
  6
HIDDEN
 62
     7
370
    18
100
AcDbLine
 10
2532.1381018633
 20
5970.2321940624
 30
0.0
 11
2532.1381018633
 21
6073.2321940624
 31
0.0
  0
LINE
  5
20C
330
1F
100
AcDbEntity
  8
0
  6
HIDDEN
 62
     7
370
    18
100
AcDbLine
 10
1412.1381018633
 20
6073.2321940624
 30
0.0
 11
1412.1381018633
 21
5970.2321940624
 31
0.0
  0
LINE
  5
20D
330
1F
100
AcDbEntity
  8
0
  6
HIDDEN
 62
     7
370
    18
100
AcDbLine
 10
2235.127472959
 20
6073.2321940624
 30
0.0
 11
2235.127472959
 21
6070.9321940624
 31
0.0
  0
LINE
  5
20E
330
1F
100
AcDbEntity
  8
0
  6
HIDDEN
 62
     7
370
    18
100
AcDbLine
 10
2247.127472959
 20
6070.9321940624
 30
0.0
 11
2247.127472959
 21
6073.2321940624
 31
0.0
  0
LINE
  5
20F
330
1F
100
AcDbEntity
  8
0
  6
HIDDEN
 62
     7
370
    18
100
AcDbLine
 10
1697.1487307676
 20
6073.2321940624
 30
0.0
 11
1697.1487307676
 21
6070.9321940624
 31
0.0
  0
LINE
  5
210
330
1F
100
AcDbEntity
  8
0
  6
HIDDEN
 62
     7
370
    18
100
AcDbLine
 10
1709.1487307676
 20
6070.9321940624
 30
0.0
 11
1709.1487307676
 21
6073.2321940624
 31
0.0
  0
LINE
  5
211
330
1F
100
AcDbEntity
  8
0
  6
HIDDEN
 62
     7
370
    18
100
AcDbLine
 10
2385.0988697163
 20
6073.2321940624
 30
0.0
 11
2385.0988697163
 21
6070.9321940624
 31
0.0
  0
LINE
  5
212
330
1F
100
AcDbEntity
  8
0
  6
HIDDEN
 62
     7
370
    18
100
AcDbLine
 10
2397.0988697163
 20
6070.9321940624
 30
0.0
 11
2397.0988697163
 21
6073.2321940624
 31
0.0
  0
LINE
  5
213
330
1F
100
AcDbEntity
  8
0
  6
HIDDEN
 62
     7
370
    18
100
AcDbLine
 10
1547.1773340103
 20
6073.2321940624
 30
0.0
 11
1547.1773340103
 21
6070.9321940624
 31
0.0
  0
LINE
  5
214
330
1F
100
AcDbEntity
  8
0
  6
HIDDEN
 62
     7
370
    18
100
AcDbLine
 10
1559.1773340103
 20
6070.9321940624
 30
0.0
 11
1559.1773340103
 21
6073.2321940624
 31
0.0
  0
LINE
  5
215
330
1F
100
AcDbEntity
  8
0
  6
HIDDEN
 62
     7
370
    18
100
AcDbLine
 10
2494.0594674449
 20
6073.2321940624
 30
0.0
 11
2494.0594674449
 21
6070.9321940624
 31
0.0
  0
LINE
  5
216
330
1F
100
AcDbEntity
  8
0
  6
HIDDEN
 62
     7
370
    18
100
AcDbLine
 10
2506.0594674449
 20
6070.9321940624
 30
0.0
 11
2506.0594674449
 21
6073.2321940624
 31
0.0
  0
LINE
  5
217
330
1F
100
AcDbEntity
  8
0
  6
HIDDEN
 62
     7
370
    18
100
AcDbLine
 10
1438.2167362817
 20
6073.2321940624
 30
0.0
 11
1438.2167362817
 21
6070.9321940624
 31
0.0
  0
LINE
  5
218
330
1F
100
AcDbEntity
  8
0
  6
HIDDEN
 62
     7
370
    18
100
AcDbLine
 10
1450.2167362817
 20
6070.9321940624
 30
0.0
 11
1450.2167362817
 21
6073.2321940624
 31
0.0
  0
LINE
  5
219
330
1F
100
AcDbEntity
  8
0
  6
HIDDEN
 62
     7
370
    18
100
AcDbLine
 10
2551.3434436659
 20
6073.2321940624
 30
0.0
 11
2551.3434436659
 21
6070.9321940624
 31
0.0
  0
LINE
  5
21A
330
1F
100
AcDbEntity
  8
0
  6
HIDDEN
 62
     7
370
    18
100
AcDbLine
 10
2563.3434436659
 20
6070.9321940624
 30
0.0
 11
2563.3434436659
 21
6073.2321940624
 31
0.0
  0
LINE
  5
21B
330
1F
100
AcDbEntity
  8
0
  6
HIDDEN
 62
     7
370
    18
100
AcDbLine
 10
1380.9327600607
 20
6073.2321940624
 30
0.0
 11
1380.9327600607
 21
6070.9321940624
 31
0.0
  0
LINE
  5
21C
330
1F
100
AcDbEntity
  8
0
  6
HIDDEN
 62
     7
370
    18
100
AcDbLine
 10
1392.9327600607
 20
6070.9321940624
 30
0.0
 11
1392.9327600607
 21
6073.2321940624
 31
0.0
  0
CIRCLE
  5
21D
330
1F
100
AcDbEntity
  8
基礎穴
100
AcDbCircle
 10
2532.1381018633
 20
6008.2321940624
 30
0.0
 40
9.000000000000307
  0
CIRCLE
  5
21E
330
1F
100
AcDbEntity
  8
基礎穴
100
AcDbCircle
 10
1812.1381018633
 20
6008.2321940624
 30
0.0
 40
9.000000000000089
  0
CIRCLE
  5
21F
330
1F
100
AcDbEntity
  8
基礎穴
100
AcDbCircle
 10
1092.1381018633
 20
6008.2321940624
 30
0.0
 40
8.999999999999872
  0
CIRCLE
  5
220
330
1F
100
AcDbEntity
  8
基礎穴
100
AcDbCircle
 10
372.1381018633
 20
6008.2321940624
 30
0.0
 40
8.999999999999764
  0
CIRCLE
  5
221
330
1F
100
AcDbEntity
  8
基礎穴
100
AcDbCircle
 10
2532.1381018633
 20
4888.2321940624
 30
0.0
 40
9.00000000000004
  0
CIRCLE
  5
222
330
1F
100
AcDbEntity
  8
基礎穴
100
AcDbCircle
 10
1812.1381018633
 20
4888.2321940624
 30
0.0
 40
9.000000000000089
  0
CIRCLE
  5
223
330
1F
100
AcDbEntity
  8
基礎穴
100
AcDbCircle
 10
1092.1381018633
 20
4888.2321940624
 30
0.0
 40
8.999999999999872
  0
CIRCLE
  5
224
330
1F
100
AcDbEntity
  8
基礎穴
100
AcDbCircle
 10
372.1381018633
 20
4888.2321940624
 30
0.0
 40
8.999999999999764
  0
LINE
  5
225
330
1F
100
AcDbEntity
  8
2
100
AcDbLine
 10
1349.1381018633
 20
5266.0334307322
 30
0.0
 11
1349.1381018633
 21
5747.1097344193
 31
0.0
  0
LINE
  5
226
330
1F
100
AcDbEntity
  8
2
100
AcDbLine
 10
1165.3381018633
 20
5545.2321940624
 30
0.0
 11
2221.098714499
 21
5545.2321940624
 31
0.0
  0
LINE
  5
227
330
1F
100
AcDbEntity
  8
2
100
AcDbLine
 10
1972.1381018633
 20
4998.3407567584
 30
0.0
 11
1972.1381018633
 21
5766.1453921103
 31
0.0
  0
ENDSEC
  0
SECTION
  2
OBJECTS
  0
DICTIONARY
  5
C
330
0
100
AcDbDictionary
281
     1
  3
ACAD_GROUP
350
D
  3
ACAD_LAYOUT
350
1A
  3
ACAD_MLINESTYLE
350
17
  3
ACAD_PLOTSETTINGS
350
19
  3
ACAD_PLOTSTYLENAME
350
E
  3
ACAD_SCALELIST
350
47
  3
DWGPROPS
350
228
  0
DICTIONARY
  5
D
102
{ACAD_REACTORS
330
C
102
}
330
C
100
AcDbDictionary
281
     1
  0
DICTIONARY
  5
1A
102
{ACAD_REACTORS
330
C
102
}
330
C
100
AcDbDictionary
281
     1
  3
Layout1
350
1E
  3
Layout2
350
26
  3
Model
350
22
  0
DICTIONARY
  5
17
102
{ACAD_REACTORS
330
C
102
}
330
C
100
AcDbDictionary
281
     1
  3
Standard
350
18
  0
DICTIONARY
  5
19
102
{ACAD_REACTORS
330
C
102
}
330
C
100
AcDbDictionary
281
     1
  0
ACDBDICTIONARYWDFLT
  5
E
102
{ACAD_REACTORS
330
C
102
}
330
C
100
AcDbDictionary
281
     1
  3
Normal
350
F
100
AcDbDictionaryWithDefault
340
F
  0
DICTIONARY
  5
47
102
{ACAD_REACTORS
330
C
102
}
330
C
100
AcDbDictionary
281
     1
  3
A0
350
48
  3
A1
350
49
  3
A2
350
4A
  3
A3
350
4B
  3
A4
350
4C
  3
A5
350
4D
  3
A6
350
4E
  3
A7
350
4F
  3
A8
350
50
  3
A9
350
51
  3
B0
350
52
  3
B1
350
53
  3
B2
350
54
  3
B3
350
55
  3
B4
350
56
  3
B5
350
57
  3
B6
350
58
  0
XRECORD
  5
228
102
{ACAD_REACTORS
330
C
102
}
330
C
100
AcDbXrecord
280
     1
  1
DWGPROPS COOKIE
  2

  3

  4

  6

  7

  8
yuta.kunimatsu
  9

300
=
301
=
302
=
303
=
304
=
305
=
306
=
307
=
308
=
309
=
 40
0.0
 41
2460174.416615185
 42
2460174.416618299
  1

 90
        0
  0
LAYOUT
  5
1E
102
{ACAD_REACTORS
330
1A
102
}
330
1A
100
AcDbPlotSettings
  1

  2
none_device
  4

  6

 40
0.0
 41
0.0
 42
0.0
 43
0.0
 44
0.0
 45
0.0
 46
0.0
 47
0.0
 48
0.0
 49
0.0
140
0.0
141
0.0
142
1.0
143
1.0
 70
   688
 72
     1
 73
     0
 74
     5
  7

 75
    16
147
1.0
148
0.0
149
0.0
100
AcDbLayout
  1
Layout1
 70
     1
 71
     1
 10
0.0
 20
0.0
 11
420.0
 21
297.0
 12
0.0
 22
0.0
 32
0.0
 14
1.0000000000E+20
 24
1.0000000000E+20
 34
1.0000000000E+20
 15
-1.0000000000E+20
 25
-1.0000000000E+20
 35
-1.0000000000E+20
146
0.0
 13
0.0
 23
0.0
 33
0.0
 16
1.0
 26
0.0
 36
0.0
 17
0.0
 27
1.0
 37
0.0
 76
     0
330
1B
  0
LAYOUT
  5
26
102
{ACAD_REACTORS
330
1A
102
}
330
1A
100
AcDbPlotSettings
  1

  2
none_device
  4

  6

 40
0.0
 41
0.0
 42
0.0
 43
0.0
 44
0.0
 45
0.0
 46
0.0
 47
0.0
 48
0.0
 49
0.0
140
0.0
141
0.0
142
1.0
143
1.0
 70
   688
 72
     1
 73
     0
 74
     5
  7

 75
    16
147
1.0
148
0.0
149
0.0
100
AcDbLayout
  1
Layout2
 70
     1
 71
     2
 10
0.0
 20
0.0
 11
0.0
 21
0.0
 12
0.0
 22
0.0
 32
0.0
 14
0.0
 24
0.0
 34
0.0
 15
0.0
 25
0.0
 35
0.0
146
0.0
 13
0.0
 23
0.0
 33
0.0
 16
1.0
 26
0.0
 36
0.0
 17
0.0
 27
1.0
 37
0.0
 76
     0
330
23
  0
LAYOUT
  5
22
102
{ACAD_REACTORS
330
1A
102
}
330
1A
100
AcDbPlotSettings
  1

  2
none_device
  4
Letter_(8.50_x_11.00_Inches)
  6

 40
6.35
 41
6.35
 42
6.35000508
 43
6.35000508
 44
215.9
 45
279.4
 46
0.0
 47
0.0
 48
0.0
 49
0.0
140
0.0
141
0.0
142
1.0
143
1.0
 70
  1712
 72
     1
 73
     0
 74
     0
  7

 75
     0
147
1.0
148
0.0
149
0.0
100
AcDbLayout
  1
Model
 70
     1
 71
     0
 10
0.0
 20
0.0
 11
5250.0
 21
7425.0
 12
0.0
 22
0.0
 32
0.0
 14
0.0
 24
0.0
 34
0.0
 15
5250.0
 25
7425.0
 35
0.0
146
0.0
 13
0.0
 23
0.0
 33
0.0
 16
1.0
 26
0.0
 36
0.0
 17
0.0
 27
1.0
 37
0.0
 76
     0
330
1F
331
29
  0
MLINESTYLE
  5
18
102
{ACAD_REACTORS
330
17
102
}
330
17
100
AcDbMlineStyle
  2
Standard
 70
     0
  3

 62
   256
 51
90.0
 52
90.0
 71
     2
 49
0.5
 62
   256
  6
BYLAYER
 49
-0.5
 62
   256
  6
BYLAYER
  0
ACDBPLACEHOLDER
  5
F
102
{ACAD_REACTORS
330
E
102
}
330
E
  0
SCALE
  5
48
102
{ACAD_REACTORS
330
47
102
}
330
47
100
AcDbScale
 70
     0
300
1:1
140
1.0
141
1.0
290
     1
  0
SCALE
  5
49
102
{ACAD_REACTORS
330
47
102
}
330
47
100
AcDbScale
 70
     0
300
1:2
140
1.0
141
2.0
290
     0
  0
SCALE
  5
4A
102
{ACAD_REACTORS
330
47
102
}
330
47
100
AcDbScale
 70
     0
300
1:4
140
1.0
141
4.0
290
     0
  0
SCALE
  5
4B
102
{ACAD_REACTORS
330
47
102
}
330
47
100
AcDbScale
 70
     0
300
1:5
140
1.0
141
5.0
290
     0
  0
SCALE
  5
4C
102
{ACAD_REACTORS
330
47
102
}
330
47
100
AcDbScale
 70
     0
300
1:8
140
1.0
141
8.0
290
     0
  0
SCALE
  5
4D
102
{ACAD_REACTORS
330
47
102
}
330
47
100
AcDbScale
 70
     0
300
1:10
140
1.0
141
10.0
290
     0
  0
SCALE
  5
4E
102
{ACAD_REACTORS
330
47
102
}
330
47
100
AcDbScale
 70
     0
300
1:16
140
1.0
141
16.0
290
     0
  0
SCALE
  5
4F
102
{ACAD_REACTORS
330
47
102
}
330
47
100
AcDbScale
 70
     0
300
1:20
140
1.0
141
20.0
290
     0
  0
SCALE
  5
50
102
{ACAD_REACTORS
330
47
102
}
330
47
100
AcDbScale
 70
     0
300
1:30
140
1.0
141
30.0
290
     0
  0
SCALE
  5
51
102
{ACAD_REACTORS
330
47
102
}
330
47
100
AcDbScale
 70
     0
300
1:40
140
1.0
141
40.0
290
     0
  0
SCALE
  5
52
102
{ACAD_REACTORS
330
47
102
}
330
47
100
AcDbScale
 70
     0
300
1:50
140
1.0
141
50.0
290
     0
  0
SCALE
  5
53
102
{ACAD_REACTORS
330
47
102
}
330
47
100
AcDbScale
 70
     0
300
1:100
140
1.0
141
100.0
290
     0
  0
SCALE
  5
54
102
{ACAD_REACTORS
330
47
102
}
330
47
100
AcDbScale
 70
     0
300
2:1
140
2.0
141
1.0
290
     0
  0
SCALE
  5
55
102
{ACAD_REACTORS
330
47
102
}
330
47
100
AcDbScale
 70
     0
300
4:1
140
4.0
141
1.0
290
     0
  0
SCALE
  5
56
102
{ACAD_REACTORS
330
47
102
}
330
47
100
AcDbScale
 70
     0
300
8:1
140
8.0
141
1.0
290
     0
  0
SCALE
  5
57
102
{ACAD_REACTORS
330
47
102
}
330
47
100
AcDbScale
 70
     0
300
10:1
140
10.0
141
1.0
290
     0
  0
SCALE
  5
58
102
{ACAD_REACTORS
330
47
102
}
330
47
100
AcDbScale
 70
     0
300
100:1
140
100.0
141
1.0
290
     0
  0
ENDSEC
  0
EOF
