  0
SECTION
  2
HEADER
  9
$ACADVER
  1
AC1015
  9
$ACADMAINTVER
 70
     6
  9
$DWGCODEPAGE
  3
DOS932
  9
$INSBASE
 10
0.0
 20
0.0
 30
0.0
  9
$EXTMIN
 10
0.0
 20
0.0
 30
0.0
  9
$EXTMAX
 10
5250.0
 20
7425.0
 30
0.0
  9
$LIMMIN
 10
0.0
 20
0.0
  9
$LIMMAX
 10
5250.0
 20
7425.0
  9
$ORTHOMODE
 70
     0
  9
$REGENMODE
 70
     1
  9
$FILLMODE
 70
     1
  9
$QTEXTMODE
 70
     0
  9
$MIRRTEXT
 70
     1
  9
$LTSCALE
 40
25.0
  9
$ATTMODE
 70
     1
  9
$TEXTSIZE
 40
70.5555555556
  9
$TRACEWID
 40
1.0
  9
$TEXTSTYLE
  7
Standard
  9
$CLAYER
  8
0
  9
$CELTYPE
  6
ByLayer
  9
$CECOLOR
 62
   256
  9
$CELTSCALE
 40
1.0
  9
$DISPSILH
 70
     0
  9
$DIMSCALE
 40
1.0
  9
$DIMASZ
 40
37.5
  9
$DIMEXO
 40
25.0
  9
$DIMDLI
 40
3.75
  9
$DIMRND
 40
0.0
  9
$DIMDLE
 40
0.0
  9
$DIMEXE
 40
25.0
  9
$DIMTP
 40
0.0
  9
$DIMTM
 40
0.0
  9
$DIMTXT
 40
70.5555555556
  9
$DIMCEN
 40
2.5
  9
$DIMTSZ
 40
0.0
  9
$DIMTOL
 70
     0
  9
$DIMLIM
 70
     0
  9
$DIMTIH
 70
     1
  9
$DIMTOH
 70
     1
  9
$DIMSE1
 70
     0
  9
$DIMSE2
 70
     0
  9
$DIMTAD
 70
     1
  9
$DIMZIN
 70
     0
  9
$DIMBLK
  1

  9
$DIMASO
 70
     1
  9
$DIMSHO
 70
     1
  9
$DIMPOST
  1

  9
$DIMAPOST
  1

  9
$DIMALT
 70
     0
  9
$DIMALTD
 70
     3
  9
$DIMALTF
 40
0.0393700787
  9
$DIMLFAC
 40
1.0
  9
$DIMTOFL
 70
     1
  9
$DIMTVP
 40
0.0
  9
$DIMTIX
 70
     0
  9
$DIMSOXD
 70
     0
  9
$DIMSAH
 70
     0
  9
$DIMBLK1
  1

  9
$DIMBLK2
  1

  9
$DIMSTYLE
  2
ISO-25
  9
$DIMCLRD
 70
     0
  9
$DIMCLRE
 70
     0
  9
$DIMCLRT
 70
     0
  9
$DIMTFAC
 40
1.0
  9
$DIMGAP
 40
38.1
  9
$DIMJUST
 70
     0
  9
$DIMSD1
 70
     0
  9
$DIMSD2
 70
     0
  9
$DIMTOLJ
 70
     0
  9
$DIMTZIN
 70
     0
  9
$DIMALTZ
 70
     0
  9
$DIMALTTZ
 70
     0
  9
$DIMUPT
 70
     0
  9
$DIMDEC
 70
     0
  9
$DIMTDEC
 70
     0
  9
$DIMALTU
 70
     2
  9
$DIMALTTD
 70
     3
  9
$DIMTXSTY
  7
Standard
  9
$DIMAUNIT
 70
     0
  9
$DIMADEC
 70
     2
  9
$DIMALTRND
 40
0.0
  9
$DIMAZIN
 70
     0
  9
$DIMDSEP
 70
    44
  9
$DIMATFIT
 70
     3
  9
$DIMFRAC
 70
     0
  9
$DIMLDRBLK
  1

  9
$DIMLUNIT
 70
     2
  9
$DIMLWD
 70
    -2
  9
$DIMLWE
 70
    -2
  9
$DIMTMOVE
 70
     0
  9
$LUNITS
 70
     2
  9
$LUPREC
 70
     2
  9
$SKETCHINC
 40
1.0
  9
$FILLETRAD
 40
0.0
  9
$AUNITS
 70
     0
  9
$AUPREC
 70
     2
  9
$MENU
  1
.
  9
$ELEVATION
 40
0.0
  9
$PELEVATION
 40
0.0
  9
$THICKNESS
 40
0.0
  9
$LIMCHECK
 70
     0
  9
$CHAMFERA
 40
0.0
  9
$CHAMFERB
 40
0.0
  9
$CHAMFERC
 40
0.0
  9
$CHAMFERD
 40
0.0
  9
$SKPOLY
 70
     0
  9
$TDCREATE
 40
2460174.791467847
  9
$TDUCREATE
 40
2460174.416467847
  9
$TDUPDATE
 40
2460174.791472754
  9
$TDUUPDATE
 40
2460174.416472754
  9
$TDINDWG
 40
0.0000000116
  9
$TDUSRTIMER
 40
0.0000000116
  9
$USRTIMER
 70
     1
  9
$ANGBASE
 50
0.0
  9
$ANGDIR
 70
     0
  9
$PDMODE
 70
     0
  9
$PDSIZE
 40
-1.0
  9
$PLINEWID
 40
0.0
  9
$SPLFRAME
 70
     0
  9
$SPLINETYPE
 70
     6
  9
$SPLINESEGS
 70
     8
  9
$HANDSEED
  5
244
  9
$SURFTAB1
 70
     6
  9
$SURFTAB2
 70
     6
  9
$SURFTYPE
 70
     6
  9
$SURFU
 70
     6
  9
$SURFV
 70
     6
  9
$UCSBASE
  2

  9
$UCSNAME
  2

  9
$UCSORG
 10
0.0
 20
0.0
 30
0.0
  9
$UCSXDIR
 10
1.0
 20
0.0
 30
0.0
  9
$UCSYDIR
 10
0.0
 20
1.0
 30
0.0
  9
$UCSORTHOREF
  2

  9
$UCSORTHOVIEW
 70
     0
  9
$UCSORGTOP
 10
0.0
 20
0.0
 30
0.0
  9
$UCSORGBOTTOM
 10
0.0
 20
0.0
 30
0.0
  9
$UCSORGLEFT
 10
0.0
 20
0.0
 30
0.0
  9
$UCSORGRIGHT
 10
0.0
 20
0.0
 30
0.0
  9
$UCSORGFRONT
 10
0.0
 20
0.0
 30
0.0
  9
$UCSORGBACK
 10
0.0
 20
0.0
 30
0.0
  9
$PUCSBASE
  2

  9
$PUCSNAME
  2

  9
$PUCSORG
 10
0.0
 20
0.0
 30
0.0
  9
$PUCSXDIR
 10
1.0
 20
0.0
 30
0.0
  9
$PUCSYDIR
 10
0.0
 20
1.0
 30
0.0
  9
$PUCSORTHOREF
  2

  9
$PUCSORTHOVIEW
 70
     0
  9
$PUCSORGTOP
 10
0.0
 20
0.0
 30
0.0
  9
$PUCSORGBOTTOM
 10
0.0
 20
0.0
 30
0.0
  9
$PUCSORGLEFT
 10
0.0
 20
0.0
 30
0.0
  9
$PUCSORGRIGHT
 10
0.0
 20
0.0
 30
0.0
  9
$PUCSORGFRONT
 10
0.0
 20
0.0
 30
0.0
  9
$PUCSORGBACK
 10
0.0
 20
0.0
 30
0.0
  9
$USERI1
 70
     0
  9
$USERI2
 70
     0
  9
$USERI3
 70
     0
  9
$USERI4
 70
     0
  9
$USERI5
 70
     0
  9
$USERR1
 40
0.0
  9
$USERR2
 40
0.0
  9
$USERR3
 40
0.0
  9
$USERR4
 40
0.0
  9
$USERR5
 40
0.0
  9
$WORLDVIEW
 70
     1
  9
$SHADEDGE
 70
     3
  9
$SHADEDIF
 70
    70
  9
$TILEMODE
 70
     1
  9
$MAXACTVP
 70
    64
  9
$PINSBASE
 10
0.0
 20
0.0
 30
0.0
  9
$PLIMCHECK
 70
     0
  9
$PEXTMIN
 10
1.0000000000E+20
 20
1.0000000000E+20
 30
1.0000000000E+20
  9
$PEXTMAX
 10
-1.0000000000E+20
 20
-1.0000000000E+20
 30
-1.0000000000E+20
  9
$PLIMMIN
 10
0.0
 20
0.0
  9
$PLIMMAX
 10
420.0
 20
297.0
  9
$UNITMODE
 70
     0
  9
$VISRETAIN
 70
     1
  9
$PLINEGEN
 70
     0
  9
$PSLTSCALE
 70
     1
  9
$TREEDEPTH
 70
  3020
  9
$CMLSTYLE
  2
Standard
  9
$CMLJUST
 70
     0
  9
$CMLSCALE
 40
20.0
  9
$PROXYGRAPHICS
 70
     1
  9
$MEASUREMENT
 70
     1
  9
$CELWEIGHT
370
    -1
  9
$ENDCAPS
280
     0
  9
$JOINSTYLE
280
     0
  9
$LWDISPLAY
290
     1
  9
$INSUNITS
 70
     4
  9
$HYPERLINKBASE
  1

  9
$STYLESHEET
  1

  9
$XEDIT
290
     1
  9
$CEPSNTYPE
380
     0
  9
$PSTYLEMODE
290
     1
  9
$FINGERPRINTGUID
  2
{3f0ae0f8-db03-40da-8a62-995b154c0f9a}
  9
$VERSIONGUID
  2
{FAEB1C32-E019-11D5-929B-00C0DF256EC4}
  9
$EXTNAMES
290
     1
  9
$PSVPSCALE
 40
0.0
  9
$OLESTARTUP
290
     0
  0
ENDSEC
  0
SECTION
  2
CLASSES
  0
CLASS
  1
ACDBDICTIONARYWDFLT
  2
AcDbDictionaryWithDefault
  3
ObjectDBX Classes
 90
        0
280
     0
281
     0
  0
CLASS
  1
VISUALSTYLE
  2
AcDbVisualStyle
  3
ObjectDBX Classes
 90
     4095
280
     0
281
     0
  0
CLASS
  1
MATERIAL
  2
AcDbMaterial
  3
ObjectDBX Classes
 90
     1153
280
     0
281
     0
  0
CLASS
  1
SCALE
  2
AcDbScale
  3
ObjectDBX Classes
 90
     1153
280
     0
281
     0
  0
CLASS
  1
TABLESTYLE
  2
AcDbTableStyle
  3
ObjectDBX Classes
 90
     4095
280
     0
281
     0
  0
CLASS
  1
MLEADERSTYLE
  2
AcDbMLeaderStyle
  3
ACDB_MLEADERSTYLE_CLASS
 90
     4095
280
     0
281
     0
  0
CLASS
  1
SUN
  2
AcDbSun
  3
SCENEOE
 90
     1153
280
     0
281
     0
  0
CLASS
  1
ACDBPLACEHOLDER
  2
AcDbPlaceHolder
  3
ObjectDBX Classes
 90
        0
280
     0
281
     0
  0
CLASS
  1
LAYOUT
  2
AcDbLayout
  3
ObjectDBX Classes
 90
        0
280
     0
281
     0
  0
ENDSEC
  0
SECTION
  2
TABLES
  0
TABLE
  2
VPORT
  5
8
330
0
100
AcDbSymbolTable
 70
     1
  0
VPORT
  5
29
330
8
100
AcDbSymbolTableRecord
100
AcDbViewportTableRecord
  2
*Active
 70
     0
 10
0.0
 20
0.0
 11
1.0
 21
1.0
 12
2625.0
 22
3712.5
 13
0.0
 23
0.0
 14
10.0
 24
10.0
 15
10.0
 25
10.0
 16
0.0
 26
0.0
 36
1.0
 17
0.0
 27
0.0
 37
0.0
 40
7425.0
 41
0.7070707071
 42
50.0
 43
0.0
 44
0.0
 50
0.0
 51
0.0
 71
     0
 72
  2000
 73
     1
 74
     3
 75
     0
 76
     0
 77
     0
 78
     0
281
     0
 65
     1
110
0.0
120
0.0
130
0.0
111
1.0
121
0.0
131
0.0
112
0.0
122
1.0
132
0.0
 79
     0
146
0.0
  0
ENDTAB
  0
TABLE
  2
LTYPE
  5
5
330
0
100
AcDbSymbolTable
 70
     6
  0
LTYPE
  5
14
330
5
100
AcDbSymbolTableRecord
100
AcDbLinetypeTableRecord
  2
ByBlock
 70
     0
  3

 72
    65
 73
     0
 40
0.0
  0
LTYPE
  5
15
330
5
100
AcDbSymbolTableRecord
100
AcDbLinetypeTableRecord
  2
ByLayer
 70
     0
  3

 72
    65
 73
     0
 40
0.0
  0
LTYPE
  5
16
330
5
100
AcDbSymbolTableRecord
100
AcDbLinetypeTableRecord
  2
Continuous
 70
     0
  3
Solid line
 72
    65
 73
     0
 40
0.0
  0
LTYPE
  5
5E
330
5
100
AcDbSymbolTableRecord
100
AcDbLinetypeTableRecord
  2
HIDDEN
 70
     0
  3
Hidden __ __ __ __ __ __ __ __ __ __ __ __ __ __
 72
    65
 73
     2
 40
1.905
 49
1.27
 74
     0
 49
-0.635
 74
     0
  0
LTYPE
  5
5F
330
5
100
AcDbSymbolTableRecord
100
AcDbLinetypeTableRecord
  2
PHANTOM
 70
     0
  3
Phantom ______  __  __  ______  __  __  ______
 72
    65
 73
     6
 40
12.7
 49
6.35
 74
     0
 49
-1.27
 74
     0
 49
1.27
 74
     0
 49
-1.27
 74
     0
 49
1.27
 74
     0
 49
-1.27
 74
     0
  0
LTYPE
  5
60
330
5
100
AcDbSymbolTableRecord
100
AcDbLinetypeTableRecord
  2
CENTER
 70
     0
  3
Center ____ _ ____ _ ____ _ ____ _ ____ _ ____
 72
    65
 73
     4
 40
10.16
 49
6.35
 74
     0
 49
-1.27
 74
     0
 49
1.27
 74
     0
 49
-1.27
 74
     0
  0
LTYPE
  5
61
330
5
100
AcDbSymbolTableRecord
100
AcDbLinetypeTableRecord
  2
CENTERX2
 70
     0
  3
Center (2x) ________  __  ________  __  _____
 72
    65
 73
     4
 40
20.32
 49
12.7
 74
     0
 49
-2.54
 74
     0
 49
2.54
 74
     0
 49
-2.54
 74
     0
  0
LTYPE
  5
62
330
5
100
AcDbSymbolTableRecord
100
AcDbLinetypeTableRecord
  2
DOT2
 70
     0
  3
Dot (.5x) ........................................
 72
    65
 73
     2
 40
0.635
 49
0.0
 74
     0
 49
-0.635
 74
     0
  0
ENDTAB
  0
TABLE
  2
LAYER
  5
2
330
0
100
AcDbSymbolTable
 70
     6
  0
LAYER
  5
10
330
2
100
AcDbSymbolTableRecord
100
AcDbLayerTableRecord
  2
0
 70
     0
 62
     7
  6
Continuous
370
    -3
390
F
  0
LAYER
  5
63
330
2
100
AcDbSymbolTableRecord
100
AcDbLayerTableRecord
  2
1
 70
     0
 62
     4
  6
Continuous
370
    25
390
F
  0
LAYER
  5
64
330
2
100
AcDbSymbolTableRecord
100
AcDbLayerTableRecord
  2
2
 70
     0
 62
     3
  6
CENTERX2
370
    -3
390
F
  0
LAYER
  5
65
330
2
100
AcDbSymbolTableRecord
100
AcDbLayerTableRecord
  2
3
 70
     0
 62
     2
  6
Continuous
370
    -3
390
F
  0
LAYER
  5
66
330
2
100
AcDbSymbolTableRecord
100
AcDbLayerTableRecord
  2
4
 70
     0
 62
     7
  6
Continuous
370
    -3
390
F
  0
LAYER
  5
67
330
2
100
AcDbSymbolTableRecord
100
AcDbLayerTableRecord
  2
基礎穴
 70
     0
 62
     1
  6
PHANTOM
370
    35
390
F
  0
ENDTAB
  0
TABLE
  2
STYLE
  5
3
330
0
100
AcDbSymbolTable
 70
     2
  0
STYLE
  5
11
330
3
100
AcDbSymbolTableRecord
100
AcDbTextStyleTableRecord
  2
Standard
 70
     0
 40
0.0
 41
1.0
 50
0.0
 71
     0
 42
70.5555555556
  3
txt
  4
bigfont
  0
STYLE
  5
68
330
3
100
AcDbSymbolTableRecord
100
AcDbTextStyleTableRecord
  2
SLDTEXTSTYLE0
 70
     0
 40
0.0
 41
0.7
 50
0.0
 71
     0
 42
70.5555555556
  3
TXT
  4
bigfont
  0
ENDTAB
  0
TABLE
  2
VIEW
  5
6
330
0
100
AcDbSymbolTable
 70
     0
  0
ENDTAB
  0
TABLE
  2
UCS
  5
7
330
0
100
AcDbSymbolTable
 70
     0
  0
ENDTAB
  0
TABLE
  2
APPID
  5
9
330
0
100
AcDbSymbolTable
 70
     1
  0
APPID
  5
12
330
9
100
AcDbSymbolTableRecord
100
AcDbRegAppTableRecord
  2
ACAD
 70
     0
  0
ENDTAB
  0
TABLE
  2
DIMSTYLE
  5
A
330
0
100
AcDbSymbolTable
 70
     1
100
AcDbDimStyleTable
  0
DIMSTYLE
105
27
330
A
100
AcDbSymbolTableRecord
100
AcDbDimStyleTableRecord
  2
ISO-25
 70
     0
 41
2.5
 42
0.625
 43
3.75
 44
1.25
 73
     0
 74
     0
 77
     1
 78
     8
140
2.5
141
2.5
143
0.0393700787
147
0.625
171
     3
172
     1
178
     0
271
     2
272
     2
274
     3
278
    44
283
     0
284
     8
340
11
  0
ENDTAB
  0
TABLE
  2
BLOCK_RECORD
  5
1
330
0
100
AcDbSymbolTable
 70
     2
  0
BLOCK_RECORD
  5
1F
330
1
100
AcDbSymbolTableRecord
100
AcDbBlockTableRecord
  2
*Model_Space
340
22
  0
BLOCK_RECORD
  5
1B
330
1
100
AcDbSymbolTableRecord
100
AcDbBlockTableRecord
  2
*Paper_Space
340
1E
  0
BLOCK_RECORD
  5
23
330
1
100
AcDbSymbolTableRecord
100
AcDbBlockTableRecord
  2
*Paper_Space0
340
26
  0
BLOCK_RECORD
  5
DD
330
1
100
AcDbSymbolTableRecord
100
AcDbBlockTableRecord
  2
SW_CENTERMARKSYMBOL_0
340
0
102
{BLKREFS
331
E8
102
}
  0
ENDTAB
  0
ENDSEC
  0
SECTION
  2
BLOCKS
  0
BLOCK
  5
20
330
1F
100
AcDbEntity
  8
0
100
AcDbBlockBegin
  2
*Model_Space
 70
     0
 10
0.0
 20
0.0
 30
0.0
  3
*Model_Space
  1

  0
ENDBLK
  5
21
330
1F
100
AcDbEntity
  8
0
100
AcDbBlockEnd
  0
BLOCK
  5
1C
330
1B
100
AcDbEntity
 67
     1
  8
0
100
AcDbBlockBegin
  2
*Paper_Space
 70
     0
 10
0.0
 20
0.0
 30
0.0
  3
*Paper_Space
  1

  0
ENDBLK
  5
1D
330
1B
100
AcDbEntity
 67
     1
  8
0
100
AcDbBlockEnd
  0
BLOCK
  5
24
330
23
100
AcDbEntity
  8
0
100
AcDbBlockBegin
  2
*Paper_Space0
 70
     0
 10
0.0
 20
0.0
 30
0.0
  3
*Paper_Space0
  1

  0
ENDBLK
  5
25
330
23
100
AcDbEntity
  8
0
100
AcDbBlockEnd
  0
BLOCK
  5
DE
330
DD
100
AcDbEntity
  8
0
100
AcDbBlockBegin
  2
SW_CENTERMARKSYMBOL_0
 70
     0
 10
0.0
 20
0.0
 30
0.0
  3
SW_CENTERMARKSYMBOL_0
  1

  0
LINE
  5
E0
330
DD
100
AcDbEntity
  8
2
 62
     0
100
AcDbLine
 10
0.0
 20
0.0
 30
0.0
 11
0.0
 21
2.5
 31
0.0
  0
LINE
  5
E1
330
DD
100
AcDbEntity
  8
2
 62
     0
100
AcDbLine
 10
0.0
 20
0.0
 30
0.0
 11
-2.5
 21
0.0
 31
0.0
  0
LINE
  5
E2
330
DD
100
AcDbEntity
  8
2
 62
     0
100
AcDbLine
 10
0.0
 20
0.0
 30
0.0
 11
0.0
 21
-2.5
 31
0.0
  0
LINE
  5
E3
330
DD
100
AcDbEntity
  8
2
 62
     0
100
AcDbLine
 10
0.0
 20
0.0
 30
0.0
 11
2.5
 21
0.0
 31
0.0
  0
LINE
  5
E4
330
DD
100
AcDbEntity
  8
2
 62
     0
100
AcDbLine
 10
0.0
 20
5.0
 30
0.0
 11
0.0
 21
612.5
 31
0.0
  0
LINE
  5
E5
330
DD
100
AcDbEntity
  8
2
 62
     0
100
AcDbLine
 10
-5.0
 20
0.0
 30
0.0
 11
-612.5
 21
0.0
 31
0.0
  0
LINE
  5
E6
330
DD
100
AcDbEntity
  8
2
 62
     0
100
AcDbLine
 10
0.0
 20
-5.0
 30
0.0
 11
0.0
 21
-612.5
 31
0.0
  0
LINE
  5
E7
330
DD
100
AcDbEntity
  8
2
 62
     0
100
AcDbLine
 10
5.0
 20
0.0
 30
0.0
 11
612.5
 21
0.0
 31
0.0
  0
ENDBLK
  5
DF
330
DD
100
AcDbEntity
  8
0
100
AcDbBlockEnd
  0
ENDSEC
  0
SECTION
  2
ENTITIES
  0
MTEXT
  5
69
330
1F
100
AcDbEntity
  8
0
  6
Continuous
 62
     7
370
     0
100
AcDbMText
 10
4105.6669293733
 20
1655.7646100524
 30
0.0
 40
70.5555555556
 41
0.0
 71
     1
 72
     1
  1
LL07040YS01K-L3
  7
SLDTEXTSTYLE0
 73
     1
 44
1.0
  0
LINE
  5
6A
330
1F
100
AcDbEntity
  8
1
100
AcDbLine
 10
2594.3505224314
 20
2045.0872456128
 30
0.0
 11
2594.3505224314
 21
1940.0872456128
 31
0.0
  0
LINE
  5
6B
330
1F
100
AcDbEntity
  8
1
100
AcDbLine
 10
2629.3505224314
 20
1940.0872456128
 30
0.0
 11
2629.3505224314
 21
2045.0872456128
 31
0.0
  0
LINE
  5
6C
330
1F
100
AcDbEntity
  8
1
100
AcDbLine
 10
364.3505224314
 20
2045.0872456128
 30
0.0
 11
364.3505224314
 21
1940.0872456128
 31
0.0
  0
LINE
  5
6D
330
1F
100
AcDbEntity
  8
1
100
AcDbLine
 10
399.3505224314
 20
1940.0872456128
 30
0.0
 11
399.3505224314
 21
2045.0872456128
 31
0.0
  0
LINE
  5
6E
330
1F
100
AcDbEntity
  8
1
100
AcDbLine
 10
728.3440763687
 20
2224.1855114297
 30
0.0
 11
2187.3700755119
 21
3123.4140050975
 31
0.0
  0
ARC
  5
6F
330
1F
100
AcDbEntity
  8
1
100
AcDbCircle
 10
616.8505224314
 20
2405.0872456128
 30
0.0
 40
212.5000000000005
100
AcDbArc
 50
129.1575001372
 51
301.6464038688
  0
LINE
  5
70
330
1F
100
AcDbEntity
  8
1
100
AcDbLine
 10
1811.6278736145
 20
3652.0965002296
 30
0.0
 11
482.6664828203
 21
2569.8625274777
 31
0.0
  0
ARC
  5
71
330
1F
100
AcDbEntity
  8
1
100
AcDbCircle
 10
2016.8505224314
 20
3400.0872456128
 30
0.0
 40
325.0000000000008
100
AcDbArc
 50
301.6464038688
 51
129.1575001372
  0
LINE
  5
72
330
1F
100
AcDbEntity
  8
1
100
AcDbLine
 10
841.8505224314
 20
2170.0872456128
 30
0.0
 11
841.8505224314
 21
2225.0872456128
 31
0.0
  0
LINE
  5
73
330
1F
100
AcDbEntity
  8
1
100
AcDbLine
 10
391.8505224314
 20
2170.0872456128
 30
0.0
 11
391.8505224314
 21
2225.0872456128
 31
0.0
  0
LINE
  5
74
330
1F
100
AcDbEntity
  8
1
100
AcDbLine
 10
841.8505224314
 20
2225.0872456128
 30
0.0
 11
729.8071679263
 21
2225.0872456128
 31
0.0
  0
LINE
  5
75
330
1F
100
AcDbEntity
  8
1
100
AcDbLine
 10
503.9069524507
 20
2225.0872456128
 30
0.0
 11
391.8505224314
 21
2225.0872456128
 31
0.0
  0
LINE
  5
76
330
1F
100
AcDbEntity
  8
1
100
AcDbLine
 10
759.8505224314
 20
2225.0872456128
 30
0.0
 11
759.8505224314
 21
2243.0872456128
 31
0.0
  0
LINE
  5
77
330
1F
100
AcDbEntity
  8
1
100
AcDbLine
 10
473.8505224314
 20
2243.0872456128
 30
0.0
 11
473.8505224314
 21
2225.0872456128
 31
0.0
  0
LINE
  5
78
330
1F
100
AcDbEntity
  8
1
100
AcDbLine
 10
479.3287059804
 20
2243.0872456128
 30
0.0
 11
473.8505224314
 21
2243.0872456128
 31
0.0
  0
LINE
  5
79
330
1F
100
AcDbEntity
  8
1
100
AcDbLine
 10
759.8505224314
 20
2243.0872456128
 30
0.0
 11
759.0127237661
 21
2243.0872456128
 31
0.0
  0
LINE
  5
7A
330
1F
100
AcDbEntity
  8
1
100
AcDbLine
 10
2676.8505224315
 20
1875.0872456128
 30
0.0
 11
316.8505224315
 21
1875.0872456128
 31
0.0
  0
LINE
  5
7B
330
1F
100
AcDbEntity
  8
1
100
AcDbLine
 10
316.8505224315
 20
1875.0872456128
 30
0.0
 11
316.8505224315
 21
1881.0872456128
 31
0.0
  0
LINE
  5
7C
330
1F
100
AcDbEntity
  8
1
100
AcDbLine
 10
2676.8505224314
 20
1881.0872456128
 30
0.0
 11
316.8505224315
 21
1881.0872456128
 31
0.0
  0
LINE
  5
7D
330
1F
100
AcDbEntity
  8
1
100
AcDbLine
 10
2676.8505224315
 20
1875.0872456128
 30
0.0
 11
2676.8505224314
 21
1881.0872456128
 31
0.0
  0
LINE
  5
7E
330
1F
100
AcDbEntity
  8
1
100
AcDbLine
 10
316.8505224315
 20
1940.0872456128
 30
0.0
 11
2676.8505224314
 21
1940.0872456128
 31
0.0
  0
LINE
  5
7F
330
1F
100
AcDbEntity
  8
1
100
AcDbLine
 10
2676.8505224314
 20
1934.0872456128
 30
0.0
 11
2676.8505224314
 21
1940.0872456128
 31
0.0
  0
LINE
  5
80
330
1F
100
AcDbEntity
  8
1
100
AcDbLine
 10
316.8505224315
 20
1934.0872456128
 30
0.0
 11
2676.8505224314
 21
1934.0872456128
 31
0.0
  0
LINE
  5
81
330
1F
100
AcDbEntity
  8
1
100
AcDbLine
 10
316.8505224315
 20
1934.0872456128
 30
0.0
 11
316.8505224315
 21
1940.0872456128
 31
0.0
  0
LINE
  5
82
330
1F
100
AcDbEntity
  8
1
100
AcDbLine
 10
2617.8505224315
 20
1881.0872456128
 30
0.0
 11
2617.8505224315
 21
1934.0872456128
 31
0.0
  0
LINE
  5
83
330
1F
100
AcDbEntity
  8
1
100
AcDbLine
 10
375.8505224314
 20
1881.0872456128
 30
0.0
 11
375.8505224314
 21
1934.0872456128
 31
0.0
  0
LINE
  5
84
330
1F
100
AcDbEntity
  8
1
100
AcDbLine
 10
2676.8505224314
 20
2051.0872456128
 30
0.0
 11
2676.8505224314
 21
2045.0872456128
 31
0.0
  0
LINE
  5
85
330
1F
100
AcDbEntity
  8
1
100
AcDbLine
 10
316.8505224314
 20
2045.0872456128
 30
0.0
 11
2676.8505224314
 21
2045.0872456128
 31
0.0
  0
LINE
  5
86
330
1F
100
AcDbEntity
  8
1
100
AcDbLine
 10
316.8505224314
 20
2051.0872456128
 30
0.0
 11
316.8505224314
 21
2045.0872456128
 31
0.0
  0
LINE
  5
87
330
1F
100
AcDbEntity
  8
1
100
AcDbLine
 10
316.8505224314
 20
2051.0872456128
 30
0.0
 11
2676.8505224314
 21
2051.0872456128
 31
0.0
  0
LINE
  5
88
330
1F
100
AcDbEntity
  8
1
100
AcDbLine
 10
316.8505224314
 20
2170.0872456128
 30
0.0
 11
2676.8505224314
 21
2170.0872456128
 31
0.0
  0
LINE
  5
89
330
1F
100
AcDbEntity
  8
1
100
AcDbLine
 10
316.8505224314
 20
2164.0872456128
 30
0.0
 11
2676.8505224314
 21
2164.0872456128
 31
0.0
  0
LINE
  5
8A
330
1F
100
AcDbEntity
  8
1
100
AcDbLine
 10
316.8505224314
 20
2170.0872456128
 30
0.0
 11
316.8505224314
 21
2164.0872456128
 31
0.0
  0
LINE
  5
8B
330
1F
100
AcDbEntity
  8
1
100
AcDbLine
 10
2676.8505224314
 20
2170.0872456128
 30
0.0
 11
2676.8505224314
 21
2164.0872456128
 31
0.0
  0
LINE
  5
8C
330
1F
100
AcDbEntity
  8
1
100
AcDbLine
 10
2617.8505224314
 20
2164.0872456128
 30
0.0
 11
2617.8505224314
 21
2051.0872456128
 31
0.0
  0
LINE
  5
8D
330
1F
100
AcDbEntity
  8
1
100
AcDbLine
 10
375.8505224314
 20
2164.0872456128
 30
0.0
 11
375.8505224314
 21
2051.0872456128
 31
0.0
  0
LINE
  5
8E
330
1F
100
AcDbEntity
  8
1
100
AcDbLine
 10
2772.8505224314
 20
2149.0872456128
 30
0.0
 11
2772.8505224314
 21
3405.0872456128
 31
0.0
  0
LINE
  5
8F
330
1F
100
AcDbEntity
  8
1
100
AcDbLine
 10
2772.8505224314
 20
3405.0872456128
 30
0.0
 11
2776.8505224314
 21
3405.0872456128
 31
0.0
  0
LINE
  5
90
330
1F
100
AcDbEntity
  8
1
100
AcDbLine
 10
2772.8505224314
 20
2149.0872456128
 30
0.0
 11
2776.8505224314
 21
2149.0872456128
 31
0.0
  0
LINE
  5
91
330
1F
100
AcDbEntity
  8
1
100
AcDbLine
 10
2776.8505224314
 20
2149.0872456128
 30
0.0
 11
2776.8505224314
 21
3405.0872456128
 31
0.0
  0
LINE
  5
92
330
1F
100
AcDbEntity
  8
1
100
AcDbLine
 10
2772.8505224314
 20
2200.8394399981
 30
0.0
 11
2004.8588514398
 21
2269.6921264978
 31
0.0
  0
ARC
  5
93
330
1F
100
AcDbEntity
  8
1
100
AcDbCircle
 10
1948.3505224314
 20
3468.5872456128
 30
0.0
 40
738.1000000000004
100
AcDbArc
 50
0.0
 51
90.0
  0
LINE
  5
94
330
1F
100
AcDbEntity
  8
1
100
AcDbLine
 10
2686.4505224314
 20
3468.5872456128
 30
0.0
 11
2686.4505224314
 21
3353.6872456128
 31
0.0
  0
LINE
  5
95
330
1F
100
AcDbEntity
  8
1
100
AcDbLine
 10
2686.4505224314
 20
3353.6872456128
 30
0.0
 11
2772.8505224314
 21
3353.6872456128
 31
0.0
  0
LINE
  5
96
330
1F
100
AcDbEntity
  8
1
100
AcDbLine
 10
1934.8505224314
 20
4206.6872456128
 30
0.0
 11
1948.3505224314
 21
4206.6872456128
 31
0.0
  0
ARC
  5
97
330
1F
100
AcDbEntity
  8
1
100
AcDbCircle
 10
2098.8505224314
 20
3318.0872456128
 30
0.0
 40
1052.600000000001
100
AcDbArc
 50
223.2750336671
 51
264.8769631789
  0
ARC
  5
98
330
1F
100
AcDbEntity
  8
1
100
AcDbCircle
 10
2098.8505224314
 20
3318.0872456128
 30
0.0
 40
1052.600000000001
100
AcDbArc
 50
180.0
 51
194.4265658702
  0
ARC
  5
99
330
1F
100
AcDbEntity
  8
1
100
AcDbCircle
 10
1934.8505224314
 20
3318.0872456128
 30
0.0
 40
888.6000000000004
100
AcDbArc
 50
90.0
 51
180.0
  0
CIRCLE
  5
9A
330
1F
100
AcDbEntity
  8
0
  6
HIDDEN
 62
     7
370
    18
100
AcDbCircle
 10
616.8505224314
 20
2405.0872456128
 30
0.0
 40
24.00000000000011
  0
ARC
  5
9B
330
1F
100
AcDbEntity
  8
0
  6
HIDDEN
 62
     7
370
    18
100
AcDbCircle
 10
616.8505224314
 20
2405.0872456128
 30
0.0
 40
195.5
100
AcDbArc
 50
298.9928373896
 51
241.0071626104
  0
LINE
  5
9C
330
1F
100
AcDbEntity
  8
0
  6
HIDDEN
 62
     7
370
    18
100
AcDbLine
 10
711.6094270262
 20
2234.0872456128
 30
0.0
 11
522.0916178367
 21
2234.0872456128
 31
0.0
  0
LINE
  5
9D
330
1F
100
AcDbEntity
  8
0
  6
HIDDEN
 62
     7
370
    18
100
AcDbLine
 10
729.8071679263
 20
2225.0872456128
 30
0.0
 11
503.9069524507
 21
2225.0872456128
 31
0.0
  0
LINE
  5
9E
330
1F
100
AcDbEntity
  8
0
  6
HIDDEN
 62
     7
370
    18
100
AcDbLine
 10
507.4144680435
 20
2243.0872456128
 30
0.0
 11
479.3287059804
 21
2243.0872456128
 31
0.0
  0
LINE
  5
9F
330
1F
100
AcDbEntity
  8
0
  6
HIDDEN
 62
     7
370
    18
100
AcDbLine
 10
759.0127237661
 20
2243.0872456128
 30
0.0
 11
726.2865768194
 21
2243.0872456128
 31
0.0
  0
CIRCLE
  5
A0
330
1F
100
AcDbEntity
  8
0
  6
HIDDEN
 62
     7
370
    18
100
AcDbCircle
 10
616.8505224314
 20
2405.0872456128
 30
0.0
 40
112.5000000000002
  0
CIRCLE
  5
A1
330
1F
100
AcDbEntity
  8
0
  6
HIDDEN
 62
     7
370
    18
100
AcDbCircle
 10
2016.8505224314
 20
3400.0872456128
 30
0.0
 40
225.0000000000001
  0
LINE
  5
A2
330
1F
100
AcDbEntity
  8
0
  6
HIDDEN
 62
     7
370
    18
100
AcDbLine
 10
381.8505224314
 20
1875.0872456128
 30
0.0
 11
381.8505224315
 21
1940.0872456128
 31
0.0
  0
LINE
  5
A3
330
1F
100
AcDbEntity
  8
0
  6
HIDDEN
 62
     7
370
    18
100
AcDbLine
 10
2611.8505224315
 20
1875.0872456128
 30
0.0
 11
2611.8505224315
 21
1940.0872456128
 31
0.0
  0
LINE
  5
A4
330
1F
100
AcDbEntity
  8
0
  6
HIDDEN
 62
     7
370
    18
100
AcDbLine
 10
2611.8505224314
 20
2170.0872456128
 30
0.0
 11
2611.8505224314
 21
2045.0872456128
 31
0.0
  0
LINE
  5
A5
330
1F
100
AcDbEntity
  8
0
  6
HIDDEN
 62
     7
370
    18
100
AcDbLine
 10
381.8505224314
 20
2170.0872456128
 30
0.0
 11
381.8505224314
 21
2045.0872456128
 31
0.0
  0
ARC
  5
A6
330
1F
100
AcDbEntity
  8
0
  6
HIDDEN
 62
     7
370
    18
100
AcDbCircle
 10
2098.8505224314
 20
3318.0872456128
 30
0.0
 40
1052.600000000001
100
AcDbArc
 50
194.4265658702
 51
223.2750336671
  0
LINE
  5
A7
330
1F
100
AcDbEntity
  8
0
  6
HIDDEN
 62
     7
370
    18
100
AcDbLine
 10
2776.8505224314
 20
2202.0872456128
 30
0.0
 11
2005.0017230658
 21
2271.2857348871
 31
0.0
  0
ARC
  5
A8
330
1F
100
AcDbEntity
  8
0
  6
HIDDEN
 62
     7
370
    18
100
AcDbCircle
 10
1948.3505224314
 20
3468.5872456128
 30
0.0
 40
736.5000000000005
100
AcDbArc
 50
0.0
 51
90.0
  0
LINE
  5
A9
330
1F
100
AcDbEntity
  8
0
  6
HIDDEN
 62
     7
370
    18
100
AcDbLine
 10
2684.8505224314
 20
3468.5872456128
 30
0.0
 11
2684.8505224314
 21
3352.0872456128
 31
0.0
  0
LINE
  5
AA
330
1F
100
AcDbEntity
  8
0
  6
HIDDEN
 62
     7
370
    18
100
AcDbLine
 10
2684.8505224314
 20
3352.0872456128
 30
0.0
 11
2776.8505224314
 21
3352.0872456128
 31
0.0
  0
LINE
  5
AB
330
1F
100
AcDbEntity
  8
0
  6
HIDDEN
 62
     7
370
    18
100
AcDbLine
 10
1934.8505224314
 20
4205.0872456128
 30
0.0
 11
1948.3505224314
 21
4205.0872456128
 31
0.0
  0
ARC
  5
AC
330
1F
100
AcDbEntity
  8
0
  6
HIDDEN
 62
     7
370
    18
100
AcDbCircle
 10
1934.8505224314
 20
3318.0872456128
 30
0.0
 40
887.0000000000007
100
AcDbArc
 50
90.0
 51
180.0
  0
ARC
  5
AD
330
1F
100
AcDbEntity
  8
0
  6
HIDDEN
 62
     7
370
    18
100
AcDbCircle
 10
2098.8505224314
 20
3318.0872456128
 30
0.0
 40
1051.000000000001
100
AcDbArc
 50
180.0
 51
264.8769631789
  0
CIRCLE
  5
AE
330
1F
100
AcDbEntity
  8
0
  6
HIDDEN
 62
     7
370
    18
100
AcDbCircle
 10
2016.8505224314
 20
3400.0872456128
 30
0.0
 40
560.0000000000005
  0
CIRCLE
  5
AF
330
1F
100
AcDbEntity
  8
0
  6
HIDDEN
 62
     7
370
    18
100
AcDbCircle
 10
2016.8505224314
 20
3400.0872456128
 30
0.0
 40
610.0000000000002
  0
CIRCLE
  5
B0
330
1F
100
AcDbEntity
  8
0
  6
HIDDEN
 62
     7
370
    18
100
AcDbCircle
 10
2016.8505224314
 20
3400.0872456128
 30
0.0
 40
562.3000000000004
  0
CIRCLE
  5
B1
330
1F
100
AcDbEntity
  8
0
  6
HIDDEN
 62
     7
370
    18
100
AcDbCircle
 10
2285.8398935271
 20
2872.1658800312
 30
0.0
 40
6.0
  0
CIRCLE
  5
B2
330
1F
100
AcDbEntity
  8
0
  6
HIDDEN
 62
     7
370
    18
100
AcDbCircle
 10
2435.8112902845
 20
2981.1264777598
 30
0.0
 40
6.0
  0
CIRCLE
  5
B3
330
1F
100
AcDbEntity
  8
0
  6
HIDDEN
 62
     7
370
    18
100
AcDbCircle
 10
2544.7718880131
 20
3131.0978745171
 30
0.0
 40
6.0
  0
CIRCLE
  5
B4
330
1F
100
AcDbEntity
  8
0
  6
HIDDEN
 62
     7
370
    18
100
AcDbCircle
 10
2602.0558642341
 20
3307.3998250764
 30
0.0
 40
6.000000000000455
  0
CIRCLE
  5
B5
330
1F
100
AcDbEntity
  8
0
  6
HIDDEN
 62
     7
370
    18
100
AcDbCircle
 10
2602.0558642341
 20
3492.7746661491
 30
0.0
 40
6.0
  0
CIRCLE
  5
B6
330
1F
100
AcDbEntity
  8
0
  6
HIDDEN
 62
     7
370
    18
100
AcDbCircle
 10
2544.7718880131
 20
3669.0766167085
 30
0.0
 40
6.0
  0
CIRCLE
  5
B7
330
1F
100
AcDbEntity
  8
0
  6
HIDDEN
 62
     7
370
    18
100
AcDbCircle
 10
2435.8112902845
 20
3819.0480134658
 30
0.0
 40
6.0
  0
CIRCLE
  5
B8
330
1F
100
AcDbEntity
  8
0
  6
HIDDEN
 62
     7
370
    18
100
AcDbCircle
 10
2285.8398935271
 20
3928.0086111944
 30
0.0
 40
6.0
  0
CIRCLE
  5
B9
330
1F
100
AcDbEntity
  8
0
  6
HIDDEN
 62
     7
370
    18
100
AcDbCircle
 10
2109.5379429678
 20
3985.2925874154
 30
0.0
 40
6.0
  0
CIRCLE
  5
BA
330
1F
100
AcDbEntity
  8
0
  6
HIDDEN
 62
     7
370
    18
100
AcDbCircle
 10
1924.1631018951
 20
3985.2925874154
 30
0.0
 40
6.0
  0
CIRCLE
  5
BB
330
1F
100
AcDbEntity
  8
0
  6
HIDDEN
 62
     7
370
    18
100
AcDbCircle
 10
1747.8611513358
 20
3928.0086111944
 30
0.0
 40
6.0
  0
CIRCLE
  5
BC
330
1F
100
AcDbEntity
  8
0
  6
HIDDEN
 62
     7
370
    18
100
AcDbCircle
 10
1597.8897545784
 20
3819.0480134658
 30
0.0
 40
5.999999999999773
  0
CIRCLE
  5
BD
330
1F
100
AcDbEntity
  8
0
  6
HIDDEN
 62
     7
370
    18
100
AcDbCircle
 10
1488.9291568498
 20
3669.0766167085
 30
0.0
 40
6.0
  0
CIRCLE
  5
BE
330
1F
100
AcDbEntity
  8
0
  6
HIDDEN
 62
     7
370
    18
100
AcDbCircle
 10
1431.6451806288
 20
3492.7746661491
 30
0.0
 40
6.0
  0
CIRCLE
  5
BF
330
1F
100
AcDbEntity
  8
0
  6
HIDDEN
 62
     7
370
    18
100
AcDbCircle
 10
1431.6451806288
 20
3307.3998250764
 30
0.0
 40
6.0
  0
CIRCLE
  5
C0
330
1F
100
AcDbEntity
  8
0
  6
HIDDEN
 62
     7
370
    18
100
AcDbCircle
 10
1488.9291568498
 20
3131.0978745171
 30
0.0
 40
6.0
  0
CIRCLE
  5
C1
330
1F
100
AcDbEntity
  8
0
  6
HIDDEN
 62
     7
370
    18
100
AcDbCircle
 10
1597.8897545784
 20
2981.1264777598
 30
0.0
 40
5.999999999999773
  0
CIRCLE
  5
C2
330
1F
100
AcDbEntity
  8
0
  6
HIDDEN
 62
     7
370
    18
100
AcDbCircle
 10
1747.8611513358
 20
2872.1658800312
 30
0.0
 40
6.0
  0
CIRCLE
  5
C3
330
1F
100
AcDbEntity
  8
0
  6
HIDDEN
 62
     7
370
    18
100
AcDbCircle
 10
1924.1631018951
 20
2814.8819038102
 30
0.0
 40
6.0
  0
CIRCLE
  5
C4
330
1F
100
AcDbEntity
  8
0
  6
HIDDEN
 62
     7
370
    18
100
AcDbCircle
 10
2109.5379429678
 20
2814.8819038102
 30
0.0
 40
6.0
  0
LINE
  5
C5
330
1F
100
AcDbEntity
  8
0
  6
HIDDEN
 62
     7
370
    18
100
AcDbLine
 10
1145.8505224314
 20
1875.0872456128
 30
0.0
 11
1145.8505224314
 21
1881.0872456128
 31
0.0
  0
LINE
  5
C6
330
1F
100
AcDbEntity
  8
0
  6
HIDDEN
 62
     7
370
    18
100
AcDbLine
 10
1127.8505224314
 20
1881.0872456128
 30
0.0
 11
1127.8505224314
 21
1875.0872456128
 31
0.0
  0
LINE
  5
C7
330
1F
100
AcDbEntity
  8
0
  6
HIDDEN
 62
     7
370
    18
100
AcDbLine
 10
425.8505224314
 20
1875.0872456128
 30
0.0
 11
425.8505224314
 21
1881.0872456128
 31
0.0
  0
LINE
  5
C8
330
1F
100
AcDbEntity
  8
0
  6
HIDDEN
 62
     7
370
    18
100
AcDbLine
 10
407.8505224314
 20
1881.0872456128
 30
0.0
 11
407.8505224314
 21
1875.0872456128
 31
0.0
  0
LINE
  5
C9
330
1F
100
AcDbEntity
  8
0
  6
HIDDEN
 62
     7
370
    18
100
AcDbLine
 10
1865.8505224314
 20
1875.0872456128
 30
0.0
 11
1865.8505224314
 21
1881.0872456128
 31
0.0
  0
LINE
  5
CA
330
1F
100
AcDbEntity
  8
0
  6
HIDDEN
 62
     7
370
    18
100
AcDbLine
 10
1847.8505224314
 20
1881.0872456128
 30
0.0
 11
1847.8505224314
 21
1875.0872456128
 31
0.0
  0
LINE
  5
CB
330
1F
100
AcDbEntity
  8
0
  6
HIDDEN
 62
     7
370
    18
100
AcDbLine
 10
2585.8505224314
 20
1875.0872456128
 30
0.0
 11
2585.8505224314
 21
1881.0872456128
 31
0.0
  0
LINE
  5
CC
330
1F
100
AcDbEntity
  8
0
  6
HIDDEN
 62
     7
370
    18
100
AcDbLine
 10
2567.8505224314
 20
1881.0872456128
 30
0.0
 11
2567.8505224314
 21
1875.0872456128
 31
0.0
  0
LINE
  5
CD
330
1F
100
AcDbEntity
  8
0
  6
HIDDEN
 62
     7
370
    18
100
AcDbLine
 10
2776.8505224314
 20
2175.0872456128
 30
0.0
 11
2772.8505224314
 21
2175.0872456128
 31
0.0
  0
LINE
  5
CE
330
1F
100
AcDbEntity
  8
0
  6
HIDDEN
 62
     7
370
    18
100
AcDbLine
 10
2772.8505224314
 20
2163.0872456128
 30
0.0
 11
2776.8505224314
 21
2163.0872456128
 31
0.0
  0
LINE
  5
CF
330
1F
100
AcDbEntity
  8
0
  6
HIDDEN
 62
     7
370
    18
100
AcDbLine
 10
2776.8505224314
 20
2683.0872456128
 30
0.0
 11
2772.8505224314
 21
2683.0872456128
 31
0.0
  0
LINE
  5
D0
330
1F
100
AcDbEntity
  8
0
  6
HIDDEN
 62
     7
370
    18
100
AcDbLine
 10
2772.8505224314
 20
2671.0872456128
 30
0.0
 11
2776.8505224314
 21
2671.0872456128
 31
0.0
  0
LINE
  5
D1
330
1F
100
AcDbEntity
  8
0
  6
HIDDEN
 62
     7
370
    18
100
AcDbLine
 10
2776.8505224314
 20
3391.0872456128
 30
0.0
 11
2772.8505224314
 21
3391.0872456128
 31
0.0
  0
LINE
  5
D2
330
1F
100
AcDbEntity
  8
0
  6
HIDDEN
 62
     7
370
    18
100
AcDbLine
 10
2772.8505224314
 20
3379.0872456128
 30
0.0
 11
2776.8505224314
 21
3379.0872456128
 31
0.0
  0
LINE
  5
D3
330
1F
100
AcDbEntity
  8
0
  6
HIDDEN
 62
     7
370
    18
100
AcDbLine
 10
2776.8505224314
 20
2283.0872456128
 30
0.0
 11
2772.8505224314
 21
2283.0872456128
 31
0.0
  0
LINE
  5
D4
330
1F
100
AcDbEntity
  8
0
  6
HIDDEN
 62
     7
370
    18
100
AcDbLine
 10
2772.8505224314
 20
2271.0872456128
 30
0.0
 11
2776.8505224314
 21
2271.0872456128
 31
0.0
  0
LINE
  5
D5
330
1F
100
AcDbEntity
  8
0
  6
HIDDEN
 62
     7
370
    18
100
AcDbLine
 10
2776.8505224314
 20
3083.0872456128
 30
0.0
 11
2772.8505224314
 21
3083.0872456128
 31
0.0
  0
LINE
  5
D6
330
1F
100
AcDbEntity
  8
0
  6
HIDDEN
 62
     7
370
    18
100
AcDbLine
 10
2772.8505224314
 20
3071.0872456128
 30
0.0
 11
2776.8505224314
 21
3071.0872456128
 31
0.0
  0
LINE
  5
D7
330
1F
100
AcDbEntity
  8
0
  6
HIDDEN
 62
     7
370
    18
100
AcDbLine
 10
2776.8505224314
 20
3283.0872456128
 30
0.0
 11
2772.8505224314
 21
3283.0872456128
 31
0.0
  0
LINE
  5
D8
330
1F
100
AcDbEntity
  8
0
  6
HIDDEN
 62
     7
370
    18
100
AcDbLine
 10
2772.8505224314
 20
3271.0872456128
 30
0.0
 11
2776.8505224314
 21
3271.0872456128
 31
0.0
  0
LINE
  5
D9
330
1F
100
AcDbEntity
  8
0
  6
HIDDEN
 62
     7
370
    18
100
AcDbLine
 10
2776.8505224314
 20
2883.0872456128
 30
0.0
 11
2772.8505224314
 21
2883.0872456128
 31
0.0
  0
LINE
  5
DA
330
1F
100
AcDbEntity
  8
0
  6
HIDDEN
 62
     7
370
    18
100
AcDbLine
 10
2772.8505224314
 20
2871.0872456128
 30
0.0
 11
2776.8505224314
 21
2871.0872456128
 31
0.0
  0
LINE
  5
DB
330
1F
100
AcDbEntity
  8
0
  6
HIDDEN
 62
     7
370
    18
100
AcDbLine
 10
2776.8505224314
 20
2483.0872456128
 30
0.0
 11
2772.8505224314
 21
2483.0872456128
 31
0.0
  0
LINE
  5
DC
330
1F
100
AcDbEntity
  8
0
  6
HIDDEN
 62
     7
370
    18
100
AcDbLine
 10
2772.8505224314
 20
2471.0872456128
 30
0.0
 11
2776.8505224314
 21
2471.0872456128
 31
0.0
  0
INSERT
  5
E8
330
1F
100
AcDbEntity
  8
2
100
AcDbBlockReference
  2
SW_CENTERMARKSYMBOL_0
 10
2016.8505224314
 20
3400.0872456128
 30
0.0
  0
LINE
  5
E9
330
1F
100
AcDbEntity
  8
1
100
AcDbLine
 10
3510.7762022737
 20
3725.0872456128
 30
0.0
 11
3350.7762022737
 21
3725.0872456128
 31
0.0
  0
LINE
  5
EA
330
1F
100
AcDbEntity
  8
1
100
AcDbLine
 10
3350.7762022737
 20
2192.5872456128
 30
0.0
 11
3510.7762022737
 21
2192.5872456128
 31
0.0
  0
LINE
  5
EB
330
1F
100
AcDbEntity
  8
1
100
AcDbLine
 10
3732.7762022737
 20
2600.5872456128
 30
0.0
 11
3578.2762022737
 21
2600.5872456128
 31
0.0
  0
LINE
  5
EC
330
1F
100
AcDbEntity
  8
1
100
AcDbLine
 10
3510.7762022737
 20
2381.0872456128
 30
0.0
 11
3578.2762022737
 21
2381.0872456128
 31
0.0
  0
LINE
  5
ED
330
1F
100
AcDbEntity
  8
1
100
AcDbLine
 10
3578.2762022737
 20
2429.0872456128
 30
0.0
 11
3510.7762022737
 21
2429.0872456128
 31
0.0
  0
LINE
  5
EE
330
1F
100
AcDbEntity
  8
1
100
AcDbLine
 10
4653.7762022737
 20
2045.0872456128
 30
0.0
 11
4653.7762022737
 21
1940.0872456128
 31
0.0
  0
LINE
  5
EF
330
1F
100
AcDbEntity
  8
1
100
AcDbLine
 10
4688.7762022737
 20
1940.0872456128
 30
0.0
 11
4688.7762022737
 21
2045.0872456128
 31
0.0
  0
LINE
  5
F0
330
1F
100
AcDbEntity
  8
1
100
AcDbLine
 10
3538.7762022737
 20
2045.0872456128
 30
0.0
 11
3538.7762022737
 21
1940.0872456128
 31
0.0
  0
LINE
  5
F1
330
1F
100
AcDbEntity
  8
1
100
AcDbLine
 10
3573.7762022737
 20
1940.0872456128
 30
0.0
 11
3573.7762022737
 21
2045.0872456128
 31
0.0
  0
LINE
  5
F2
330
1F
100
AcDbEntity
  8
1
100
AcDbLine
 10
4738.7762022737
 20
4010.0872456128
 30
0.0
 11
4736.4762022737
 21
4010.0872456128
 31
0.0
  0
LINE
  5
F3
330
1F
100
AcDbEntity
  8
1
100
AcDbLine
 10
4736.4762022737
 20
2790.0872456128
 30
0.0
 11
4738.7762022737
 21
2790.0872456128
 31
0.0
  0
LINE
  5
F4
330
1F
100
AcDbEntity
  8
1
100
AcDbLine
 10
4645.7762022737
 20
4010.0872456128
 30
0.0
 11
4638.0762022737
 21
4010.0872456128
 31
0.0
  0
LINE
  5
F5
330
1F
100
AcDbEntity
  8
1
100
AcDbLine
 10
4736.4762022737
 20
3962.3872456128
 30
0.0
 11
4645.7762022737
 21
3962.3872456128
 31
0.0
  0
LINE
  5
F6
330
1F
100
AcDbEntity
  8
1
100
AcDbLine
 10
4688.7762022737
 20
2837.7872456128
 30
0.0
 11
4736.4762022737
 21
2837.7872456128
 31
0.0
  0
LINE
  5
F7
330
1F
100
AcDbEntity
  8
1
100
AcDbLine
 10
3350.7762022737
 20
3123.4140050975
 30
0.0
 11
3350.7762022737
 21
3725.0872456128
 31
0.0
  0
LINE
  5
F8
330
1F
100
AcDbEntity
  8
1
100
AcDbLine
 10
3510.7762022737
 20
3123.4140050975
 30
0.0
 11
3510.7762022737
 21
3725.0872456128
 31
0.0
  0
LINE
  5
F9
330
1F
100
AcDbEntity
  8
1
100
AcDbLine
 10
3350.7762022737
 20
2224.1855114297
 30
0.0
 11
3350.7762022737
 21
3123.4140050975
 31
0.0
  0
LINE
  5
FA
330
1F
100
AcDbEntity
  8
1
100
AcDbLine
 10
3510.7762022737
 20
2224.1855114297
 30
0.0
 11
3510.7762022737
 21
3123.4140050975
 31
0.0
  0
LINE
  5
FB
330
1F
100
AcDbEntity
  8
1
100
AcDbLine
 10
3350.7762022737
 20
2192.5872456128
 30
0.0
 11
3350.7762022737
 21
2224.1855114297
 31
0.0
  0
LINE
  5
FC
330
1F
100
AcDbEntity
  8
1
100
AcDbLine
 10
3510.7762022737
 20
2192.5872456128
 30
0.0
 11
3510.7762022737
 21
2224.1855114297
 31
0.0
  0
LINE
  5
FD
330
1F
100
AcDbEntity
  8
1
100
AcDbLine
 10
3614.7762022737
 20
2170.0872456128
 30
0.0
 11
3614.7762022737
 21
2225.0872456128
 31
0.0
  0
LINE
  5
FE
330
1F
100
AcDbEntity
  8
1
100
AcDbLine
 10
3732.7762022737
 20
2225.0872456128
 30
0.0
 11
3614.7762022737
 21
2225.0872456128
 31
0.0
  0
LINE
  5
FF
330
1F
100
AcDbEntity
  8
1
100
AcDbLine
 10
3657.7762022737
 20
2234.0872456128
 30
0.0
 11
3578.2762022737
 21
2234.0872456128
 31
0.0
  0
LINE
  5
100
330
1F
100
AcDbEntity
  8
1
100
AcDbLine
 10
3578.2762022737
 20
2600.5872456128
 30
0.0
 11
3578.2762022737
 21
2234.0872456128
 31
0.0
  0
LINE
  5
101
330
1F
100
AcDbEntity
  8
1
100
AcDbLine
 10
3657.7762022737
 20
2225.0872456128
 30
0.0
 11
3657.7762022737
 21
2243.0872456128
 31
0.0
  0
LINE
  5
102
330
1F
100
AcDbEntity
  8
1
100
AcDbLine
 10
3657.7762022737
 20
2243.0872456128
 30
0.0
 11
3732.7762022737
 21
2243.0872456128
 31
0.0
  0
LINE
  5
103
330
1F
100
AcDbEntity
  8
1
100
AcDbLine
 10
3523.7762022737
 20
1875.0872456128
 30
0.0
 11
3523.7762022737
 21
1881.0872456128
 31
0.0
  0
LINE
  5
104
330
1F
100
AcDbEntity
  8
1
100
AcDbLine
 10
4703.7762022737
 20
1875.0872456128
 30
0.0
 11
4703.7762022737
 21
1881.0872456128
 31
0.0
  0
LINE
  5
105
330
1F
100
AcDbEntity
  8
1
100
AcDbLine
 10
4703.7762022737
 20
1875.0872456128
 30
0.0
 11
3523.7762022737
 21
1875.0872456128
 31
0.0
  0
LINE
  5
106
330
1F
100
AcDbEntity
  8
1
100
AcDbLine
 10
4703.7762022737
 20
1881.0872456128
 30
0.0
 11
3523.7762022737
 21
1881.0872456128
 31
0.0
  0
LINE
  5
107
330
1F
100
AcDbEntity
  8
1
100
AcDbLine
 10
4703.7762022737
 20
1934.0872456128
 30
0.0
 11
4703.7762022737
 21
1940.0872456128
 31
0.0
  0
LINE
  5
108
330
1F
100
AcDbEntity
  8
1
100
AcDbLine
 10
3523.7762022737
 20
1934.0872456128
 30
0.0
 11
3523.7762022737
 21
1940.0872456128
 31
0.0
  0
LINE
  5
109
330
1F
100
AcDbEntity
  8
1
100
AcDbLine
 10
3523.7762022737
 20
1934.0872456128
 30
0.0
 11
4703.7762022737
 21
1934.0872456128
 31
0.0
  0
LINE
  5
10A
330
1F
100
AcDbEntity
  8
1
100
AcDbLine
 10
3523.7762022737
 20
1940.0872456128
 30
0.0
 11
4703.7762022737
 21
1940.0872456128
 31
0.0
  0
LINE
  5
10B
330
1F
100
AcDbEntity
  8
1
100
AcDbLine
 10
3582.7762022737
 20
1881.0872456128
 30
0.0
 11
3582.7762022737
 21
1934.0872456128
 31
0.0
  0
LINE
  5
10C
330
1F
100
AcDbEntity
  8
1
100
AcDbLine
 10
4644.7762022737
 20
1881.0872456128
 30
0.0
 11
4644.7762022737
 21
1934.0872456128
 31
0.0
  0
LINE
  5
10D
330
1F
100
AcDbEntity
  8
1
100
AcDbLine
 10
4703.7762022737
 20
2051.0872456128
 30
0.0
 11
4703.7762022737
 21
2045.0872456128
 31
0.0
  0
LINE
  5
10E
330
1F
100
AcDbEntity
  8
1
100
AcDbLine
 10
3523.7762022737
 20
2045.0872456128
 30
0.0
 11
4703.7762022737
 21
2045.0872456128
 31
0.0
  0
LINE
  5
10F
330
1F
100
AcDbEntity
  8
1
100
AcDbLine
 10
3523.7762022737
 20
2051.0872456128
 30
0.0
 11
3523.7762022737
 21
2045.0872456128
 31
0.0
  0
LINE
  5
110
330
1F
100
AcDbEntity
  8
1
100
AcDbLine
 10
3523.7762022737
 20
2051.0872456128
 30
0.0
 11
4703.7762022737
 21
2051.0872456128
 31
0.0
  0
LINE
  5
111
330
1F
100
AcDbEntity
  8
1
100
AcDbLine
 10
4703.7762022737
 20
2170.0872456128
 30
0.0
 11
4703.7762022737
 21
2164.0872456128
 31
0.0
  0
LINE
  5
112
330
1F
100
AcDbEntity
  8
1
100
AcDbLine
 10
3523.7762022737
 20
2164.0872456128
 30
0.0
 11
3732.7762022737
 21
2164.0872456128
 31
0.0
  0
LINE
  5
113
330
1F
100
AcDbEntity
  8
1
100
AcDbLine
 10
3749.4595774833
 20
2164.0872456128
 30
0.0
 11
3756.0928270641
 21
2164.0872456128
 31
0.0
  0
LINE
  5
114
330
1F
100
AcDbEntity
  8
1
100
AcDbLine
 10
3907.4595774833
 20
2164.0872456128
 30
0.0
 11
3914.0928270641
 21
2164.0872456128
 31
0.0
  0
LINE
  5
115
330
1F
100
AcDbEntity
  8
1
100
AcDbLine
 10
4107.4595774833
 20
2164.0872456128
 30
0.0
 11
4114.0928270641
 21
2164.0872456128
 31
0.0
  0
LINE
  5
116
330
1F
100
AcDbEntity
  8
1
100
AcDbLine
 10
4307.4595774833
 20
2164.0872456128
 30
0.0
 11
4314.0928270641
 21
2164.0872456128
 31
0.0
  0
LINE
  5
117
330
1F
100
AcDbEntity
  8
1
100
AcDbLine
 10
4507.4595774833
 20
2164.0872456128
 30
0.0
 11
4514.0928270641
 21
2164.0872456128
 31
0.0
  0
LINE
  5
118
330
1F
100
AcDbEntity
  8
1
100
AcDbLine
 10
4665.4595774833
 20
2164.0872456128
 30
0.0
 11
4672.0928270641
 21
2164.0872456128
 31
0.0
  0
LINE
  5
119
330
1F
100
AcDbEntity
  8
1
100
AcDbLine
 10
4688.7762022737
 20
2164.0872456128
 30
0.0
 11
4703.7762022737
 21
2164.0872456128
 31
0.0
  0
LINE
  5
11A
330
1F
100
AcDbEntity
  8
1
100
AcDbLine
 10
3523.7762022737
 20
2170.0872456128
 30
0.0
 11
3523.7762022737
 21
2164.0872456128
 31
0.0
  0
LINE
  5
11B
330
1F
100
AcDbEntity
  8
1
100
AcDbLine
 10
3523.7762022737
 20
2170.0872456128
 30
0.0
 11
3732.7762022737
 21
2170.0872456128
 31
0.0
  0
LINE
  5
11C
330
1F
100
AcDbEntity
  8
1
100
AcDbLine
 10
3746.8601224906
 20
2170.0872456128
 30
0.0
 11
3758.6922820568
 21
2170.0872456128
 31
0.0
  0
LINE
  5
11D
330
1F
100
AcDbEntity
  8
1
100
AcDbLine
 10
3904.8601224906
 20
2170.0872456128
 30
0.0
 11
3916.6922820568
 21
2170.0872456128
 31
0.0
  0
LINE
  5
11E
330
1F
100
AcDbEntity
  8
1
100
AcDbLine
 10
4104.8601224906
 20
2170.0872456128
 30
0.0
 11
4116.6922820568
 21
2170.0872456128
 31
0.0
  0
LINE
  5
11F
330
1F
100
AcDbEntity
  8
1
100
AcDbLine
 10
4304.8601224906
 20
2170.0872456128
 30
0.0
 11
4316.6922820568
 21
2170.0872456128
 31
0.0
  0
LINE
  5
120
330
1F
100
AcDbEntity
  8
1
100
AcDbLine
 10
4504.8601224906
 20
2170.0872456128
 30
0.0
 11
4516.6922820568
 21
2170.0872456128
 31
0.0
  0
LINE
  5
121
330
1F
100
AcDbEntity
  8
1
100
AcDbLine
 10
4662.8601224906
 20
2170.0872456128
 30
0.0
 11
4674.6922820568
 21
2170.0872456128
 31
0.0
  0
LINE
  5
122
330
1F
100
AcDbEntity
  8
1
100
AcDbLine
 10
4688.7762022737
 20
2170.0872456128
 30
0.0
 11
4703.7762022737
 21
2170.0872456128
 31
0.0
  0
LINE
  5
123
330
1F
100
AcDbEntity
  8
1
100
AcDbLine
 10
3582.7762022737
 20
2164.0872456128
 30
0.0
 11
3582.7762022737
 21
2051.0872456128
 31
0.0
  0
LINE
  5
124
330
1F
100
AcDbEntity
  8
1
100
AcDbLine
 10
4644.7762022737
 20
2149.0872456128
 30
0.0
 11
4644.7762022737
 21
2051.0872456128
 31
0.0
  0
CIRCLE
  5
125
330
1F
100
AcDbEntity
  8
1
100
AcDbCircle
 10
3752.7762022737
 20
2169.0872456128
 30
0.0
 40
6.0
  0
CIRCLE
  5
126
330
1F
100
AcDbEntity
  8
1
100
AcDbCircle
 10
3910.7762022737
 20
2169.0872456128
 30
0.0
 40
5.999999999999545
  0
CIRCLE
  5
127
330
1F
100
AcDbEntity
  8
1
100
AcDbCircle
 10
4110.7762022737
 20
2169.0872456128
 30
0.0
 40
6.0
  0
CIRCLE
  5
128
330
1F
100
AcDbEntity
  8
1
100
AcDbCircle
 10
3752.7762022737
 20
2277.0872456128
 30
0.0
 40
6.0
  0
CIRCLE
  5
129
330
1F
100
AcDbEntity
  8
1
100
AcDbCircle
 10
3752.7762022737
 20
2477.0872456128
 30
0.0
 40
6.0
  0
CIRCLE
  5
12A
330
1F
100
AcDbEntity
  8
1
100
AcDbCircle
 10
3752.7762022737
 20
2677.0872456128
 30
0.0
 40
6.0
  0
CIRCLE
  5
12B
330
1F
100
AcDbEntity
  8
1
100
AcDbCircle
 10
4668.7762022737
 20
2677.0872456128
 30
0.0
 40
6.000000000000909
  0
CIRCLE
  5
12C
330
1F
100
AcDbEntity
  8
1
100
AcDbCircle
 10
4668.7762022737
 20
2477.0872456128
 30
0.0
 40
6.000000000000909
  0
CIRCLE
  5
12D
330
1F
100
AcDbEntity
  8
1
100
AcDbCircle
 10
4310.7762022737
 20
2169.0872456128
 30
0.0
 40
6.000000000000909
  0
CIRCLE
  5
12E
330
1F
100
AcDbEntity
  8
1
100
AcDbCircle
 10
4510.7762022737
 20
2169.0872456128
 30
0.0
 40
6.0
  0
CIRCLE
  5
12F
330
1F
100
AcDbEntity
  8
1
100
AcDbCircle
 10
4668.7762022737
 20
2169.0872456128
 30
0.0
 40
6.000000000000909
  0
CIRCLE
  5
130
330
1F
100
AcDbEntity
  8
1
100
AcDbCircle
 10
4668.7762022737
 20
3385.0872456128
 30
0.0
 40
6.000000000000909
  0
CIRCLE
  5
131
330
1F
100
AcDbEntity
  8
1
100
AcDbCircle
 10
4510.7762022737
 20
3385.0872456128
 30
0.0
 40
6.0
  0
CIRCLE
  5
132
330
1F
100
AcDbEntity
  8
1
100
AcDbCircle
 10
4310.7762022737
 20
3385.0872456128
 30
0.0
 40
6.000000000000909
  0
CIRCLE
  5
133
330
1F
100
AcDbEntity
  8
1
100
AcDbCircle
 10
4668.7762022737
 20
3277.0872456128
 30
0.0
 40
6.000000000000909
  0
CIRCLE
  5
134
330
1F
100
AcDbEntity
  8
1
100
AcDbCircle
 10
4668.7762022737
 20
3077.0872456128
 30
0.0
 40
6.000000000000909
  0
CIRCLE
  5
135
330
1F
100
AcDbEntity
  8
1
100
AcDbCircle
 10
4668.7762022737
 20
2877.0872456128
 30
0.0
 40
6.000000000000909
  0
CIRCLE
  5
136
330
1F
100
AcDbEntity
  8
1
100
AcDbCircle
 10
3752.7762022737
 20
2877.0872456128
 30
0.0
 40
6.0
  0
CIRCLE
  5
137
330
1F
100
AcDbEntity
  8
1
100
AcDbCircle
 10
3752.7762022737
 20
3077.0872456128
 30
0.0
 40
6.0
  0
CIRCLE
  5
138
330
1F
100
AcDbEntity
  8
1
100
AcDbCircle
 10
3752.7762022737
 20
3277.0872456128
 30
0.0
 40
6.0
  0
CIRCLE
  5
139
330
1F
100
AcDbEntity
  8
1
100
AcDbCircle
 10
3910.7762022737
 20
3385.0872456128
 30
0.0
 40
5.999999999999545
  0
CIRCLE
  5
13A
330
1F
100
AcDbEntity
  8
1
100
AcDbCircle
 10
3752.7762022737
 20
3385.0872456128
 30
0.0
 40
6.0
  0
LINE
  5
13B
330
1F
100
AcDbEntity
  8
1
100
AcDbLine
 10
3732.7762022737
 20
3405.0872456128
 30
0.0
 11
4688.7762022737
 21
3405.0872456128
 31
0.0
  0
LINE
  5
13C
330
1F
100
AcDbEntity
  8
1
100
AcDbLine
 10
4688.7762022737
 20
3405.0872456128
 30
0.0
 11
4688.7762022737
 21
2149.0872456128
 31
0.0
  0
LINE
  5
13D
330
1F
100
AcDbEntity
  8
1
100
AcDbLine
 10
4688.7762022737
 20
2149.0872456128
 30
0.0
 11
3732.7762022737
 21
2149.0872456128
 31
0.0
  0
LINE
  5
13E
330
1F
100
AcDbEntity
  8
1
100
AcDbLine
 10
3732.7762022737
 20
2149.0872456128
 30
0.0
 11
3732.7762022737
 21
3405.0872456128
 31
0.0
  0
LINE
  5
13F
330
1F
100
AcDbEntity
  8
1
100
AcDbLine
 10
3785.7762022737
 20
3352.0872456128
 30
0.0
 11
4635.7762022737
 21
3352.0872456128
 31
0.0
  0
LINE
  5
140
330
1F
100
AcDbEntity
  8
1
100
AcDbLine
 10
3785.7762022737
 20
3352.0872456128
 30
0.0
 11
3785.7762022737
 21
2202.0872456128
 31
0.0
  0
LINE
  5
141
330
1F
100
AcDbEntity
  8
1
100
AcDbLine
 10
3785.7762022737
 20
2202.0872456128
 30
0.0
 11
4635.7762022737
 21
2202.0872456128
 31
0.0
  0
LINE
  5
142
330
1F
100
AcDbEntity
  8
1
100
AcDbLine
 10
4635.7762022737
 20
3352.0872456128
 30
0.0
 11
4635.7762022737
 21
2202.0872456128
 31
0.0
  0
CIRCLE
  5
143
330
1F
100
AcDbEntity
  8
1
100
AcDbCircle
 10
4110.7762022737
 20
3385.0872456128
 30
0.0
 40
6.0
  0
CIRCLE
  5
144
330
1F
100
AcDbEntity
  8
1
100
AcDbCircle
 10
4668.7762022737
 20
2277.0872456128
 30
0.0
 40
6.000000000000909
  0
LINE
  5
145
330
1F
100
AcDbEntity
  8
1
100
AcDbLine
 10
3783.4762022737
 20
4206.6872456128
 30
0.0
 11
4638.0762022737
 21
4206.6872456128
 31
0.0
  0
LINE
  5
146
330
1F
100
AcDbEntity
  8
1
100
AcDbLine
 10
3783.4762022737
 20
4206.6872456128
 30
0.0
 11
3783.4762022737
 21
3468.5872456128
 31
0.0
  0
LINE
  5
147
330
1F
100
AcDbEntity
  8
1
100
AcDbLine
 10
4638.0762022737
 20
4206.6872456128
 30
0.0
 11
4638.0762022737
 21
3468.5872456128
 31
0.0
  0
LINE
  5
148
330
1F
100
AcDbEntity
  8
1
100
AcDbLine
 10
3783.4762022737
 20
3468.5872456128
 30
0.0
 11
3783.4762022737
 21
3405.0872456128
 31
0.0
  0
LINE
  5
149
330
1F
100
AcDbEntity
  8
1
100
AcDbLine
 10
4638.0762022737
 20
3468.5872456128
 30
0.0
 11
4638.0762022737
 21
3405.0872456128
 31
0.0
  0
LINE
  5
14A
330
1F
100
AcDbEntity
  8
1
100
AcDbLine
 10
4736.4762022737
 20
2790.0872456128
 30
0.0
 11
4736.4762022737
 21
4010.0872456128
 31
0.0
  0
LINE
  5
14B
330
1F
100
AcDbEntity
  8
1
100
AcDbLine
 10
4738.7762022737
 20
2790.0872456128
 30
0.0
 11
4738.7762022737
 21
4010.0872456128
 31
0.0
  0
LINE
  5
14C
330
1F
100
AcDbEntity
  8
1
100
AcDbLine
 10
4645.7762022737
 20
4010.0872456128
 30
0.0
 11
4645.7762022737
 21
3405.0872456128
 31
0.0
  0
LINE
  5
14D
330
1F
100
AcDbEntity
  8
0
  6
HIDDEN
 62
     7
370
    18
100
AcDbLine
 10
4024.7762022737
 20
2170.0872456128
 30
0.0
 11
4024.7762022737
 21
2225.0872456128
 31
0.0
  0
LINE
  5
14E
330
1F
100
AcDbEntity
  8
0
  6
HIDDEN
 62
     7
370
    18
100
AcDbLine
 10
4024.7762022737
 20
2225.0872456128
 30
0.0
 11
3732.7762022737
 21
2225.0872456128
 31
0.0
  0
LINE
  5
14F
330
1F
100
AcDbEntity
  8
0
  6
HIDDEN
 62
     7
370
    18
100
AcDbLine
 10
4133.2762022737
 20
2234.0872456128
 30
0.0
 11
4133.2762022737
 21
2600.5872456128
 31
0.0
  0
LINE
  5
150
330
1F
100
AcDbEntity
  8
0
  6
HIDDEN
 62
     7
370
    18
100
AcDbLine
 10
4133.2762022737
 20
2234.0872456128
 30
0.0
 11
3981.7762022737
 21
2234.0872456128
 31
0.0
  0
LINE
  5
151
330
1F
100
AcDbEntity
  8
0
  6
HIDDEN
 62
     7
370
    18
100
AcDbLine
 10
3981.7762022737
 20
2225.0872456128
 30
0.0
 11
3981.7762022737
 21
2243.0872456128
 31
0.0
  0
LINE
  5
152
330
1F
100
AcDbEntity
  8
0
  6
HIDDEN
 62
     7
370
    18
100
AcDbLine
 10
3732.7762022737
 20
2243.0872456128
 30
0.0
 11
3981.7762022737
 21
2243.0872456128
 31
0.0
  0
LINE
  5
153
330
1F
100
AcDbEntity
  8
0
  6
HIDDEN
 62
     7
370
    18
100
AcDbLine
 10
3393.2762022737
 20
2293.106482561
 30
0.0
 11
3393.2762022737
 21
2292.5872456128
 31
0.0
  0
LINE
  5
154
330
1F
100
AcDbEntity
  8
0
  6
HIDDEN
 62
     7
370
    18
100
AcDbLine
 10
3393.2762022737
 20
2517.5872456128
 30
0.0
 11
3393.2762022737
 21
2293.106482561
 31
0.0
  0
LINE
  5
155
330
1F
100
AcDbEntity
  8
0
  6
HIDDEN
 62
     7
370
    18
100
AcDbLine
 10
3468.2762022737
 20
2293.106482561
 30
0.0
 11
3468.2762022737
 21
2292.5872456128
 31
0.0
  0
LINE
  5
156
330
1F
100
AcDbEntity
  8
0
  6
HIDDEN
 62
     7
370
    18
100
AcDbLine
 10
3468.2762022737
 20
2517.5872456128
 30
0.0
 11
3468.2762022737
 21
2293.106482561
 31
0.0
  0
LINE
  5
157
330
1F
100
AcDbEntity
  8
0
  6
HIDDEN
 62
     7
370
    18
100
AcDbLine
 10
3393.2762022737
 20
3624.1220238847
 30
0.0
 11
3393.2762022737
 21
3175.0872456128
 31
0.0
  0
LINE
  5
158
330
1F
100
AcDbEntity
  8
0
  6
HIDDEN
 62
     7
370
    18
100
AcDbLine
 10
3393.2762022737
 20
3625.0872456128
 30
0.0
 11
3393.2762022737
 21
3624.1220238847
 31
0.0
  0
LINE
  5
159
330
1F
100
AcDbEntity
  8
0
  6
HIDDEN
 62
     7
370
    18
100
AcDbLine
 10
3468.2762022737
 20
3624.1220238847
 30
0.0
 11
3468.2762022737
 21
3175.0872456128
 31
0.0
  0
LINE
  5
15A
330
1F
100
AcDbEntity
  8
0
  6
HIDDEN
 62
     7
370
    18
100
AcDbLine
 10
3468.2762022737
 20
3625.0872456128
 30
0.0
 11
3468.2762022737
 21
3624.1220238847
 31
0.0
  0
LINE
  5
15B
330
1F
100
AcDbEntity
  8
0
  6
HIDDEN
 62
     7
370
    18
100
AcDbLine
 10
4638.7762022737
 20
1875.0872456128
 30
0.0
 11
4638.7762022737
 21
1940.0872456128
 31
0.0
  0
LINE
  5
15C
330
1F
100
AcDbEntity
  8
0
  6
HIDDEN
 62
     7
370
    18
100
AcDbLine
 10
3588.7762022737
 20
1875.0872456128
 30
0.0
 11
3588.7762022737
 21
1940.0872456128
 31
0.0
  0
LINE
  5
15D
330
1F
100
AcDbEntity
  8
0
  6
HIDDEN
 62
     7
370
    18
100
AcDbLine
 10
3732.7762022737
 20
2164.0872456128
 30
0.0
 11
3749.4595774833
 21
2164.0872456128
 31
0.0
  0
LINE
  5
15E
330
1F
100
AcDbEntity
  8
0
  6
HIDDEN
 62
     7
370
    18
100
AcDbLine
 10
3756.0928270641
 20
2164.0872456128
 30
0.0
 11
3907.4595774833
 21
2164.0872456128
 31
0.0
  0
LINE
  5
15F
330
1F
100
AcDbEntity
  8
0
  6
HIDDEN
 62
     7
370
    18
100
AcDbLine
 10
3914.0928270641
 20
2164.0872456128
 30
0.0
 11
4107.4595774833
 21
2164.0872456128
 31
0.0
  0
LINE
  5
160
330
1F
100
AcDbEntity
  8
0
  6
HIDDEN
 62
     7
370
    18
100
AcDbLine
 10
4114.0928270641
 20
2164.0872456128
 30
0.0
 11
4307.4595774833
 21
2164.0872456128
 31
0.0
  0
LINE
  5
161
330
1F
100
AcDbEntity
  8
0
  6
HIDDEN
 62
     7
370
    18
100
AcDbLine
 10
4314.0928270641
 20
2164.0872456128
 30
0.0
 11
4507.4595774833
 21
2164.0872456128
 31
0.0
  0
LINE
  5
162
330
1F
100
AcDbEntity
  8
0
  6
HIDDEN
 62
     7
370
    18
100
AcDbLine
 10
4514.0928270641
 20
2164.0872456128
 30
0.0
 11
4665.4595774833
 21
2164.0872456128
 31
0.0
  0
LINE
  5
163
330
1F
100
AcDbEntity
  8
0
  6
HIDDEN
 62
     7
370
    18
100
AcDbLine
 10
4672.0928270641
 20
2164.0872456128
 30
0.0
 11
4688.7762022737
 21
2164.0872456128
 31
0.0
  0
LINE
  5
164
330
1F
100
AcDbEntity
  8
0
  6
HIDDEN
 62
     7
370
    18
100
AcDbLine
 10
3732.7762022737
 20
2170.0872456128
 30
0.0
 11
3746.8601224906
 21
2170.0872456128
 31
0.0
  0
LINE
  5
165
330
1F
100
AcDbEntity
  8
0
  6
HIDDEN
 62
     7
370
    18
100
AcDbLine
 10
3758.6922820568
 20
2170.0872456128
 30
0.0
 11
3904.8601224906
 21
2170.0872456128
 31
0.0
  0
LINE
  5
166
330
1F
100
AcDbEntity
  8
0
  6
HIDDEN
 62
     7
370
    18
100
AcDbLine
 10
3916.6922820568
 20
2170.0872456128
 30
0.0
 11
4104.8601224906
 21
2170.0872456128
 31
0.0
  0
LINE
  5
167
330
1F
100
AcDbEntity
  8
0
  6
HIDDEN
 62
     7
370
    18
100
AcDbLine
 10
4116.6922820568
 20
2170.0872456128
 30
0.0
 11
4304.8601224906
 21
2170.0872456128
 31
0.0
  0
LINE
  5
168
330
1F
100
AcDbEntity
  8
0
  6
HIDDEN
 62
     7
370
    18
100
AcDbLine
 10
4316.6922820568
 20
2170.0872456128
 30
0.0
 11
4504.8601224906
 21
2170.0872456128
 31
0.0
  0
LINE
  5
169
330
1F
100
AcDbEntity
  8
0
  6
HIDDEN
 62
     7
370
    18
100
AcDbLine
 10
4516.6922820568
 20
2170.0872456128
 30
0.0
 11
4662.8601224906
 21
2170.0872456128
 31
0.0
  0
LINE
  5
16A
330
1F
100
AcDbEntity
  8
0
  6
HIDDEN
 62
     7
370
    18
100
AcDbLine
 10
4674.6922820568
 20
2170.0872456128
 30
0.0
 11
4688.7762022737
 21
2170.0872456128
 31
0.0
  0
LINE
  5
16B
330
1F
100
AcDbEntity
  8
0
  6
HIDDEN
 62
     7
370
    18
100
AcDbLine
 10
4644.7762022737
 20
2164.0872456128
 30
0.0
 11
4644.7762022737
 21
2149.0872456128
 31
0.0
  0
LINE
  5
16C
330
1F
100
AcDbEntity
  8
0
  6
HIDDEN
 62
     7
370
    18
100
AcDbLine
 10
4638.7762022737
 20
2170.0872456128
 30
0.0
 11
4638.7762022737
 21
2045.0872456128
 31
0.0
  0
LINE
  5
16D
330
1F
100
AcDbEntity
  8
0
  6
HIDDEN
 62
     7
370
    18
100
AcDbLine
 10
3588.7762022737
 20
2170.0872456128
 30
0.0
 11
3588.7762022737
 21
2045.0872456128
 31
0.0
  0
LINE
  5
16E
330
1F
100
AcDbEntity
  8
0
  6
HIDDEN
 62
     7
370
    18
100
AcDbLine
 10
4638.0762022737
 20
2200.8394399981
 30
0.0
 11
3783.4762022737
 21
2200.8394399981
 31
0.0
  0
LINE
  5
16F
330
1F
100
AcDbEntity
  8
0
  6
HIDDEN
 62
     7
370
    18
100
AcDbLine
 10
4638.0762022737
 20
2200.8394399981
 30
0.0
 11
4638.0762022737
 21
3353.6872456128
 31
0.0
  0
LINE
  5
170
330
1F
100
AcDbEntity
  8
0
  6
HIDDEN
 62
     7
370
    18
100
AcDbLine
 10
3783.4762022737
 20
3353.6872456128
 30
0.0
 11
4638.0762022737
 21
3353.6872456128
 31
0.0
  0
LINE
  5
171
330
1F
100
AcDbEntity
  8
0
  6
HIDDEN
 62
     7
370
    18
100
AcDbLine
 10
3783.4762022737
 20
2200.8394399981
 30
0.0
 11
3783.4762022737
 21
3353.6872456128
 31
0.0
  0
LINE
  5
172
330
1F
100
AcDbEntity
  8
0
  6
HIDDEN
 62
     7
370
    18
100
AcDbLine
 10
3783.4762022737
 20
3405.0872456128
 30
0.0
 11
3783.4762022737
 21
3353.6872456128
 31
0.0
  0
LINE
  5
173
330
1F
100
AcDbEntity
  8
0
  6
HIDDEN
 62
     7
370
    18
100
AcDbLine
 10
4638.0762022737
 20
3405.0872456128
 30
0.0
 11
4638.0762022737
 21
3353.6872456128
 31
0.0
  0
LINE
  5
174
330
1F
100
AcDbEntity
  8
0
  6
HIDDEN
 62
     7
370
    18
100
AcDbLine
 10
3785.7762022737
 20
4205.0872456128
 30
0.0
 11
4635.7762022737
 21
4205.0872456128
 31
0.0
  0
LINE
  5
175
330
1F
100
AcDbEntity
  8
0
  6
HIDDEN
 62
     7
370
    18
100
AcDbLine
 10
3785.7762022737
 20
4205.0872456128
 30
0.0
 11
3785.7762022737
 21
3468.5872456128
 31
0.0
  0
LINE
  5
176
330
1F
100
AcDbEntity
  8
0
  6
HIDDEN
 62
     7
370
    18
100
AcDbLine
 10
4635.7762022737
 20
4205.0872456128
 30
0.0
 11
4635.7762022737
 21
3468.5872456128
 31
0.0
  0
LINE
  5
177
330
1F
100
AcDbEntity
  8
0
  6
HIDDEN
 62
     7
370
    18
100
AcDbLine
 10
3785.7762022737
 20
3468.5872456128
 30
0.0
 11
3785.7762022737
 21
3352.0872456128
 31
0.0
  0
LINE
  5
178
330
1F
100
AcDbEntity
  8
0
  6
HIDDEN
 62
     7
370
    18
100
AcDbLine
 10
4635.7762022737
 20
3468.5872456128
 30
0.0
 11
4635.7762022737
 21
3352.0872456128
 31
0.0
  0
LINE
  5
179
330
1F
100
AcDbEntity
  8
0
  6
HIDDEN
 62
     7
370
    18
100
AcDbLine
 10
4645.7762022737
 20
3405.0872456128
 30
0.0
 11
4645.7762022737
 21
2790.0872456128
 31
0.0
  0
LINE
  5
17A
330
1F
100
AcDbEntity
  8
0
  6
HIDDEN
 62
     7
370
    18
100
AcDbLine
 10
4133.2762022737
 20
2600.5872456128
 30
0.0
 11
3732.7762022737
 21
2600.5872456128
 31
0.0
  0
LINE
  5
17B
330
1F
100
AcDbEntity
  8
0
  6
HIDDEN
 62
     7
370
    18
100
AcDbLine
 10
3468.2762022737
 20
2381.0872456128
 30
0.0
 11
3510.7762022737
 21
2381.0872456128
 31
0.0
  0
LINE
  5
17C
330
1F
100
AcDbEntity
  8
0
  6
HIDDEN
 62
     7
370
    18
100
AcDbLine
 10
3510.7762022737
 20
2429.0872456128
 30
0.0
 11
3468.2762022737
 21
2429.0872456128
 31
0.0
  0
LINE
  5
17D
330
1F
100
AcDbEntity
  8
0
  6
HIDDEN
 62
     7
370
    18
100
AcDbLine
 10
3393.2762022737
 20
2292.5872456128
 30
0.0
 11
3468.2762022737
 21
2292.5872456128
 31
0.0
  0
LINE
  5
17E
330
1F
100
AcDbEntity
  8
0
  6
HIDDEN
 62
     7
370
    18
100
AcDbLine
 10
3468.2762022737
 20
2517.5872456128
 30
0.0
 11
3393.2762022737
 21
2517.5872456128
 31
0.0
  0
LINE
  5
17F
330
1F
100
AcDbEntity
  8
0
  6
HIDDEN
 62
     7
370
    18
100
AcDbLine
 10
3393.2762022737
 20
3175.0872456128
 30
0.0
 11
3468.2762022737
 21
3175.0872456128
 31
0.0
  0
LINE
  5
180
330
1F
100
AcDbEntity
  8
0
  6
HIDDEN
 62
     7
370
    18
100
AcDbLine
 10
3468.2762022737
 20
3625.0872456128
 30
0.0
 11
3393.2762022737
 21
3625.0872456128
 31
0.0
  0
LINE
  5
181
330
1F
100
AcDbEntity
  8
0
  6
HIDDEN
 62
     7
370
    18
100
AcDbLine
 10
4682.7762022737
 20
1875.0872456128
 30
0.0
 11
4682.7762022737
 21
1881.0872456128
 31
0.0
  0
LINE
  5
182
330
1F
100
AcDbEntity
  8
0
  6
HIDDEN
 62
     7
370
    18
100
AcDbLine
 10
4664.7762022737
 20
1881.0872456128
 30
0.0
 11
4664.7762022737
 21
1875.0872456128
 31
0.0
  0
LINE
  5
183
330
1F
100
AcDbEntity
  8
0
  6
HIDDEN
 62
     7
370
    18
100
AcDbLine
 10
3562.7762022737
 20
1875.0872456128
 30
0.0
 11
3562.7762022737
 21
1881.0872456128
 31
0.0
  0
LINE
  5
184
330
1F
100
AcDbEntity
  8
0
  6
HIDDEN
 62
     7
370
    18
100
AcDbLine
 10
3544.7762022737
 20
1881.0872456128
 30
0.0
 11
3544.7762022737
 21
1875.0872456128
 31
0.0
  0
LINE
  5
185
330
1F
100
AcDbEntity
  8
0
  6
HIDDEN
 62
     7
370
    18
100
AcDbLine
 10
4638.0762022737
 20
2790.0872456128
 30
0.0
 11
4645.7762022737
 21
2790.0872456128
 31
0.0
  0
LINE
  5
186
330
1F
100
AcDbEntity
  8
0
  6
HIDDEN
 62
     7
370
    18
100
AcDbLine
 10
4738.7762022737
 20
3498.7746661491
 30
0.0
 11
4736.4762022737
 21
3498.7746661491
 31
0.0
  0
LINE
  5
187
330
1F
100
AcDbEntity
  8
0
  6
HIDDEN
 62
     7
370
    18
100
AcDbLine
 10
4736.4762022737
 20
3486.7746661491
 30
0.0
 11
4738.7762022737
 21
3486.7746661491
 31
0.0
  0
LINE
  5
188
330
1F
100
AcDbEntity
  8
0
  6
HIDDEN
 62
     7
370
    18
100
AcDbLine
 10
4738.7762022737
 20
3313.3998250764
 30
0.0
 11
4736.4762022737
 21
3313.3998250764
 31
0.0
  0
LINE
  5
189
330
1F
100
AcDbEntity
  8
0
  6
HIDDEN
 62
     7
370
    18
100
AcDbLine
 10
4736.4762022737
 20
3301.3998250764
 30
0.0
 11
4738.7762022737
 21
3301.3998250764
 31
0.0
  0
LINE
  5
18A
330
1F
100
AcDbEntity
  8
0
  6
HIDDEN
 62
     7
370
    18
100
AcDbLine
 10
4645.7762022737
 20
2837.7872456128
 30
0.0
 11
4688.7762022737
 21
2837.7872456128
 31
0.0
  0
LINE
  5
18B
330
1F
100
AcDbEntity
  8
0
  6
HIDDEN
 62
     7
370
    18
100
AcDbLine
 10
4635.7762022737
 20
2840.0872456128
 30
0.0
 11
4738.7762022737
 21
2840.0872456128
 31
0.0
  0
LINE
  5
18C
330
1F
100
AcDbEntity
  8
0
  6
HIDDEN
 62
     7
370
    18
100
AcDbLine
 10
4738.7762022737
 20
3960.0872456128
 30
0.0
 11
4635.7762022737
 21
3960.0872456128
 31
0.0
  0
LINE
  5
18D
330
1F
100
AcDbEntity
  8
0
  6
HIDDEN
 62
     7
370
    18
100
AcDbLine
 10
4738.7762022737
 20
3137.0978745171
 30
0.0
 11
4736.4762022737
 21
3137.0978745171
 31
0.0
  0
LINE
  5
18E
330
1F
100
AcDbEntity
  8
0
  6
HIDDEN
 62
     7
370
    18
100
AcDbLine
 10
4736.4762022737
 20
3125.0978745171
 30
0.0
 11
4738.7762022737
 21
3125.0978745171
 31
0.0
  0
LINE
  5
18F
330
1F
100
AcDbEntity
  8
0
  6
HIDDEN
 62
     7
370
    18
100
AcDbLine
 10
4738.7762022737
 20
3675.0766167085
 30
0.0
 11
4736.4762022737
 21
3675.0766167085
 31
0.0
  0
LINE
  5
190
330
1F
100
AcDbEntity
  8
0
  6
HIDDEN
 62
     7
370
    18
100
AcDbLine
 10
4736.4762022737
 20
3663.0766167085
 30
0.0
 11
4738.7762022737
 21
3663.0766167085
 31
0.0
  0
LINE
  5
191
330
1F
100
AcDbEntity
  8
0
  6
HIDDEN
 62
     7
370
    18
100
AcDbLine
 10
4738.7762022737
 20
2987.1264777598
 30
0.0
 11
4736.4762022737
 21
2987.1264777598
 31
0.0
  0
LINE
  5
192
330
1F
100
AcDbEntity
  8
0
  6
HIDDEN
 62
     7
370
    18
100
AcDbLine
 10
4736.4762022737
 20
2975.1264777598
 30
0.0
 11
4738.7762022737
 21
2975.1264777598
 31
0.0
  0
LINE
  5
193
330
1F
100
AcDbEntity
  8
0
  6
HIDDEN
 62
     7
370
    18
100
AcDbLine
 10
4738.7762022737
 20
3825.0480134658
 30
0.0
 11
4736.4762022737
 21
3825.0480134658
 31
0.0
  0
LINE
  5
194
330
1F
100
AcDbEntity
  8
0
  6
HIDDEN
 62
     7
370
    18
100
AcDbLine
 10
4736.4762022737
 20
3813.0480134658
 30
0.0
 11
4738.7762022737
 21
3813.0480134658
 31
0.0
  0
LINE
  5
195
330
1F
100
AcDbEntity
  8
0
  6
HIDDEN
 62
     7
370
    18
100
AcDbLine
 10
4738.7762022737
 20
3934.0086111944
 30
0.0
 11
4736.4762022737
 21
3934.0086111944
 31
0.0
  0
LINE
  5
196
330
1F
100
AcDbEntity
  8
0
  6
HIDDEN
 62
     7
370
    18
100
AcDbLine
 10
4736.4762022737
 20
3922.0086111944
 30
0.0
 11
4738.7762022737
 21
3922.0086111944
 31
0.0
  0
LINE
  5
197
330
1F
100
AcDbEntity
  8
0
  6
HIDDEN
 62
     7
370
    18
100
AcDbLine
 10
4738.7762022737
 20
2878.1658800312
 30
0.0
 11
4736.4762022737
 21
2878.1658800312
 31
0.0
  0
LINE
  5
198
330
1F
100
AcDbEntity
  8
0
  6
HIDDEN
 62
     7
370
    18
100
AcDbLine
 10
4736.4762022737
 20
2866.1658800312
 30
0.0
 11
4738.7762022737
 21
2866.1658800312
 31
0.0
  0
LINE
  5
199
330
1F
100
AcDbEntity
  8
0
  6
HIDDEN
 62
     7
370
    18
100
AcDbLine
 10
4738.7762022737
 20
2820.8819038102
 30
0.0
 11
4736.4762022737
 21
2820.8819038102
 31
0.0
  0
LINE
  5
19A
330
1F
100
AcDbEntity
  8
0
  6
HIDDEN
 62
     7
370
    18
100
AcDbLine
 10
4736.4762022737
 20
2808.8819038102
 30
0.0
 11
4738.7762022737
 21
2808.8819038102
 31
0.0
  0
LINE
  5
19B
330
1F
100
AcDbEntity
  8
0
  6
HIDDEN
 62
     7
370
    18
100
AcDbLine
 10
4738.7762022737
 20
3991.2925874154
 30
0.0
 11
4736.4762022737
 21
3991.2925874154
 31
0.0
  0
LINE
  5
19C
330
1F
100
AcDbEntity
  8
0
  6
HIDDEN
 62
     7
370
    18
100
AcDbLine
 10
4736.4762022737
 20
3979.2925874154
 30
0.0
 11
4738.7762022737
 21
3979.2925874154
 31
0.0
  0
LINE
  5
19D
330
1F
100
AcDbEntity
  8
2
100
AcDbLine
 10
3652.8241246209
 20
3400.0872456128
 30
0.0
 11
4435.846723422
 21
3400.0872456128
 31
0.0
  0
LINE
  5
19E
330
1F
100
AcDbEntity
  8
2
100
AcDbLine
 10
3735.7762022737
 20
2777.0872456128
 30
0.0
 11
4685.7762022737
 21
2777.0872456128
 31
0.0
  0
LINE
  5
19F
330
1F
100
AcDbEntity
  8
2
100
AcDbLine
 10
4210.7762022737
 20
3656.7011359428
 30
0.0
 11
4210.7762022737
 21
2602.3056448124
 31
0.0
  0
LINE
  5
1A0
330
1F
100
AcDbEntity
  8
1
100
AcDbLine
 10
2341.8505224314
 20
4822.9997614682
 30
0.0
 11
2341.8505224314
 21
4982.9997614682
 31
0.0
  0
LINE
  5
1A1
330
1F
100
AcDbEntity
  8
1
100
AcDbLine
 10
404.3505224314
 20
4982.9997614682
 30
0.0
 11
404.3505224314
 21
4822.9997614682
 31
0.0
  0
LINE
  5
1A2
330
1F
100
AcDbEntity
  8
1
100
AcDbLine
 10
812.3505224314
 20
5050.4997614682
 30
0.0
 11
812.3505224314
 21
5605.4997614682
 31
0.0
  0
LINE
  5
1A3
330
1F
100
AcDbEntity
  8
1
100
AcDbLine
 10
421.3505224314
 20
5605.4997614682
 30
0.0
 11
421.3505224314
 21
5050.4997614682
 31
0.0
  0
LINE
  5
1A4
330
1F
100
AcDbEntity
  8
1
100
AcDbLine
 10
640.8505224314
 20
4982.9997614682
 30
0.0
 11
640.8505224314
 21
5050.4997614682
 31
0.0
  0
LINE
  5
1A5
330
1F
100
AcDbEntity
  8
1
100
AcDbLine
 10
592.8505224314
 20
5050.4997614682
 30
0.0
 11
592.8505224314
 21
4982.9997614682
 31
0.0
  0
LINE
  5
1A6
330
1F
100
AcDbEntity
  8
1
100
AcDbLine
 10
1406.8505224314
 20
6210.9997614682
 30
0.0
 11
1406.8505224314
 21
6208.6997614682
 31
0.0
  0
LINE
  5
1A7
330
1F
100
AcDbEntity
  8
1
100
AcDbLine
 10
2626.8505224314
 20
6208.6997614682
 30
0.0
 11
2626.8505224314
 21
6210.9997614682
 31
0.0
  0
LINE
  5
1A8
330
1F
100
AcDbEntity
  8
1
100
AcDbLine
 10
2626.8505224314
 20
6110.2997614682
 30
0.0
 11
2626.8505224314
 21
6117.9997614682
 31
0.0
  0
LINE
  5
1A9
330
1F
100
AcDbEntity
  8
1
100
AcDbLine
 10
1406.8505224314
 20
6117.9997614682
 30
0.0
 11
1406.8505224314
 21
6110.2997614682
 31
0.0
  0
LINE
  5
1AA
330
1F
100
AcDbEntity
  8
1
100
AcDbLine
 10
1454.5505224314
 20
6208.6997614682
 30
0.0
 11
1454.5505224314
 21
6117.9997614682
 31
0.0
  0
LINE
  5
1AB
330
1F
100
AcDbEntity
  8
1
100
AcDbLine
 10
2579.1505224314
 20
6117.9997614682
 30
0.0
 11
2579.1505224314
 21
6208.6997614682
 31
0.0
  0
LINE
  5
1AC
330
1F
100
AcDbEntity
  8
1
100
AcDbLine
 10
2341.8505224314
 20
4822.9997614682
 30
0.0
 11
1811.6278736145
 21
4822.9997614682
 31
0.0
  0
LINE
  5
1AD
330
1F
100
AcDbEntity
  8
1
100
AcDbLine
 10
2341.8505224314
 20
4982.9997614682
 30
0.0
 11
1811.6278736145
 21
4982.9997614682
 31
0.0
  0
LINE
  5
1AE
330
1F
100
AcDbEntity
  8
1
100
AcDbLine
 10
1811.6278736145
 20
4822.9997614682
 30
0.0
 11
482.6664828203
 21
4822.9997614682
 31
0.0
  0
LINE
  5
1AF
330
1F
100
AcDbEntity
  8
1
100
AcDbLine
 10
1811.6278736145
 20
4982.9997614682
 30
0.0
 11
482.6664828203
 21
4982.9997614682
 31
0.0
  0
LINE
  5
1B0
330
1F
100
AcDbEntity
  8
1
100
AcDbLine
 10
482.6664828203
 20
4822.9997614682
 30
0.0
 11
404.3505224314
 21
4822.9997614682
 31
0.0
  0
LINE
  5
1B1
330
1F
100
AcDbEntity
  8
1
100
AcDbLine
 10
482.6664828203
 20
4982.9997614682
 30
0.0
 11
404.3505224314
 21
4982.9997614682
 31
0.0
  0
LINE
  5
1B2
330
1F
100
AcDbEntity
  8
1
100
AcDbLine
 10
812.3505224314
 20
5605.4997614682
 30
0.0
 11
421.3505224314
 21
5605.4997614682
 31
0.0
  0
LINE
  5
1B3
330
1F
100
AcDbEntity
  8
1
100
AcDbLine
 10
421.3505224314
 20
5050.4997614682
 30
0.0
 11
812.3505224314
 21
5050.4997614682
 31
0.0
  0
LINE
  5
1B4
330
1F
100
AcDbEntity
  8
1
100
AcDbLine
 10
391.8505224314
 20
5496.9997614682
 30
0.0
 11
421.3505224314
 21
5496.9997614682
 31
0.0
  0
LINE
  5
1B5
330
1F
100
AcDbEntity
  8
1
100
AcDbLine
 10
812.3505224314
 20
5496.9997614682
 30
0.0
 11
841.8505224314
 21
5496.9997614682
 31
0.0
  0
LINE
  5
1B6
330
1F
100
AcDbEntity
  8
1
100
AcDbLine
 10
841.8505224314
 20
5496.9997614682
 30
0.0
 11
841.8505224314
 21
5086.9997614682
 31
0.0
  0
LINE
  5
1B7
330
1F
100
AcDbEntity
  8
1
100
AcDbLine
 10
841.8505224314
 20
5086.9997614682
 30
0.0
 11
812.3505224314
 21
5086.9997614682
 31
0.0
  0
LINE
  5
1B8
330
1F
100
AcDbEntity
  8
1
100
AcDbLine
 10
421.3505224314
 20
5086.9997614682
 30
0.0
 11
391.8505224314
 21
5086.9997614682
 31
0.0
  0
LINE
  5
1B9
330
1F
100
AcDbEntity
  8
1
100
AcDbLine
 10
391.8505224314
 20
5086.9997614682
 30
0.0
 11
391.8505224314
 21
5496.9997614682
 31
0.0
  0
LINE
  5
1BA
330
1F
100
AcDbEntity
  8
1
100
AcDbLine
 10
316.8505224314
 20
4995.9997614682
 30
0.0
 11
592.8505224314
 21
4995.9997614682
 31
0.0
  0
LINE
  5
1BB
330
1F
100
AcDbEntity
  8
1
100
AcDbLine
 10
640.8505224314
 20
4995.9997614682
 30
0.0
 11
2676.8505224314
 21
4995.9997614682
 31
0.0
  0
LINE
  5
1BC
330
1F
100
AcDbEntity
  8
1
100
AcDbLine
 10
381.8505224314
 20
5060.9997614682
 30
0.0
 11
421.3505224314
 21
5060.9997614682
 31
0.0
  0
LINE
  5
1BD
330
1F
100
AcDbEntity
  8
1
100
AcDbLine
 10
812.3505224314
 20
5060.9997614682
 30
0.0
 11
2611.8505224314
 21
5060.9997614682
 31
0.0
  0
LINE
  5
1BE
330
1F
100
AcDbEntity
  8
1
100
AcDbLine
 10
2611.8505224314
 20
5060.9997614682
 30
0.0
 11
2611.8505224314
 21
5255.6997614682
 31
0.0
  0
LINE
  5
1BF
330
1F
100
AcDbEntity
  8
1
100
AcDbLine
 10
1406.8505224314
 20
6110.9997614682
 30
0.0
 11
381.8505224314
 21
6110.9997614682
 31
0.0
  0
LINE
  5
1C0
330
1F
100
AcDbEntity
  8
1
100
AcDbLine
 10
381.8505224314
 20
6110.9997614682
 30
0.0
 11
381.8505224314
 21
5060.9997614682
 31
0.0
  0
LINE
  5
1C1
330
1F
100
AcDbEntity
  8
1
100
AcDbLine
 10
2676.8505224314
 20
6175.9997614682
 30
0.0
 11
2579.1505224314
 21
6175.9997614682
 31
0.0
  0
LINE
  5
1C2
330
1F
100
AcDbEntity
  8
1
100
AcDbLine
 10
1454.5505224314
 20
6175.9997614682
 30
0.0
 11
316.8505224314
 21
6175.9997614682
 31
0.0
  0
LINE
  5
1C3
330
1F
100
AcDbEntity
  8
1
100
AcDbLine
 10
316.8505224314
 20
6175.9997614682
 30
0.0
 11
316.8505224314
 21
4995.9997614682
 31
0.0
  0
LINE
  5
1C4
330
1F
100
AcDbEntity
  8
1
100
AcDbLine
 10
2676.8505224314
 20
4995.9997614682
 30
0.0
 11
2676.8505224314
 21
5255.6997614682
 31
0.0
  0
LINE
  5
1C5
330
1F
100
AcDbEntity
  8
1
100
AcDbLine
 10
2676.8505224314
 20
6110.2997614682
 30
0.0
 11
2676.8505224314
 21
6175.9997614682
 31
0.0
  0
LINE
  5
1C6
330
1F
100
AcDbEntity
  8
1
100
AcDbLine
 10
1046.2505224314
 20
5255.6997614682
 30
0.0
 11
1934.8505224314
 21
5255.6997614682
 31
0.0
  0
LINE
  5
1C7
330
1F
100
AcDbEntity
  8
1
100
AcDbLine
 10
1046.2505224314
 20
5255.6997614682
 30
0.0
 11
1046.2505224314
 21
6110.2997614682
 31
0.0
  0
LINE
  5
1C8
330
1F
100
AcDbEntity
  8
1
100
AcDbLine
 10
1046.2505224314
 20
6110.2997614682
 30
0.0
 11
1934.8505224314
 21
6110.2997614682
 31
0.0
  0
LINE
  5
1C9
330
1F
100
AcDbEntity
  8
1
100
AcDbLine
 10
2686.4505224314
 20
5255.6997614682
 30
0.0
 11
2686.4505224314
 21
6110.2997614682
 31
0.0
  0
LINE
  5
1CA
330
1F
100
AcDbEntity
  8
1
100
AcDbLine
 10
1948.3505224314
 20
5255.6997614682
 30
0.0
 11
2686.4505224314
 21
5255.6997614682
 31
0.0
  0
LINE
  5
1CB
330
1F
100
AcDbEntity
  8
1
100
AcDbLine
 10
1948.3505224314
 20
6110.2997614682
 30
0.0
 11
2686.4505224314
 21
6110.2997614682
 31
0.0
  0
LINE
  5
1CC
330
1F
100
AcDbEntity
  8
1
100
AcDbLine
 10
1934.8505224314
 20
5255.6997614682
 30
0.0
 11
1948.3505224314
 21
5255.6997614682
 31
0.0
  0
LINE
  5
1CD
330
1F
100
AcDbEntity
  8
1
100
AcDbLine
 10
1934.8505224314
 20
6110.2997614682
 30
0.0
 11
1948.3505224314
 21
6110.2997614682
 31
0.0
  0
LINE
  5
1CE
330
1F
100
AcDbEntity
  8
1
100
AcDbLine
 10
2626.8505224314
 20
6208.6997614682
 30
0.0
 11
1406.8505224314
 21
6208.6997614682
 31
0.0
  0
LINE
  5
1CF
330
1F
100
AcDbEntity
  8
1
100
AcDbLine
 10
2626.8505224314
 20
6210.9997614682
 30
0.0
 11
1406.8505224314
 21
6210.9997614682
 31
0.0
  0
LINE
  5
1D0
330
1F
100
AcDbEntity
  8
1
100
AcDbLine
 10
1406.8505224314
 20
6117.9997614682
 30
0.0
 11
2626.8505224314
 21
6117.9997614682
 31
0.0
  0
LINE
  5
1D1
330
1F
100
AcDbEntity
  8
1
100
AcDbLine
 10
2772.8505224314
 20
5204.9997614682
 30
0.0
 11
2776.8505224314
 21
5204.9997614682
 31
0.0
  0
LINE
  5
1D2
330
1F
100
AcDbEntity
  8
1
100
AcDbLine
 10
2772.8505224314
 20
6160.9997614682
 30
0.0
 11
2776.8505224314
 21
6160.9997614682
 31
0.0
  0
LINE
  5
1D3
330
1F
100
AcDbEntity
  8
1
100
AcDbLine
 10
2776.8505224314
 20
5204.9997614682
 30
0.0
 11
2776.8505224314
 21
6160.9997614682
 31
0.0
  0
LINE
  5
1D4
330
1F
100
AcDbEntity
  8
1
100
AcDbLine
 10
2772.8505224314
 20
5204.9997614682
 30
0.0
 11
2772.8505224314
 21
6160.9997614682
 31
0.0
  0
LINE
  5
1D5
330
1F
100
AcDbEntity
  8
1
100
AcDbLine
 10
2686.4505224314
 20
5255.6997614682
 30
0.0
 11
2772.8505224314
 21
5255.6997614682
 31
0.0
  0
LINE
  5
1D6
330
1F
100
AcDbEntity
  8
1
100
AcDbLine
 10
2686.4505224314
 20
6110.2997614682
 30
0.0
 11
2772.8505224314
 21
6110.2997614682
 31
0.0
  0
LINE
  5
1D7
330
1F
100
AcDbEntity
  8
0
  6
HIDDEN
 62
     7
370
    18
100
AcDbLine
 10
507.4144680435
 20
5129.9997614682
 30
0.0
 11
522.0916178367
 21
5129.9997614682
 31
0.0
  0
LINE
  5
1D8
330
1F
100
AcDbEntity
  8
0
  6
HIDDEN
 62
     7
370
    18
100
AcDbLine
 10
507.4144680435
 20
5129.9997614682
 30
0.0
 11
507.4144680435
 21
5453.9997614682
 31
0.0
  0
LINE
  5
1D9
330
1F
100
AcDbEntity
  8
0
  6
HIDDEN
 62
     7
370
    18
100
AcDbLine
 10
507.4144680435
 20
5453.9997614682
 30
0.0
 11
522.0916178367
 21
5453.9997614682
 31
0.0
  0
LINE
  5
1DA
330
1F
100
AcDbEntity
  8
0
  6
HIDDEN
 62
     7
370
    18
100
AcDbLine
 10
522.0916178367
 20
5605.4997614682
 30
0.0
 11
522.0916178367
 21
5453.9997614682
 31
0.0
  0
LINE
  5
1DB
330
1F
100
AcDbEntity
  8
0
  6
HIDDEN
 62
     7
370
    18
100
AcDbLine
 10
711.6094270262
 20
5605.4997614682
 30
0.0
 11
711.6094270262
 21
5453.9997614682
 31
0.0
  0
LINE
  5
1DC
330
1F
100
AcDbEntity
  8
0
  6
HIDDEN
 62
     7
370
    18
100
AcDbLine
 10
711.6094270262
 20
5453.9997614682
 30
0.0
 11
726.2865768194
 21
5453.9997614682
 31
0.0
  0
LINE
  5
1DD
330
1F
100
AcDbEntity
  8
0
  6
HIDDEN
 62
     7
370
    18
100
AcDbLine
 10
726.2865768194
 20
5453.9997614682
 30
0.0
 11
726.2865768194
 21
5129.9997614682
 31
0.0
  0
LINE
  5
1DE
330
1F
100
AcDbEntity
  8
0
  6
HIDDEN
 62
     7
370
    18
100
AcDbLine
 10
711.6094270262
 20
5129.9997614682
 30
0.0
 11
726.2865768194
 21
5129.9997614682
 31
0.0
  0
LINE
  5
1DF
330
1F
100
AcDbEntity
  8
0
  6
HIDDEN
 62
     7
370
    18
100
AcDbLine
 10
711.6094270262
 20
5129.9997614682
 30
0.0
 11
711.6094270262
 21
5050.4997614682
 31
0.0
  0
LINE
  5
1E0
330
1F
100
AcDbEntity
  8
0
  6
HIDDEN
 62
     7
370
    18
100
AcDbLine
 10
522.0916178367
 20
5129.9997614682
 30
0.0
 11
522.0916178367
 21
5050.4997614682
 31
0.0
  0
LINE
  5
1E1
330
1F
100
AcDbEntity
  8
0
  6
HIDDEN
 62
     7
370
    18
100
AcDbLine
 10
759.8505224314
 20
5129.9997614682
 30
0.0
 11
759.8505224314
 21
5453.9997614682
 31
0.0
  0
LINE
  5
1E2
330
1F
100
AcDbEntity
  8
0
  6
HIDDEN
 62
     7
370
    18
100
AcDbLine
 10
759.8505224314
 20
5129.9997614682
 30
0.0
 11
726.2865768194
 21
5129.9997614682
 31
0.0
  0
LINE
  5
1E3
330
1F
100
AcDbEntity
  8
0
  6
HIDDEN
 62
     7
370
    18
100
AcDbLine
 10
759.8505224314
 20
5453.9997614682
 30
0.0
 11
726.2865768194
 21
5453.9997614682
 31
0.0
  0
LINE
  5
1E4
330
1F
100
AcDbEntity
  8
0
  6
HIDDEN
 62
     7
370
    18
100
AcDbLine
 10
507.4144680435
 20
5129.9997614682
 30
0.0
 11
473.8505224314
 21
5129.9997614682
 31
0.0
  0
LINE
  5
1E5
330
1F
100
AcDbEntity
  8
0
  6
HIDDEN
 62
     7
370
    18
100
AcDbLine
 10
473.8505224314
 20
5129.9997614682
 30
0.0
 11
473.8505224314
 21
5453.9997614682
 31
0.0
  0
LINE
  5
1E6
330
1F
100
AcDbEntity
  8
0
  6
HIDDEN
 62
     7
370
    18
100
AcDbLine
 10
507.4144680435
 20
5453.9997614682
 30
0.0
 11
473.8505224314
 21
5453.9997614682
 31
0.0
  0
LINE
  5
1E7
330
1F
100
AcDbEntity
  8
0
  6
HIDDEN
 62
     7
370
    18
100
AcDbLine
 10
522.0916178367
 20
5453.9997614682
 30
0.0
 11
711.6094270262
 21
5453.9997614682
 31
0.0
  0
LINE
  5
1E8
330
1F
100
AcDbEntity
  8
0
  6
HIDDEN
 62
     7
370
    18
100
AcDbLine
 10
522.0916178367
 20
5129.9997614682
 30
0.0
 11
711.6094270262
 21
5129.9997614682
 31
0.0
  0
LINE
  5
1E9
330
1F
100
AcDbEntity
  8
0
  6
HIDDEN
 62
     7
370
    18
100
AcDbLine
 10
421.3505224314
 20
5496.9997614682
 30
0.0
 11
812.3505224314
 21
5496.9997614682
 31
0.0
  0
LINE
  5
1EA
330
1F
100
AcDbEntity
  8
0
  6
HIDDEN
 62
     7
370
    18
100
AcDbLine
 10
812.3505224314
 20
5086.9997614682
 30
0.0
 11
421.3505224314
 21
5086.9997614682
 31
0.0
  0
LINE
  5
1EB
330
1F
100
AcDbEntity
  8
0
  6
HIDDEN
 62
     7
370
    18
100
AcDbLine
 10
504.3505224314
 20
4865.4997614682
 30
0.0
 11
729.3505224314
 21
4865.4997614682
 31
0.0
  0
LINE
  5
1EC
330
1F
100
AcDbEntity
  8
0
  6
HIDDEN
 62
     7
370
    18
100
AcDbLine
 10
504.3505224314
 20
4940.4997614682
 30
0.0
 11
729.3505224314
 21
4940.4997614682
 31
0.0
  0
LINE
  5
1ED
330
1F
100
AcDbEntity
  8
0
  6
HIDDEN
 62
     7
370
    18
100
AcDbLine
 10
2037.6692189482
 20
4865.4997614682
 30
0.0
 11
2241.8505224314
 21
4865.4997614682
 31
0.0
  0
LINE
  5
1EE
330
1F
100
AcDbEntity
  8
0
  6
HIDDEN
 62
     7
370
    18
100
AcDbLine
 10
1791.8505224314
 20
4865.4997614682
 30
0.0
 11
2037.6692189482
 21
4865.4997614682
 31
0.0
  0
LINE
  5
1EF
330
1F
100
AcDbEntity
  8
0
  6
HIDDEN
 62
     7
370
    18
100
AcDbLine
 10
2037.6692189482
 20
4940.4997614682
 30
0.0
 11
2241.8505224314
 21
4940.4997614682
 31
0.0
  0
LINE
  5
1F0
330
1F
100
AcDbEntity
  8
0
  6
HIDDEN
 62
     7
370
    18
100
AcDbLine
 10
1791.8505224314
 20
4940.4997614682
 30
0.0
 11
2037.6692189482
 21
4940.4997614682
 31
0.0
  0
CIRCLE
  5
1F1
330
1F
100
AcDbEntity
  8
0
  6
HIDDEN
 62
     7
370
    18
100
AcDbCircle
 10
416.8505224314
 20
6145.9997614682
 30
0.0
 40
9.0
  0
CIRCLE
  5
1F2
330
1F
100
AcDbEntity
  8
0
  6
HIDDEN
 62
     7
370
    18
100
AcDbCircle
 10
1136.8505224314
 20
6145.9997614682
 30
0.0
 40
9.0
  0
CIRCLE
  5
1F3
330
1F
100
AcDbEntity
  8
0
  6
HIDDEN
 62
     7
370
    18
100
AcDbCircle
 10
1856.8505224314
 20
6145.9997614682
 30
0.0
 40
9.00000000000091
  0
CIRCLE
  5
1F4
330
1F
100
AcDbEntity
  8
0
  6
HIDDEN
 62
     7
370
    18
100
AcDbCircle
 10
2576.8505224314
 20
6145.9997614682
 30
0.0
 40
9.0
  0
CIRCLE
  5
1F5
330
1F
100
AcDbEntity
  8
0
  6
HIDDEN
 62
     7
370
    18
100
AcDbCircle
 10
2576.8505224314
 20
5025.9997614682
 30
0.0
 40
9.0
  0
CIRCLE
  5
1F6
330
1F
100
AcDbEntity
  8
0
  6
HIDDEN
 62
     7
370
    18
100
AcDbCircle
 10
1856.8505224314
 20
5025.9997614682
 30
0.0
 40
9.0
  0
CIRCLE
  5
1F7
330
1F
100
AcDbEntity
  8
0
  6
HIDDEN
 62
     7
370
    18
100
AcDbCircle
 10
1136.8505224314
 20
5025.9997614682
 30
0.0
 40
9.0
  0
CIRCLE
  5
1F8
330
1F
100
AcDbEntity
  8
0
  6
HIDDEN
 62
     7
370
    18
100
AcDbCircle
 10
416.8505224314
 20
5025.9997614682
 30
0.0
 40
9.0
  0
LINE
  5
1F9
330
1F
100
AcDbEntity
  8
0
  6
HIDDEN
 62
     7
370
    18
100
AcDbLine
 10
592.8505224314
 20
4995.9997614682
 30
0.0
 11
640.8505224314
 21
4995.9997614682
 31
0.0
  0
LINE
  5
1FA
330
1F
100
AcDbEntity
  8
0
  6
HIDDEN
 62
     7
370
    18
100
AcDbLine
 10
421.3505224314
 20
5060.9997614682
 30
0.0
 11
812.3505224314
 21
5060.9997614682
 31
0.0
  0
LINE
  5
1FB
330
1F
100
AcDbEntity
  8
0
  6
HIDDEN
 62
     7
370
    18
100
AcDbLine
 10
2611.8505224314
 20
5255.6997614682
 30
0.0
 11
2611.8505224314
 21
6110.9997614682
 31
0.0
  0
LINE
  5
1FC
330
1F
100
AcDbEntity
  8
0
  6
HIDDEN
 62
     7
370
    18
100
AcDbLine
 10
2611.8505224314
 20
6110.9997614682
 30
0.0
 11
1406.8505224314
 21
6110.9997614682
 31
0.0
  0
LINE
  5
1FD
330
1F
100
AcDbEntity
  8
0
  6
HIDDEN
 62
     7
370
    18
100
AcDbLine
 10
2579.1505224314
 20
6175.9997614682
 30
0.0
 11
1454.5505224314
 21
6175.9997614682
 31
0.0
  0
LINE
  5
1FE
330
1F
100
AcDbEntity
  8
0
  6
HIDDEN
 62
     7
370
    18
100
AcDbLine
 10
2676.8505224314
 20
5255.6997614682
 30
0.0
 11
2676.8505224314
 21
6110.2997614682
 31
0.0
  0
LINE
  5
1FF
330
1F
100
AcDbEntity
  8
0
  6
HIDDEN
 62
     7
370
    18
100
AcDbLine
 10
375.8505224314
 20
6116.9997614682
 30
0.0
 11
375.8505224314
 21
5054.9997614682
 31
0.0
  0
LINE
  5
200
330
1F
100
AcDbEntity
  8
0
  6
HIDDEN
 62
     7
370
    18
100
AcDbLine
 10
2617.8505224314
 20
5054.9997614682
 30
0.0
 11
2617.8505224314
 21
6116.9997614682
 31
0.0
  0
LINE
  5
201
330
1F
100
AcDbEntity
  8
0
  6
HIDDEN
 62
     7
370
    18
100
AcDbLine
 10
2617.8505224314
 20
6116.9997614682
 30
0.0
 11
375.8505224314
 21
6116.9997614682
 31
0.0
  0
LINE
  5
202
330
1F
100
AcDbEntity
  8
0
  6
HIDDEN
 62
     7
370
    18
100
AcDbLine
 10
375.8505224314
 20
5054.9997614682
 30
0.0
 11
2617.8505224314
 21
5054.9997614682
 31
0.0
  0
CIRCLE
  5
203
330
1F
100
AcDbEntity
  8
0
  6
HIDDEN
 62
     7
370
    18
100
AcDbCircle
 10
2611.8505224314
 20
6143.4997614682
 30
0.0
 40
17.5
  0
CIRCLE
  5
204
330
1F
100
AcDbEntity
  8
0
  6
HIDDEN
 62
     7
370
    18
100
AcDbCircle
 10
381.8505224314
 20
6143.4997614682
 30
0.0
 40
17.5
  0
CIRCLE
  5
205
330
1F
100
AcDbEntity
  8
0
  6
HIDDEN
 62
     7
370
    18
100
AcDbCircle
 10
2611.8505224314
 20
5028.4997614682
 30
0.0
 40
17.5
  0
CIRCLE
  5
206
330
1F
100
AcDbEntity
  8
0
  6
HIDDEN
 62
     7
370
    18
100
AcDbCircle
 10
381.8505224314
 20
5028.4997614682
 30
0.0
 40
17.5
  0
LINE
  5
207
330
1F
100
AcDbEntity
  8
0
  6
HIDDEN
 62
     7
370
    18
100
AcDbLine
 10
1047.8505224314
 20
5257.9997614682
 30
0.0
 11
1047.8505224314
 21
6107.9997614682
 31
0.0
  0
LINE
  5
208
330
1F
100
AcDbEntity
  8
0
  6
HIDDEN
 62
     7
370
    18
100
AcDbLine
 10
1047.8505224314
 20
5257.9997614682
 30
0.0
 11
1934.8505224314
 21
5257.9997614682
 31
0.0
  0
LINE
  5
209
330
1F
100
AcDbEntity
  8
0
  6
HIDDEN
 62
     7
370
    18
100
AcDbLine
 10
1047.8505224314
 20
6107.9997614682
 30
0.0
 11
1934.8505224314
 21
6107.9997614682
 31
0.0
  0
LINE
  5
20A
330
1F
100
AcDbEntity
  8
0
  6
HIDDEN
 62
     7
370
    18
100
AcDbLine
 10
1934.8505224314
 20
6107.9997614682
 30
0.0
 11
1948.3505224314
 21
6107.9997614682
 31
0.0
  0
LINE
  5
20B
330
1F
100
AcDbEntity
  8
0
  6
HIDDEN
 62
     7
370
    18
100
AcDbLine
 10
1948.3505224314
 20
5257.9997614682
 30
0.0
 11
2684.8505224314
 21
5257.9997614682
 31
0.0
  0
LINE
  5
20C
330
1F
100
AcDbEntity
  8
0
  6
HIDDEN
 62
     7
370
    18
100
AcDbLine
 10
2684.8505224314
 20
5257.9997614682
 30
0.0
 11
2684.8505224314
 21
6107.9997614682
 31
0.0
  0
LINE
  5
20D
330
1F
100
AcDbEntity
  8
0
  6
HIDDEN
 62
     7
370
    18
100
AcDbLine
 10
1948.3505224314
 20
6107.9997614682
 30
0.0
 11
2684.8505224314
 21
6107.9997614682
 31
0.0
  0
LINE
  5
20E
330
1F
100
AcDbEntity
  8
0
  6
HIDDEN
 62
     7
370
    18
100
AcDbLine
 10
1934.8505224314
 20
5257.9997614682
 30
0.0
 11
1948.3505224314
 21
5257.9997614682
 31
0.0
  0
LINE
  5
20F
330
1F
100
AcDbEntity
  8
0
  6
HIDDEN
 62
     7
370
    18
100
AcDbLine
 10
2684.8505224314
 20
5257.9997614682
 30
0.0
 11
2776.8505224314
 21
5257.9997614682
 31
0.0
  0
LINE
  5
210
330
1F
100
AcDbEntity
  8
0
  6
HIDDEN
 62
     7
370
    18
100
AcDbLine
 10
2684.8505224314
 20
6107.9997614682
 30
0.0
 11
2776.8505224314
 21
6107.9997614682
 31
0.0
  0
LINE
  5
211
330
1F
100
AcDbEntity
  8
0
  6
HIDDEN
 62
     7
370
    18
100
AcDbLine
 10
640.8505224314
 20
4940.4997614682
 30
0.0
 11
640.8505224314
 21
4982.9997614682
 31
0.0
  0
LINE
  5
212
330
1F
100
AcDbEntity
  8
0
  6
HIDDEN
 62
     7
370
    18
100
AcDbLine
 10
592.8505224314
 20
4982.9997614682
 30
0.0
 11
592.8505224314
 21
4940.4997614682
 31
0.0
  0
LINE
  5
213
330
1F
100
AcDbEntity
  8
0
  6
HIDDEN
 62
     7
370
    18
100
AcDbLine
 10
729.3505224314
 20
4865.4997614682
 30
0.0
 11
729.3505224314
 21
4940.4997614682
 31
0.0
  0
LINE
  5
214
330
1F
100
AcDbEntity
  8
0
  6
HIDDEN
 62
     7
370
    18
100
AcDbLine
 10
504.3505224314
 20
4940.4997614682
 30
0.0
 11
504.3505224314
 21
4865.4997614682
 31
0.0
  0
LINE
  5
215
330
1F
100
AcDbEntity
  8
0
  6
HIDDEN
 62
     7
370
    18
100
AcDbLine
 10
2241.8505224314
 20
4865.4997614682
 30
0.0
 11
2241.8505224314
 21
4940.4997614682
 31
0.0
  0
LINE
  5
216
330
1F
100
AcDbEntity
  8
0
  6
HIDDEN
 62
     7
370
    18
100
AcDbLine
 10
1791.8505224314
 20
4940.4997614682
 30
0.0
 11
1791.8505224314
 21
4865.4997614682
 31
0.0
  0
LINE
  5
217
330
1F
100
AcDbEntity
  8
0
  6
HIDDEN
 62
     7
370
    18
100
AcDbLine
 10
1918.1631018951
 20
6210.9997614682
 30
0.0
 11
1918.1631018951
 21
6208.6997614682
 31
0.0
  0
LINE
  5
218
330
1F
100
AcDbEntity
  8
0
  6
HIDDEN
 62
     7
370
    18
100
AcDbLine
 10
1930.1631018951
 20
6208.6997614682
 30
0.0
 11
1930.1631018951
 21
6210.9997614682
 31
0.0
  0
LINE
  5
219
330
1F
100
AcDbEntity
  8
0
  6
HIDDEN
 62
     7
370
    18
100
AcDbLine
 10
2103.5379429678
 20
6210.9997614682
 30
0.0
 11
2103.5379429678
 21
6208.6997614682
 31
0.0
  0
LINE
  5
21A
330
1F
100
AcDbEntity
  8
0
  6
HIDDEN
 62
     7
370
    18
100
AcDbLine
 10
2115.5379429678
 20
6208.6997614682
 30
0.0
 11
2115.5379429678
 21
6210.9997614682
 31
0.0
  0
LINE
  5
21B
330
1F
100
AcDbEntity
  8
0
  6
HIDDEN
 62
     7
370
    18
100
AcDbLine
 10
2576.8505224314
 20
6107.9997614682
 30
0.0
 11
2576.8505224314
 21
6210.9997614682
 31
0.0
  0
LINE
  5
21C
330
1F
100
AcDbEntity
  8
0
  6
HIDDEN
 62
     7
370
    18
100
AcDbLine
 10
1456.8505224314
 20
6210.9997614682
 30
0.0
 11
1456.8505224314
 21
6107.9997614682
 31
0.0
  0
LINE
  5
21D
330
1F
100
AcDbEntity
  8
0
  6
HIDDEN
 62
     7
370
    18
100
AcDbLine
 10
1741.8611513358
 20
6210.9997614682
 30
0.0
 11
1741.8611513358
 21
6208.6997614682
 31
0.0
  0
LINE
  5
21E
330
1F
100
AcDbEntity
  8
0
  6
HIDDEN
 62
     7
370
    18
100
AcDbLine
 10
1753.8611513358
 20
6208.6997614682
 30
0.0
 11
1753.8611513358
 21
6210.9997614682
 31
0.0
  0
LINE
  5
21F
330
1F
100
AcDbEntity
  8
0
  6
HIDDEN
 62
     7
370
    18
100
AcDbLine
 10
2279.8398935271
 20
6210.9997614682
 30
0.0
 11
2279.8398935271
 21
6208.6997614682
 31
0.0
  0
LINE
  5
220
330
1F
100
AcDbEntity
  8
0
  6
HIDDEN
 62
     7
370
    18
100
AcDbLine
 10
2291.8398935271
 20
6208.6997614682
 30
0.0
 11
2291.8398935271
 21
6210.9997614682
 31
0.0
  0
LINE
  5
221
330
1F
100
AcDbEntity
  8
0
  6
HIDDEN
 62
     7
370
    18
100
AcDbLine
 10
1591.8897545784
 20
6210.9997614682
 30
0.0
 11
1591.8897545784
 21
6208.6997614682
 31
0.0
  0
LINE
  5
222
330
1F
100
AcDbEntity
  8
0
  6
HIDDEN
 62
     7
370
    18
100
AcDbLine
 10
1603.8897545784
 20
6208.6997614682
 30
0.0
 11
1603.8897545784
 21
6210.9997614682
 31
0.0
  0
LINE
  5
223
330
1F
100
AcDbEntity
  8
0
  6
HIDDEN
 62
     7
370
    18
100
AcDbLine
 10
2429.8112902845
 20
6210.9997614682
 30
0.0
 11
2429.8112902845
 21
6208.6997614682
 31
0.0
  0
LINE
  5
224
330
1F
100
AcDbEntity
  8
0
  6
HIDDEN
 62
     7
370
    18
100
AcDbLine
 10
2441.8112902845
 20
6208.6997614682
 30
0.0
 11
2441.8112902845
 21
6210.9997614682
 31
0.0
  0
LINE
  5
225
330
1F
100
AcDbEntity
  8
0
  6
HIDDEN
 62
     7
370
    18
100
AcDbLine
 10
1482.9291568498
 20
6210.9997614682
 30
0.0
 11
1482.9291568498
 21
6208.6997614682
 31
0.0
  0
LINE
  5
226
330
1F
100
AcDbEntity
  8
0
  6
HIDDEN
 62
     7
370
    18
100
AcDbLine
 10
1494.9291568498
 20
6208.6997614682
 30
0.0
 11
1494.9291568498
 21
6210.9997614682
 31
0.0
  0
LINE
  5
227
330
1F
100
AcDbEntity
  8
0
  6
HIDDEN
 62
     7
370
    18
100
AcDbLine
 10
2538.7718880131
 20
6210.9997614682
 30
0.0
 11
2538.7718880131
 21
6208.6997614682
 31
0.0
  0
LINE
  5
228
330
1F
100
AcDbEntity
  8
0
  6
HIDDEN
 62
     7
370
    18
100
AcDbLine
 10
2550.7718880131
 20
6208.6997614682
 30
0.0
 11
2550.7718880131
 21
6210.9997614682
 31
0.0
  0
LINE
  5
229
330
1F
100
AcDbEntity
  8
0
  6
HIDDEN
 62
     7
370
    18
100
AcDbLine
 10
1425.6451806288
 20
6210.9997614682
 30
0.0
 11
1425.6451806288
 21
6208.6997614682
 31
0.0
  0
LINE
  5
22A
330
1F
100
AcDbEntity
  8
0
  6
HIDDEN
 62
     7
370
    18
100
AcDbLine
 10
1437.6451806288
 20
6208.6997614682
 30
0.0
 11
1437.6451806288
 21
6210.9997614682
 31
0.0
  0
LINE
  5
22B
330
1F
100
AcDbEntity
  8
0
  6
HIDDEN
 62
     7
370
    18
100
AcDbLine
 10
2596.0558642341
 20
6210.9997614682
 30
0.0
 11
2596.0558642341
 21
6208.6997614682
 31
0.0
  0
LINE
  5
22C
330
1F
100
AcDbEntity
  8
0
  6
HIDDEN
 62
     7
370
    18
100
AcDbLine
 10
2608.0558642341
 20
6208.6997614682
 30
0.0
 11
2608.0558642341
 21
6210.9997614682
 31
0.0
  0
LINE
  5
22D
330
1F
100
AcDbEntity
  8
0
  6
HIDDEN
 62
     7
370
    18
100
AcDbLine
 10
2776.8505224314
 20
6146.9997614682
 30
0.0
 11
2772.8505224314
 21
6146.9997614682
 31
0.0
  0
LINE
  5
22E
330
1F
100
AcDbEntity
  8
0
  6
HIDDEN
 62
     7
370
    18
100
AcDbLine
 10
2772.8505224314
 20
6134.9997614682
 30
0.0
 11
2776.8505224314
 21
6134.9997614682
 31
0.0
  0
LINE
  5
22F
330
1F
100
AcDbEntity
  8
0
  6
HIDDEN
 62
     7
370
    18
100
AcDbLine
 10
2776.8505224314
 20
5988.9997614682
 30
0.0
 11
2772.8505224314
 21
5988.9997614682
 31
0.0
  0
LINE
  5
230
330
1F
100
AcDbEntity
  8
0
  6
HIDDEN
 62
     7
370
    18
100
AcDbLine
 10
2772.8505224314
 20
5976.9997614682
 30
0.0
 11
2776.8505224314
 21
5976.9997614682
 31
0.0
  0
LINE
  5
231
330
1F
100
AcDbEntity
  8
0
  6
HIDDEN
 62
     7
370
    18
100
AcDbLine
 10
2776.8505224314
 20
5788.9997614682
 30
0.0
 11
2772.8505224314
 21
5788.9997614682
 31
0.0
  0
LINE
  5
232
330
1F
100
AcDbEntity
  8
0
  6
HIDDEN
 62
     7
370
    18
100
AcDbLine
 10
2772.8505224314
 20
5776.9997614682
 30
0.0
 11
2776.8505224314
 21
5776.9997614682
 31
0.0
  0
LINE
  5
233
330
1F
100
AcDbEntity
  8
0
  6
HIDDEN
 62
     7
370
    18
100
AcDbLine
 10
2776.8505224314
 20
5588.9997614682
 30
0.0
 11
2772.8505224314
 21
5588.9997614682
 31
0.0
  0
LINE
  5
234
330
1F
100
AcDbEntity
  8
0
  6
HIDDEN
 62
     7
370
    18
100
AcDbLine
 10
2772.8505224314
 20
5576.9997614682
 30
0.0
 11
2776.8505224314
 21
5576.9997614682
 31
0.0
  0
LINE
  5
235
330
1F
100
AcDbEntity
  8
0
  6
HIDDEN
 62
     7
370
    18
100
AcDbLine
 10
2776.8505224314
 20
5388.9997614682
 30
0.0
 11
2772.8505224314
 21
5388.9997614682
 31
0.0
  0
LINE
  5
236
330
1F
100
AcDbEntity
  8
0
  6
HIDDEN
 62
     7
370
    18
100
AcDbLine
 10
2772.8505224314
 20
5376.9997614682
 30
0.0
 11
2776.8505224314
 21
5376.9997614682
 31
0.0
  0
LINE
  5
237
330
1F
100
AcDbEntity
  8
0
  6
HIDDEN
 62
     7
370
    18
100
AcDbLine
 10
2776.8505224314
 20
5230.9997614682
 30
0.0
 11
2772.8505224314
 21
5230.9997614682
 31
0.0
  0
LINE
  5
238
330
1F
100
AcDbEntity
  8
0
  6
HIDDEN
 62
     7
370
    18
100
AcDbLine
 10
2772.8505224314
 20
5218.9997614682
 30
0.0
 11
2776.8505224314
 21
5218.9997614682
 31
0.0
  0
CIRCLE
  5
239
330
1F
100
AcDbEntity
  8
基礎穴
100
AcDbCircle
 10
2576.8505224314
 20
6145.9997614682
 30
0.0
 40
9.000000000000307
  0
CIRCLE
  5
23A
330
1F
100
AcDbEntity
  8
基礎穴
100
AcDbCircle
 10
1856.8505224314
 20
6145.9997614682
 30
0.0
 40
8.999999999999389
  0
CIRCLE
  5
23B
330
1F
100
AcDbEntity
  8
基礎穴
100
AcDbCircle
 10
1136.8505224314
 20
6145.9997614682
 30
0.0
 40
8.999999999999872
  0
CIRCLE
  5
23C
330
1F
100
AcDbEntity
  8
基礎穴
100
AcDbCircle
 10
416.8505224314
 20
6145.9997614682
 30
0.0
 40
8.999999999999927
  0
CIRCLE
  5
23D
330
1F
100
AcDbEntity
  8
基礎穴
100
AcDbCircle
 10
2576.8505224314
 20
5025.9997614682
 30
0.0
 40
9.000000000001007
  0
CIRCLE
  5
23E
330
1F
100
AcDbEntity
  8
基礎穴
100
AcDbCircle
 10
1856.8505224314
 20
5025.9997614682
 30
0.0
 40
9.000000000000355
  0
CIRCLE
  5
23F
330
1F
100
AcDbEntity
  8
基礎穴
100
AcDbCircle
 10
1136.8505224314
 20
5025.9997614682
 30
0.0
 40
9.000000000000355
  0
CIRCLE
  5
240
330
1F
100
AcDbEntity
  8
基礎穴
100
AcDbCircle
 10
416.8505224314
 20
5025.9997614682
 30
0.0
 40
8.999999999999764
  0
LINE
  5
241
330
1F
100
AcDbEntity
  8
2
100
AcDbLine
 10
2016.8505224314
 20
5133.4438540203
 30
0.0
 11
2016.8505224314
 21
5908.0119522152
 31
0.0
  0
LINE
  5
242
330
1F
100
AcDbEntity
  8
2
100
AcDbLine
 10
1326.2477653218
 20
5682.9997614682
 30
0.0
 11
2239.5845853582
 21
5682.9997614682
 31
0.0
  0
ENDSEC
  0
SECTION
  2
OBJECTS
  0
DICTIONARY
  5
C
330
0
100
AcDbDictionary
281
     1
  3
ACAD_GROUP
350
D
  3
ACAD_LAYOUT
350
1A
  3
ACAD_MLINESTYLE
350
17
  3
ACAD_PLOTSETTINGS
350
19
  3
ACAD_PLOTSTYLENAME
350
E
  3
ACAD_SCALELIST
350
47
  3
DWGPROPS
350
243
  0
DICTIONARY
  5
D
102
{ACAD_REACTORS
330
C
102
}
330
C
100
AcDbDictionary
281
     1
  0
DICTIONARY
  5
1A
102
{ACAD_REACTORS
330
C
102
}
330
C
100
AcDbDictionary
281
     1
  3
Layout1
350
1E
  3
Layout2
350
26
  3
Model
350
22
  0
DICTIONARY
  5
17
102
{ACAD_REACTORS
330
C
102
}
330
C
100
AcDbDictionary
281
     1
  3
Standard
350
18
  0
DICTIONARY
  5
19
102
{ACAD_REACTORS
330
C
102
}
330
C
100
AcDbDictionary
281
     1
  0
ACDBDICTIONARYWDFLT
  5
E
102
{ACAD_REACTORS
330
C
102
}
330
C
100
AcDbDictionary
281
     1
  3
Normal
350
F
100
AcDbDictionaryWithDefault
340
F
  0
DICTIONARY
  5
47
102
{ACAD_REACTORS
330
C
102
}
330
C
100
AcDbDictionary
281
     1
  3
A0
350
48
  3
A1
350
49
  3
A2
350
4A
  3
A3
350
4B
  3
A4
350
4C
  3
A5
350
4D
  3
A6
350
4E
  3
A7
350
4F
  3
A8
350
50
  3
A9
350
51
  3
B0
350
52
  3
B1
350
53
  3
B2
350
54
  3
B3
350
55
  3
B4
350
56
  3
B5
350
57
  3
B6
350
58
  0
XRECORD
  5
243
102
{ACAD_REACTORS
330
C
102
}
330
C
100
AcDbXrecord
280
     1
  1
DWGPROPS COOKIE
  2

  3

  4

  6

  7

  8
yuta.kunimatsu
  9

300
=
301
=
302
=
303
=
304
=
305
=
306
=
307
=
308
=
309
=
 40
0.0
 41
2460174.416467847
 42
2460174.416472754
  1

 90
        0
  0
LAYOUT
  5
1E
102
{ACAD_REACTORS
330
1A
102
}
330
1A
100
AcDbPlotSettings
  1

  2
none_device
  4

  6

 40
0.0
 41
0.0
 42
0.0
 43
0.0
 44
0.0
 45
0.0
 46
0.0
 47
0.0
 48
0.0
 49
0.0
140
0.0
141
0.0
142
1.0
143
1.0
 70
   688
 72
     1
 73
     0
 74
     5
  7

 75
    16
147
1.0
148
0.0
149
0.0
100
AcDbLayout
  1
Layout1
 70
     1
 71
     1
 10
0.0
 20
0.0
 11
420.0
 21
297.0
 12
0.0
 22
0.0
 32
0.0
 14
1.0000000000E+20
 24
1.0000000000E+20
 34
1.0000000000E+20
 15
-1.0000000000E+20
 25
-1.0000000000E+20
 35
-1.0000000000E+20
146
0.0
 13
0.0
 23
0.0
 33
0.0
 16
1.0
 26
0.0
 36
0.0
 17
0.0
 27
1.0
 37
0.0
 76
     0
330
1B
  0
LAYOUT
  5
26
102
{ACAD_REACTORS
330
1A
102
}
330
1A
100
AcDbPlotSettings
  1

  2
none_device
  4

  6

 40
0.0
 41
0.0
 42
0.0
 43
0.0
 44
0.0
 45
0.0
 46
0.0
 47
0.0
 48
0.0
 49
0.0
140
0.0
141
0.0
142
1.0
143
1.0
 70
   688
 72
     1
 73
     0
 74
     5
  7

 75
    16
147
1.0
148
0.0
149
0.0
100
AcDbLayout
  1
Layout2
 70
     1
 71
     2
 10
0.0
 20
0.0
 11
0.0
 21
0.0
 12
0.0
 22
0.0
 32
0.0
 14
0.0
 24
0.0
 34
0.0
 15
0.0
 25
0.0
 35
0.0
146
0.0
 13
0.0
 23
0.0
 33
0.0
 16
1.0
 26
0.0
 36
0.0
 17
0.0
 27
1.0
 37
0.0
 76
     0
330
23
  0
LAYOUT
  5
22
102
{ACAD_REACTORS
330
1A
102
}
330
1A
100
AcDbPlotSettings
  1

  2
none_device
  4
Letter_(8.50_x_11.00_Inches)
  6

 40
6.35
 41
6.35
 42
6.35000508
 43
6.35000508
 44
215.9
 45
279.4
 46
0.0
 47
0.0
 48
0.0
 49
0.0
140
0.0
141
0.0
142
1.0
143
1.0
 70
  1712
 72
     1
 73
     0
 74
     0
  7

 75
     0
147
1.0
148
0.0
149
0.0
100
AcDbLayout
  1
Model
 70
     1
 71
     0
 10
0.0
 20
0.0
 11
5250.0
 21
7425.0
 12
0.0
 22
0.0
 32
0.0
 14
0.0
 24
0.0
 34
0.0
 15
5250.0
 25
7425.0
 35
0.0
146
0.0
 13
0.0
 23
0.0
 33
0.0
 16
1.0
 26
0.0
 36
0.0
 17
0.0
 27
1.0
 37
0.0
 76
     0
330
1F
331
29
  0
MLINESTYLE
  5
18
102
{ACAD_REACTORS
330
17
102
}
330
17
100
AcDbMlineStyle
  2
Standard
 70
     0
  3

 62
   256
 51
90.0
 52
90.0
 71
     2
 49
0.5
 62
   256
  6
BYLAYER
 49
-0.5
 62
   256
  6
BYLAYER
  0
ACDBPLACEHOLDER
  5
F
102
{ACAD_REACTORS
330
E
102
}
330
E
  0
SCALE
  5
48
102
{ACAD_REACTORS
330
47
102
}
330
47
100
AcDbScale
 70
     0
300
1:1
140
1.0
141
1.0
290
     1
  0
SCALE
  5
49
102
{ACAD_REACTORS
330
47
102
}
330
47
100
AcDbScale
 70
     0
300
1:2
140
1.0
141
2.0
290
     0
  0
SCALE
  5
4A
102
{ACAD_REACTORS
330
47
102
}
330
47
100
AcDbScale
 70
     0
300
1:4
140
1.0
141
4.0
290
     0
  0
SCALE
  5
4B
102
{ACAD_REACTORS
330
47
102
}
330
47
100
AcDbScale
 70
     0
300
1:5
140
1.0
141
5.0
290
     0
  0
SCALE
  5
4C
102
{ACAD_REACTORS
330
47
102
}
330
47
100
AcDbScale
 70
     0
300
1:8
140
1.0
141
8.0
290
     0
  0
SCALE
  5
4D
102
{ACAD_REACTORS
330
47
102
}
330
47
100
AcDbScale
 70
     0
300
1:10
140
1.0
141
10.0
290
     0
  0
SCALE
  5
4E
102
{ACAD_REACTORS
330
47
102
}
330
47
100
AcDbScale
 70
     0
300
1:16
140
1.0
141
16.0
290
     0
  0
SCALE
  5
4F
102
{ACAD_REACTORS
330
47
102
}
330
47
100
AcDbScale
 70
     0
300
1:20
140
1.0
141
20.0
290
     0
  0
SCALE
  5
50
102
{ACAD_REACTORS
330
47
102
}
330
47
100
AcDbScale
 70
     0
300
1:30
140
1.0
141
30.0
290
     0
  0
SCALE
  5
51
102
{ACAD_REACTORS
330
47
102
}
330
47
100
AcDbScale
 70
     0
300
1:40
140
1.0
141
40.0
290
     0
  0
SCALE
  5
52
102
{ACAD_REACTORS
330
47
102
}
330
47
100
AcDbScale
 70
     0
300
1:50
140
1.0
141
50.0
290
     0
  0
SCALE
  5
53
102
{ACAD_REACTORS
330
47
102
}
330
47
100
AcDbScale
 70
     0
300
1:100
140
1.0
141
100.0
290
     0
  0
SCALE
  5
54
102
{ACAD_REACTORS
330
47
102
}
330
47
100
AcDbScale
 70
     0
300
2:1
140
2.0
141
1.0
290
     0
  0
SCALE
  5
55
102
{ACAD_REACTORS
330
47
102
}
330
47
100
AcDbScale
 70
     0
300
4:1
140
4.0
141
1.0
290
     0
  0
SCALE
  5
56
102
{ACAD_REACTORS
330
47
102
}
330
47
100
AcDbScale
 70
     0
300
8:1
140
8.0
141
1.0
290
     0
  0
SCALE
  5
57
102
{ACAD_REACTORS
330
47
102
}
330
47
100
AcDbScale
 70
     0
300
10:1
140
10.0
141
1.0
290
     0
  0
SCALE
  5
58
102
{ACAD_REACTORS
330
47
102
}
330
47
100
AcDbScale
 70
     0
300
100:1
140
100.0
141
1.0
290
     0
  0
ENDSEC
  0
EOF
