  0
SECTION
  2
HEADER
  9
$ACADVER
  1
AC1015
  9
$ACADMAINTVER
 70
     6
  9
$DWGCODEPAGE
  3
DOS932
  9
$INSBASE
 10
0.0
 20
0.0
 30
0.0
  9
$EXTMIN
 10
0.0
 20
0.0
 30
0.0
  9
$EXTMAX
 10
5250.0
 20
7425.0
 30
0.0
  9
$LIMMIN
 10
0.0
 20
0.0
  9
$LIMMAX
 10
5250.0
 20
7425.0
  9
$ORTHOMODE
 70
     0
  9
$REGENMODE
 70
     1
  9
$FILLMODE
 70
     1
  9
$QTEXTMODE
 70
     0
  9
$MIRRTEXT
 70
     1
  9
$LTSCALE
 40
25.0
  9
$ATTMODE
 70
     1
  9
$TEXTSIZE
 40
70.5555555556
  9
$TRACEWID
 40
1.0
  9
$TEXTSTYLE
  7
Standard
  9
$CLAYER
  8
0
  9
$CELTYPE
  6
ByLayer
  9
$CECOLOR
 62
   256
  9
$CELTSCALE
 40
1.0
  9
$DISPSILH
 70
     0
  9
$DIMSCALE
 40
1.0
  9
$DIMASZ
 40
37.5
  9
$DIMEXO
 40
25.0
  9
$DIMDLI
 40
3.75
  9
$DIMRND
 40
0.0
  9
$DIMDLE
 40
0.0
  9
$DIMEXE
 40
25.0
  9
$DIMTP
 40
0.0
  9
$DIMTM
 40
0.0
  9
$DIMTXT
 40
70.5555555556
  9
$DIMCEN
 40
2.5
  9
$DIMTSZ
 40
0.0
  9
$DIMTOL
 70
     0
  9
$DIMLIM
 70
     0
  9
$DIMTIH
 70
     1
  9
$DIMTOH
 70
     1
  9
$DIMSE1
 70
     0
  9
$DIMSE2
 70
     0
  9
$DIMTAD
 70
     1
  9
$DIMZIN
 70
     0
  9
$DIMBLK
  1

  9
$DIMASO
 70
     1
  9
$DIMSHO
 70
     1
  9
$DIMPOST
  1

  9
$DIMAPOST
  1

  9
$DIMALT
 70
     0
  9
$DIMALTD
 70
     3
  9
$DIMALTF
 40
0.0393700787
  9
$DIMLFAC
 40
1.0
  9
$DIMTOFL
 70
     1
  9
$DIMTVP
 40
0.0
  9
$DIMTIX
 70
     0
  9
$DIMSOXD
 70
     0
  9
$DIMSAH
 70
     0
  9
$DIMBLK1
  1

  9
$DIMBLK2
  1

  9
$DIMSTYLE
  2
ISO-25
  9
$DIMCLRD
 70
     0
  9
$DIMCLRE
 70
     0
  9
$DIMCLRT
 70
     0
  9
$DIMTFAC
 40
1.0
  9
$DIMGAP
 40
38.1
  9
$DIMJUST
 70
     0
  9
$DIMSD1
 70
     0
  9
$DIMSD2
 70
     0
  9
$DIMTOLJ
 70
     0
  9
$DIMTZIN
 70
     0
  9
$DIMALTZ
 70
     0
  9
$DIMALTTZ
 70
     0
  9
$DIMUPT
 70
     0
  9
$DIMDEC
 70
     0
  9
$DIMTDEC
 70
     0
  9
$DIMALTU
 70
     2
  9
$DIMALTTD
 70
     3
  9
$DIMTXSTY
  7
Standard
  9
$DIMAUNIT
 70
     0
  9
$DIMADEC
 70
     2
  9
$DIMALTRND
 40
0.0
  9
$DIMAZIN
 70
     0
  9
$DIMDSEP
 70
    44
  9
$DIMATFIT
 70
     3
  9
$DIMFRAC
 70
     0
  9
$DIMLDRBLK
  1

  9
$DIMLUNIT
 70
     2
  9
$DIMLWD
 70
    -2
  9
$DIMLWE
 70
    -2
  9
$DIMTMOVE
 70
     0
  9
$LUNITS
 70
     2
  9
$LUPREC
 70
     2
  9
$SKETCHINC
 40
1.0
  9
$FILLETRAD
 40
0.0
  9
$AUNITS
 70
     0
  9
$AUPREC
 70
     2
  9
$MENU
  1
.
  9
$ELEVATION
 40
0.0
  9
$PELEVATION
 40
0.0
  9
$THICKNESS
 40
0.0
  9
$LIMCHECK
 70
     0
  9
$CHAMFERA
 40
0.0
  9
$CHAMFERB
 40
0.0
  9
$CHAMFERC
 40
0.0
  9
$CHAMFERD
 40
0.0
  9
$SKPOLY
 70
     0
  9
$TDCREATE
 40
2460174.790913322
  9
$TDUCREATE
 40
2460174.415913322
  9
$TDUPDATE
 40
2460174.790915995
  9
$TDUUPDATE
 40
2460174.415915995
  9
$TDINDWG
 40
0.0000000116
  9
$TDUSRTIMER
 40
0.0000000116
  9
$USRTIMER
 70
     1
  9
$ANGBASE
 50
0.0
  9
$ANGDIR
 70
     0
  9
$PDMODE
 70
     0
  9
$PDSIZE
 40
-1.0
  9
$PLINEWID
 40
0.0
  9
$SPLFRAME
 70
     0
  9
$SPLINETYPE
 70
     6
  9
$SPLINESEGS
 70
     8
  9
$HANDSEED
  5
222
  9
$SURFTAB1
 70
     6
  9
$SURFTAB2
 70
     6
  9
$SURFTYPE
 70
     6
  9
$SURFU
 70
     6
  9
$SURFV
 70
     6
  9
$UCSBASE
  2

  9
$UCSNAME
  2

  9
$UCSORG
 10
0.0
 20
0.0
 30
0.0
  9
$UCSXDIR
 10
1.0
 20
0.0
 30
0.0
  9
$UCSYDIR
 10
0.0
 20
1.0
 30
0.0
  9
$UCSORTHOREF
  2

  9
$UCSORTHOVIEW
 70
     0
  9
$UCSORGTOP
 10
0.0
 20
0.0
 30
0.0
  9
$UCSORGBOTTOM
 10
0.0
 20
0.0
 30
0.0
  9
$UCSORGLEFT
 10
0.0
 20
0.0
 30
0.0
  9
$UCSORGRIGHT
 10
0.0
 20
0.0
 30
0.0
  9
$UCSORGFRONT
 10
0.0
 20
0.0
 30
0.0
  9
$UCSORGBACK
 10
0.0
 20
0.0
 30
0.0
  9
$PUCSBASE
  2

  9
$PUCSNAME
  2

  9
$PUCSORG
 10
0.0
 20
0.0
 30
0.0
  9
$PUCSXDIR
 10
1.0
 20
0.0
 30
0.0
  9
$PUCSYDIR
 10
0.0
 20
1.0
 30
0.0
  9
$PUCSORTHOREF
  2

  9
$PUCSORTHOVIEW
 70
     0
  9
$PUCSORGTOP
 10
0.0
 20
0.0
 30
0.0
  9
$PUCSORGBOTTOM
 10
0.0
 20
0.0
 30
0.0
  9
$PUCSORGLEFT
 10
0.0
 20
0.0
 30
0.0
  9
$PUCSORGRIGHT
 10
0.0
 20
0.0
 30
0.0
  9
$PUCSORGFRONT
 10
0.0
 20
0.0
 30
0.0
  9
$PUCSORGBACK
 10
0.0
 20
0.0
 30
0.0
  9
$USERI1
 70
     0
  9
$USERI2
 70
     0
  9
$USERI3
 70
     0
  9
$USERI4
 70
     0
  9
$USERI5
 70
     0
  9
$USERR1
 40
0.0
  9
$USERR2
 40
0.0
  9
$USERR3
 40
0.0
  9
$USERR4
 40
0.0
  9
$USERR5
 40
0.0
  9
$WORLDVIEW
 70
     1
  9
$SHADEDGE
 70
     3
  9
$SHADEDIF
 70
    70
  9
$TILEMODE
 70
     1
  9
$MAXACTVP
 70
    64
  9
$PINSBASE
 10
0.0
 20
0.0
 30
0.0
  9
$PLIMCHECK
 70
     0
  9
$PEXTMIN
 10
1.0000000000E+20
 20
1.0000000000E+20
 30
1.0000000000E+20
  9
$PEXTMAX
 10
-1.0000000000E+20
 20
-1.0000000000E+20
 30
-1.0000000000E+20
  9
$PLIMMIN
 10
0.0
 20
0.0
  9
$PLIMMAX
 10
420.0
 20
297.0
  9
$UNITMODE
 70
     0
  9
$VISRETAIN
 70
     1
  9
$PLINEGEN
 70
     0
  9
$PSLTSCALE
 70
     1
  9
$TREEDEPTH
 70
  3020
  9
$CMLSTYLE
  2
Standard
  9
$CMLJUST
 70
     0
  9
$CMLSCALE
 40
20.0
  9
$PROXYGRAPHICS
 70
     1
  9
$MEASUREMENT
 70
     1
  9
$CELWEIGHT
370
    -1
  9
$ENDCAPS
280
     0
  9
$JOINSTYLE
280
     0
  9
$LWDISPLAY
290
     1
  9
$INSUNITS
 70
     4
  9
$HYPERLINKBASE
  1

  9
$STYLESHEET
  1

  9
$XEDIT
290
     1
  9
$CEPSNTYPE
380
     0
  9
$PSTYLEMODE
290
     1
  9
$FINGERPRINTGUID
  2
{5cbde6ba-45f4-4007-a384-655ce28f7d2a}
  9
$VERSIONGUID
  2
{FAEB1C32-E019-11D5-929B-00C0DF256EC4}
  9
$EXTNAMES
290
     1
  9
$PSVPSCALE
 40
0.0
  9
$OLESTARTUP
290
     0
  0
ENDSEC
  0
SECTION
  2
CLASSES
  0
CLASS
  1
ACDBDICTIONARYWDFLT
  2
AcDbDictionaryWithDefault
  3
ObjectDBX Classes
 90
        0
280
     0
281
     0
  0
CLASS
  1
VISUALSTYLE
  2
AcDbVisualStyle
  3
ObjectDBX Classes
 90
     4095
280
     0
281
     0
  0
CLASS
  1
MATERIAL
  2
AcDbMaterial
  3
ObjectDBX Classes
 90
     1153
280
     0
281
     0
  0
CLASS
  1
SCALE
  2
AcDbScale
  3
ObjectDBX Classes
 90
     1153
280
     0
281
     0
  0
CLASS
  1
TABLESTYLE
  2
AcDbTableStyle
  3
ObjectDBX Classes
 90
     4095
280
     0
281
     0
  0
CLASS
  1
MLEADERSTYLE
  2
AcDbMLeaderStyle
  3
ACDB_MLEADERSTYLE_CLASS
 90
     4095
280
     0
281
     0
  0
CLASS
  1
SUN
  2
AcDbSun
  3
SCENEOE
 90
     1153
280
     0
281
     0
  0
CLASS
  1
ACDBPLACEHOLDER
  2
AcDbPlaceHolder
  3
ObjectDBX Classes
 90
        0
280
     0
281
     0
  0
CLASS
  1
LAYOUT
  2
AcDbLayout
  3
ObjectDBX Classes
 90
        0
280
     0
281
     0
  0
ENDSEC
  0
SECTION
  2
TABLES
  0
TABLE
  2
VPORT
  5
8
330
0
100
AcDbSymbolTable
 70
     1
  0
VPORT
  5
29
330
8
100
AcDbSymbolTableRecord
100
AcDbViewportTableRecord
  2
*Active
 70
     0
 10
0.0
 20
0.0
 11
1.0
 21
1.0
 12
2625.0
 22
3712.5
 13
0.0
 23
0.0
 14
10.0
 24
10.0
 15
10.0
 25
10.0
 16
0.0
 26
0.0
 36
1.0
 17
0.0
 27
0.0
 37
0.0
 40
7425.0
 41
0.7070707071
 42
50.0
 43
0.0
 44
0.0
 50
0.0
 51
0.0
 71
     0
 72
  2000
 73
     1
 74
     3
 75
     0
 76
     0
 77
     0
 78
     0
281
     0
 65
     1
110
0.0
120
0.0
130
0.0
111
1.0
121
0.0
131
0.0
112
0.0
122
1.0
132
0.0
 79
     0
146
0.0
  0
ENDTAB
  0
TABLE
  2
LTYPE
  5
5
330
0
100
AcDbSymbolTable
 70
     6
  0
LTYPE
  5
14
330
5
100
AcDbSymbolTableRecord
100
AcDbLinetypeTableRecord
  2
ByBlock
 70
     0
  3

 72
    65
 73
     0
 40
0.0
  0
LTYPE
  5
15
330
5
100
AcDbSymbolTableRecord
100
AcDbLinetypeTableRecord
  2
ByLayer
 70
     0
  3

 72
    65
 73
     0
 40
0.0
  0
LTYPE
  5
16
330
5
100
AcDbSymbolTableRecord
100
AcDbLinetypeTableRecord
  2
Continuous
 70
     0
  3
Solid line
 72
    65
 73
     0
 40
0.0
  0
LTYPE
  5
5E
330
5
100
AcDbSymbolTableRecord
100
AcDbLinetypeTableRecord
  2
HIDDEN
 70
     0
  3
Hidden __ __ __ __ __ __ __ __ __ __ __ __ __ __
 72
    65
 73
     2
 40
1.905
 49
1.27
 74
     0
 49
-0.635
 74
     0
  0
LTYPE
  5
5F
330
5
100
AcDbSymbolTableRecord
100
AcDbLinetypeTableRecord
  2
PHANTOM
 70
     0
  3
Phantom ______  __  __  ______  __  __  ______
 72
    65
 73
     6
 40
12.7
 49
6.35
 74
     0
 49
-1.27
 74
     0
 49
1.27
 74
     0
 49
-1.27
 74
     0
 49
1.27
 74
     0
 49
-1.27
 74
     0
  0
LTYPE
  5
60
330
5
100
AcDbSymbolTableRecord
100
AcDbLinetypeTableRecord
  2
CENTER
 70
     0
  3
Center ____ _ ____ _ ____ _ ____ _ ____ _ ____
 72
    65
 73
     4
 40
10.16
 49
6.35
 74
     0
 49
-1.27
 74
     0
 49
1.27
 74
     0
 49
-1.27
 74
     0
  0
LTYPE
  5
61
330
5
100
AcDbSymbolTableRecord
100
AcDbLinetypeTableRecord
  2
CENTERX2
 70
     0
  3
Center (2x) ________  __  ________  __  _____
 72
    65
 73
     4
 40
20.32
 49
12.7
 74
     0
 49
-2.54
 74
     0
 49
2.54
 74
     0
 49
-2.54
 74
     0
  0
LTYPE
  5
62
330
5
100
AcDbSymbolTableRecord
100
AcDbLinetypeTableRecord
  2
DOT2
 70
     0
  3
Dot (.5x) ........................................
 72
    65
 73
     2
 40
0.635
 49
0.0
 74
     0
 49
-0.635
 74
     0
  0
ENDTAB
  0
TABLE
  2
LAYER
  5
2
330
0
100
AcDbSymbolTable
 70
     6
  0
LAYER
  5
10
330
2
100
AcDbSymbolTableRecord
100
AcDbLayerTableRecord
  2
0
 70
     0
 62
     7
  6
Continuous
370
    -3
390
F
  0
LAYER
  5
63
330
2
100
AcDbSymbolTableRecord
100
AcDbLayerTableRecord
  2
1
 70
     0
 62
     4
  6
Continuous
370
    25
390
F
  0
LAYER
  5
64
330
2
100
AcDbSymbolTableRecord
100
AcDbLayerTableRecord
  2
2
 70
     0
 62
     3
  6
CENTERX2
370
    -3
390
F
  0
LAYER
  5
65
330
2
100
AcDbSymbolTableRecord
100
AcDbLayerTableRecord
  2
3
 70
     0
 62
     2
  6
Continuous
370
    -3
390
F
  0
LAYER
  5
66
330
2
100
AcDbSymbolTableRecord
100
AcDbLayerTableRecord
  2
4
 70
     0
 62
     7
  6
Continuous
370
    -3
390
F
  0
LAYER
  5
67
330
2
100
AcDbSymbolTableRecord
100
AcDbLayerTableRecord
  2
基礎穴
 70
     0
 62
     1
  6
PHANTOM
370
    35
390
F
  0
ENDTAB
  0
TABLE
  2
STYLE
  5
3
330
0
100
AcDbSymbolTable
 70
     2
  0
STYLE
  5
11
330
3
100
AcDbSymbolTableRecord
100
AcDbTextStyleTableRecord
  2
Standard
 70
     0
 40
0.0
 41
1.0
 50
0.0
 71
     0
 42
70.5555555556
  3
txt
  4
bigfont
  0
STYLE
  5
68
330
3
100
AcDbSymbolTableRecord
100
AcDbTextStyleTableRecord
  2
SLDTEXTSTYLE0
 70
     0
 40
0.0
 41
0.7
 50
0.0
 71
     0
 42
70.5555555556
  3
TXT
  4
bigfont
  0
ENDTAB
  0
TABLE
  2
VIEW
  5
6
330
0
100
AcDbSymbolTable
 70
     0
  0
ENDTAB
  0
TABLE
  2
UCS
  5
7
330
0
100
AcDbSymbolTable
 70
     0
  0
ENDTAB
  0
TABLE
  2
APPID
  5
9
330
0
100
AcDbSymbolTable
 70
     1
  0
APPID
  5
12
330
9
100
AcDbSymbolTableRecord
100
AcDbRegAppTableRecord
  2
ACAD
 70
     0
  0
ENDTAB
  0
TABLE
  2
DIMSTYLE
  5
A
330
0
100
AcDbSymbolTable
 70
     1
100
AcDbDimStyleTable
  0
DIMSTYLE
105
27
330
A
100
AcDbSymbolTableRecord
100
AcDbDimStyleTableRecord
  2
ISO-25
 70
     0
 41
2.5
 42
0.625
 43
3.75
 44
1.25
 73
     0
 74
     0
 77
     1
 78
     8
140
2.5
141
2.5
143
0.0393700787
147
0.625
171
     3
172
     1
178
     0
271
     2
272
     2
274
     3
278
    44
283
     0
284
     8
340
11
  0
ENDTAB
  0
TABLE
  2
BLOCK_RECORD
  5
1
330
0
100
AcDbSymbolTable
 70
     2
  0
BLOCK_RECORD
  5
1F
330
1
100
AcDbSymbolTableRecord
100
AcDbBlockTableRecord
  2
*Model_Space
340
22
  0
BLOCK_RECORD
  5
1B
330
1
100
AcDbSymbolTableRecord
100
AcDbBlockTableRecord
  2
*Paper_Space
340
1E
  0
BLOCK_RECORD
  5
23
330
1
100
AcDbSymbolTableRecord
100
AcDbBlockTableRecord
  2
*Paper_Space0
340
26
  0
BLOCK_RECORD
  5
DF
330
1
100
AcDbSymbolTableRecord
100
AcDbBlockTableRecord
  2
SW_CENTERMARKSYMBOL_0
340
0
102
{BLKREFS
331
EA
102
}
  0
ENDTAB
  0
ENDSEC
  0
SECTION
  2
BLOCKS
  0
BLOCK
  5
20
330
1F
100
AcDbEntity
  8
0
100
AcDbBlockBegin
  2
*Model_Space
 70
     0
 10
0.0
 20
0.0
 30
0.0
  3
*Model_Space
  1

  0
ENDBLK
  5
21
330
1F
100
AcDbEntity
  8
0
100
AcDbBlockEnd
  0
BLOCK
  5
1C
330
1B
100
AcDbEntity
 67
     1
  8
0
100
AcDbBlockBegin
  2
*Paper_Space
 70
     0
 10
0.0
 20
0.0
 30
0.0
  3
*Paper_Space
  1

  0
ENDBLK
  5
1D
330
1B
100
AcDbEntity
 67
     1
  8
0
100
AcDbBlockEnd
  0
BLOCK
  5
24
330
23
100
AcDbEntity
  8
0
100
AcDbBlockBegin
  2
*Paper_Space0
 70
     0
 10
0.0
 20
0.0
 30
0.0
  3
*Paper_Space0
  1

  0
ENDBLK
  5
25
330
23
100
AcDbEntity
  8
0
100
AcDbBlockEnd
  0
BLOCK
  5
E0
330
DF
100
AcDbEntity
  8
0
100
AcDbBlockBegin
  2
SW_CENTERMARKSYMBOL_0
 70
     0
 10
0.0
 20
0.0
 30
0.0
  3
SW_CENTERMARKSYMBOL_0
  1

  0
LINE
  5
E2
330
DF
100
AcDbEntity
  8
2
 62
     0
100
AcDbLine
 10
0.0
 20
0.0
 30
0.0
 11
0.0
 21
2.5
 31
0.0
  0
LINE
  5
E3
330
DF
100
AcDbEntity
  8
2
 62
     0
100
AcDbLine
 10
0.0
 20
0.0
 30
0.0
 11
-2.5
 21
0.0
 31
0.0
  0
LINE
  5
E4
330
DF
100
AcDbEntity
  8
2
 62
     0
100
AcDbLine
 10
0.0
 20
0.0
 30
0.0
 11
0.0
 21
-2.5
 31
0.0
  0
LINE
  5
E5
330
DF
100
AcDbEntity
  8
2
 62
     0
100
AcDbLine
 10
0.0
 20
0.0
 30
0.0
 11
2.5
 21
0.0
 31
0.0
  0
LINE
  5
E6
330
DF
100
AcDbEntity
  8
2
 62
     0
100
AcDbLine
 10
0.0
 20
5.0
 30
0.0
 11
0.0
 21
612.5
 31
0.0
  0
LINE
  5
E7
330
DF
100
AcDbEntity
  8
2
 62
     0
100
AcDbLine
 10
-5.0
 20
0.0
 30
0.0
 11
-612.5
 21
0.0
 31
0.0
  0
LINE
  5
E8
330
DF
100
AcDbEntity
  8
2
 62
     0
100
AcDbLine
 10
0.0
 20
-5.0
 30
0.0
 11
0.0
 21
-612.5
 31
0.0
  0
LINE
  5
E9
330
DF
100
AcDbEntity
  8
2
 62
     0
100
AcDbLine
 10
5.0
 20
0.0
 30
0.0
 11
612.5
 21
0.0
 31
0.0
  0
ENDBLK
  5
E1
330
DF
100
AcDbEntity
  8
0
100
AcDbBlockEnd
  0
ENDSEC
  0
SECTION
  2
ENTITIES
  0
MTEXT
  5
69
330
1F
100
AcDbEntity
  8
0
  6
Continuous
 62
     7
370
     0
100
AcDbMText
 10
3798.4042318804
 20
1968.3436949745
 30
0.0
 40
70.5555555556
 41
0.0
 71
     1
 72
     1
  1
LL07040YG01K-L2
  7
SLDTEXTSTYLE0
 73
     1
 44
1.0
  0
LINE
  5
6A
330
1F
100
AcDbEntity
  8
1
100
AcDbLine
 10
660.5313030499
 20
2366.4190414508
 30
0.0
 11
660.5313030499
 21
2321.4190414508
 31
0.0
  0
LINE
  5
6B
330
1F
100
AcDbEntity
  8
1
100
AcDbLine
 10
695.5313030499
 20
2321.4190414508
 30
0.0
 11
695.5313030499
 21
2366.4190414508
 31
0.0
  0
LINE
  5
6C
330
1F
100
AcDbEntity
  8
1
100
AcDbLine
 10
2890.5313030499
 20
2366.4190414508
 30
0.0
 11
2890.5313030499
 21
2321.4190414508
 31
0.0
  0
LINE
  5
6D
330
1F
100
AcDbEntity
  8
1
100
AcDbLine
 10
2925.5313030499
 20
2321.4190414508
 30
0.0
 11
2925.5313030499
 21
2366.4190414508
 31
0.0
  0
LINE
  5
6E
330
1F
100
AcDbEntity
  8
1
100
AcDbLine
 10
2776.3272002225
 20
2912.1236661302
 30
0.0
 11
1431.0132634315
 21
3660.4378791957
 31
0.0
  0
ARC
  5
6F
330
1F
100
AcDbEntity
  8
1
100
AcDbCircle
 10
2673.0313030499
 20
2726.4190414508
 30
0.0
 40
212.5000000000052
100
AcDbArc
 50
249.2749201048
 51
60.915542279
  0
LINE
  5
70
330
1F
100
AcDbEntity
  8
1
100
AcDbLine
 10
1158.018912448
 20
3072.4500463081
 30
0.0
 11
2597.8308938102
 21
2527.6700830883
 31
0.0
  0
ARC
  5
71
330
1F
100
AcDbEntity
  8
1
100
AcDbCircle
 10
1273.0313030499
 20
3376.4190414508
 30
0.0
 40
325.000000000002
100
AcDbArc
 50
60.915542279
 51
249.2749201048
  0
LINE
  5
72
330
1F
100
AcDbEntity
  8
1
100
AcDbLine
 10
2898.0313030499
 20
2491.4190414508
 30
0.0
 11
2898.0313030499
 21
2546.4190414508
 31
0.0
  0
LINE
  5
73
330
1F
100
AcDbEntity
  8
1
100
AcDbLine
 10
2448.0313030499
 20
2491.4190414508
 30
0.0
 11
2448.0313030499
 21
2546.4190414508
 31
0.0
  0
LINE
  5
74
330
1F
100
AcDbEntity
  8
1
100
AcDbLine
 10
2898.0313030499
 20
2546.4190414508
 30
0.0
 11
2785.9748730307
 21
2546.4190414508
 31
0.0
  0
LINE
  5
75
330
1F
100
AcDbEntity
  8
1
100
AcDbLine
 10
2548.2788237802
 20
2546.4190414508
 30
0.0
 11
2448.0313030499
 21
2546.4190414508
 31
0.0
  0
LINE
  5
76
330
1F
100
AcDbEntity
  8
1
100
AcDbLine
 10
2816.0313030499
 20
2546.4190414508
 30
0.0
 11
2816.0313030499
 21
2564.4190414508
 31
0.0
  0
LINE
  5
77
330
1F
100
AcDbEntity
  8
1
100
AcDbLine
 10
2530.0313030499
 20
2553.323334373
 30
0.0
 11
2530.0313030499
 21
2546.4190414508
 31
0.0
  0
LINE
  5
78
330
1F
100
AcDbEntity
  8
1
100
AcDbLine
 10
2816.0313030499
 20
2564.4190414508
 30
0.0
 11
2810.553119501
 21
2564.4190414508
 31
0.0
  0
LINE
  5
79
330
1F
100
AcDbEntity
  8
1
100
AcDbLine
 10
613.0313030499
 20
2262.4190414508
 30
0.0
 11
2973.0313030499
 21
2262.4190414508
 31
0.0
  0
LINE
  5
7A
330
1F
100
AcDbEntity
  8
1
100
AcDbLine
 10
2973.0313030499
 20
2256.4190414508
 30
0.0
 11
2973.0313030499
 21
2262.4190414508
 31
0.0
  0
LINE
  5
7B
330
1F
100
AcDbEntity
  8
1
100
AcDbLine
 10
613.0313030499
 20
2256.4190414508
 30
0.0
 11
2973.0313030499
 21
2256.4190414508
 31
0.0
  0
LINE
  5
7C
330
1F
100
AcDbEntity
  8
1
100
AcDbLine
 10
613.0313030499
 20
2256.4190414508
 30
0.0
 11
613.0313030499
 21
2262.4190414508
 31
0.0
  0
LINE
  5
7D
330
1F
100
AcDbEntity
  8
1
100
AcDbLine
 10
2973.0313030499
 20
2315.4190414508
 30
0.0
 11
613.0313030499
 21
2315.4190414508
 31
0.0
  0
LINE
  5
7E
330
1F
100
AcDbEntity
  8
1
100
AcDbLine
 10
613.0313030499
 20
2315.4190414508
 30
0.0
 11
613.0313030499
 21
2321.4190414508
 31
0.0
  0
LINE
  5
7F
330
1F
100
AcDbEntity
  8
1
100
AcDbLine
 10
2973.0313030499
 20
2321.4190414508
 30
0.0
 11
613.0313030499
 21
2321.4190414508
 31
0.0
  0
LINE
  5
80
330
1F
100
AcDbEntity
  8
1
100
AcDbLine
 10
2973.0313030499
 20
2315.4190414508
 30
0.0
 11
2973.0313030499
 21
2321.4190414508
 31
0.0
  0
LINE
  5
81
330
1F
100
AcDbEntity
  8
1
100
AcDbLine
 10
672.0313030499
 20
2262.4190414508
 30
0.0
 11
672.0313030499
 21
2315.4190414508
 31
0.0
  0
LINE
  5
82
330
1F
100
AcDbEntity
  8
1
100
AcDbLine
 10
2914.0313030499
 20
2262.4190414508
 30
0.0
 11
2914.0313030499
 21
2315.4190414508
 31
0.0
  0
LINE
  5
83
330
1F
100
AcDbEntity
  8
1
100
AcDbLine
 10
2973.0313030499
 20
2372.4190414508
 30
0.0
 11
2973.0313030499
 21
2366.4190414508
 31
0.0
  0
LINE
  5
84
330
1F
100
AcDbEntity
  8
1
100
AcDbLine
 10
2973.0313030499
 20
2366.4190414508
 30
0.0
 11
613.0313030499
 21
2366.4190414508
 31
0.0
  0
LINE
  5
85
330
1F
100
AcDbEntity
  8
1
100
AcDbLine
 10
613.0313030499
 20
2372.4190414508
 30
0.0
 11
613.0313030499
 21
2366.4190414508
 31
0.0
  0
LINE
  5
86
330
1F
100
AcDbEntity
  8
1
100
AcDbLine
 10
2973.0313030499
 20
2372.4190414508
 30
0.0
 11
613.0313030499
 21
2372.4190414508
 31
0.0
  0
LINE
  5
87
330
1F
100
AcDbEntity
  8
1
100
AcDbLine
 10
2973.0313030499
 20
2491.4190414508
 30
0.0
 11
613.0313030499
 21
2491.4190414508
 31
0.0
  0
LINE
  5
88
330
1F
100
AcDbEntity
  8
1
100
AcDbLine
 10
2973.0313030499
 20
2485.4190414508
 30
0.0
 11
613.0313030499
 21
2485.4190414508
 31
0.0
  0
LINE
  5
89
330
1F
100
AcDbEntity
  8
1
100
AcDbLine
 10
2973.0313030499
 20
2491.4190414508
 30
0.0
 11
2973.0313030499
 21
2485.4190414508
 31
0.0
  0
LINE
  5
8A
330
1F
100
AcDbEntity
  8
1
100
AcDbLine
 10
613.0313030499
 20
2491.4190414508
 30
0.0
 11
613.0313030499
 21
2485.4190414508
 31
0.0
  0
LINE
  5
8B
330
1F
100
AcDbEntity
  8
1
100
AcDbLine
 10
672.0313030499
 20
2485.4190414508
 30
0.0
 11
672.0313030499
 21
2372.4190414508
 31
0.0
  0
LINE
  5
8C
330
1F
100
AcDbEntity
  8
1
100
AcDbLine
 10
2914.0313030499
 20
2485.4190414508
 30
0.0
 11
2914.0313030499
 21
2372.4190414508
 31
0.0
  0
LINE
  5
8D
330
1F
100
AcDbEntity
  8
1
100
AcDbLine
 10
2524.0313030499
 20
4132.4190414508
 30
0.0
 11
2524.0313030499
 21
4136.4190414508
 31
0.0
  0
LINE
  5
8E
330
1F
100
AcDbEntity
  8
1
100
AcDbLine
 10
2524.0313030499
 20
4132.4190414508
 30
0.0
 11
1268.0313030499
 21
4132.4190414508
 31
0.0
  0
LINE
  5
8F
330
1F
100
AcDbEntity
  8
1
100
AcDbLine
 10
1268.0313030499
 20
4132.4190414508
 30
0.0
 11
1268.0313030499
 21
4136.4190414508
 31
0.0
  0
LINE
  5
90
330
1F
100
AcDbEntity
  8
1
100
AcDbLine
 10
2524.0313030499
 20
4136.4190414508
 30
0.0
 11
1268.0313030499
 21
4136.4190414508
 31
0.0
  0
LINE
  5
91
330
1F
100
AcDbEntity
  8
1
100
AcDbLine
 10
2472.2791086646
 20
4132.4190414508
 30
0.0
 11
2403.4264221649
 21
3364.4273704591
 31
0.0
  0
ARC
  5
92
330
1F
100
AcDbEntity
  8
1
100
AcDbCircle
 10
1355.0313030499
 20
3458.4190414508
 30
0.0
 40
1052.600000000001
100
AcDbArc
 50
342.6169815304
 51
354.8769631789
  0
ARC
  5
93
330
1F
100
AcDbEntity
  8
1
100
AcDbCircle
 10
1355.0313030499
 20
3458.4190414508
 30
0.0
 40
1052.600000000001
100
AcDbArc
 50
293.2664903767
 51
315.1210277295
  0
ARC
  5
94
330
1F
100
AcDbEntity
  8
1
100
AcDbCircle
 10
1355.0313030499
 20
3294.4190414508
 30
0.0
 40
888.6000000000006
100
AcDbArc
 50
180.0
 51
244.6445709451
  0
LINE
  5
95
330
1F
100
AcDbEntity
  8
1
100
AcDbLine
 10
466.4313030499
 20
3294.4190414508
 30
0.0
 11
466.4313030499
 21
3307.9190414508
 31
0.0
  0
ARC
  5
96
330
1F
100
AcDbEntity
  8
1
100
AcDbCircle
 10
1204.5313030499
 20
3307.9190414508
 30
0.0
 40
738.0999999999999
100
AcDbArc
 50
90.0
 51
180.0
  0
LINE
  5
97
330
1F
100
AcDbEntity
  8
1
100
AcDbLine
 10
1204.5313030499
 20
4046.0190414508
 30
0.0
 11
1319.4313030499
 21
4046.0190414508
 31
0.0
  0
LINE
  5
98
330
1F
100
AcDbEntity
  8
1
100
AcDbLine
 10
1319.4313030499
 20
4046.0190414508
 30
0.0
 11
1319.4313030499
 21
4132.4190414508
 31
0.0
  0
CIRCLE
  5
99
330
1F
100
AcDbEntity
  8
0
  6
HIDDEN
 62
     7
370
    18
100
AcDbCircle
 10
2673.0313030499
 20
2726.4190414508
 30
0.0
 40
23.99999999999955
  0
ARC
  5
9A
330
1F
100
AcDbEntity
  8
0
  6
HIDDEN
 62
     7
370
    18
100
AcDbCircle
 10
2673.0313030499
 20
2726.4190414508
 30
0.0
 40
195.5
100
AcDbArc
 50
298.9928373896
 51
241.0071626104
  0
LINE
  5
9B
330
1F
100
AcDbEntity
  8
0
  6
HIDDEN
 62
     7
370
    18
100
AcDbLine
 10
2767.7902076447
 20
2555.4190414508
 30
0.0
 11
2578.2723984551
 21
2555.4190414508
 31
0.0
  0
LINE
  5
9C
330
1F
100
AcDbEntity
  8
0
  6
HIDDEN
 62
     7
370
    18
100
AcDbLine
 10
2785.9748730307
 20
2546.4190414508
 30
0.0
 11
2548.2788237802
 21
2546.4190414508
 31
0.0
  0
LINE
  5
9D
330
1F
100
AcDbEntity
  8
0
  6
HIDDEN
 62
     7
370
    18
100
AcDbLine
 10
2530.0313030499
 20
2564.4190414508
 30
0.0
 11
2530.0313030499
 21
2553.323334373
 31
0.0
  0
LINE
  5
9E
330
1F
100
AcDbEntity
  8
0
  6
HIDDEN
 62
     7
370
    18
100
AcDbLine
 10
2563.595248662
 20
2564.4190414508
 30
0.0
 11
2530.0313030499
 21
2564.4190414508
 31
0.0
  0
LINE
  5
9F
330
1F
100
AcDbEntity
  8
0
  6
HIDDEN
 62
     7
370
    18
100
AcDbLine
 10
2810.553119501
 20
2564.4190414508
 30
0.0
 11
2782.4673574379
 21
2564.4190414508
 31
0.0
  0
CIRCLE
  5
A0
330
1F
100
AcDbEntity
  8
0
  6
HIDDEN
 62
     7
370
    18
100
AcDbCircle
 10
2673.0313030499
 20
2726.4190414508
 30
0.0
 40
112.4999999999994
  0
CIRCLE
  5
A1
330
1F
100
AcDbEntity
  8
0
  6
HIDDEN
 62
     7
370
    18
100
AcDbCircle
 10
1273.0313030499
 20
3376.4190414508
 30
0.0
 40
224.9999999999998
  0
LINE
  5
A2
330
1F
100
AcDbEntity
  8
0
  6
HIDDEN
 62
     7
370
    18
100
AcDbLine
 10
2908.0313030499
 20
2256.4190414508
 30
0.0
 11
2908.0313030499
 21
2321.4190414508
 31
0.0
  0
LINE
  5
A3
330
1F
100
AcDbEntity
  8
0
  6
HIDDEN
 62
     7
370
    18
100
AcDbLine
 10
678.0313030499
 20
2256.4190414508
 30
0.0
 11
678.0313030499
 21
2321.4190414508
 31
0.0
  0
LINE
  5
A4
330
1F
100
AcDbEntity
  8
0
  6
HIDDEN
 62
     7
370
    18
100
AcDbLine
 10
678.0313030499
 20
2491.4190414508
 30
0.0
 11
678.0313030499
 21
2366.4190414508
 31
0.0
  0
LINE
  5
A5
330
1F
100
AcDbEntity
  8
0
  6
HIDDEN
 62
     7
370
    18
100
AcDbLine
 10
2908.0313030499
 20
2491.4190414508
 30
0.0
 11
2908.0313030499
 21
2366.4190414508
 31
0.0
  0
ARC
  5
A6
330
1F
100
AcDbEntity
  8
0
  6
HIDDEN
 62
     7
370
    18
100
AcDbCircle
 10
1355.0313030499
 20
3458.4190414508
 30
0.0
 40
1052.600000000001
100
AcDbArc
 50
315.1210277295
 51
342.6169815304
  0
ARC
  5
A7
330
1F
100
AcDbEntity
  8
0
  6
HIDDEN
 62
     7
370
    18
100
AcDbCircle
 10
1355.0313030499
 20
3458.4190414508
 30
0.0
 40
1052.6
100
AcDbArc
 50
270.0
 51
293.2664903767
  0
ARC
  5
A8
330
1F
100
AcDbEntity
  8
0
  6
HIDDEN
 62
     7
370
    18
100
AcDbCircle
 10
1355.0313030499
 20
3294.4190414508
 30
0.0
 40
888.6000000000008
100
AcDbArc
 50
244.6445709451
 51
270.0
  0
ARC
  5
A9
330
1F
100
AcDbEntity
  8
0
  6
HIDDEN
 62
     7
370
    18
100
AcDbCircle
 10
1204.5313030499
 20
3307.9190414508
 30
0.0
 40
736.5000000000005
100
AcDbArc
 50
90.0
 51
180.0
  0
LINE
  5
AA
330
1F
100
AcDbEntity
  8
0
  6
HIDDEN
 62
     7
370
    18
100
AcDbLine
 10
1321.0313030499
 20
4044.4190414508
 30
0.0
 11
1321.0313030499
 21
4136.4190414508
 31
0.0
  0
LINE
  5
AB
330
1F
100
AcDbEntity
  8
0
  6
HIDDEN
 62
     7
370
    18
100
AcDbLine
 10
1204.5313030499
 20
4044.4190414508
 30
0.0
 11
1321.0313030499
 21
4044.4190414508
 31
0.0
  0
LINE
  5
AC
330
1F
100
AcDbEntity
  8
0
  6
HIDDEN
 62
     7
370
    18
100
AcDbLine
 10
468.0313030499
 20
3294.4190414508
 30
0.0
 11
468.0313030499
 21
3307.9190414508
 31
0.0
  0
ARC
  5
AD
330
1F
100
AcDbEntity
  8
0
  6
HIDDEN
 62
     7
370
    18
100
AcDbCircle
 10
1355.0313030499
 20
3294.4190414508
 30
0.0
 40
887.0000000000014
100
AcDbArc
 50
180.0
 51
270.0
  0
LINE
  5
AE
330
1F
100
AcDbEntity
  8
0
  6
HIDDEN
 62
     7
370
    18
100
AcDbLine
 10
2471.0313030499
 20
4136.4190414508
 30
0.0
 11
2401.8328137756
 21
3364.5702420852
 31
0.0
  0
ARC
  5
AF
330
1F
100
AcDbEntity
  8
0
  6
HIDDEN
 62
     7
370
    18
100
AcDbCircle
 10
1355.0313030499
 20
3458.4190414508
 30
0.0
 40
1051.000000000001
100
AcDbArc
 50
270.0
 51
354.8769631789
  0
CIRCLE
  5
B0
330
1F
100
AcDbEntity
  8
0
  6
HIDDEN
 62
     7
370
    18
100
AcDbCircle
 10
1273.0313030499
 20
3376.4190414508
 30
0.0
 40
560.0
  0
CIRCLE
  5
B1
330
1F
100
AcDbEntity
  8
0
  6
HIDDEN
 62
     7
370
    18
100
AcDbCircle
 10
1273.0313030499
 20
3376.4190414508
 30
0.0
 40
610.0
  0
CIRCLE
  5
B2
330
1F
100
AcDbEntity
  8
0
  6
HIDDEN
 62
     7
370
    18
100
AcDbCircle
 10
1273.0313030499
 20
3376.4190414508
 30
0.0
 40
562.3000000000002
  0
CIRCLE
  5
B3
330
1F
100
AcDbEntity
  8
0
  6
HIDDEN
 62
     7
370
    18
100
AcDbCircle
 10
1800.9526686315
 20
3645.4084125465
 30
0.0
 40
6.000000000000455
  0
CIRCLE
  5
B4
330
1F
100
AcDbEntity
  8
0
  6
HIDDEN
 62
     7
370
    18
100
AcDbCircle
 10
1691.9920709029
 20
3795.3798093038
 30
0.0
 40
6.000000000000455
  0
CIRCLE
  5
B5
330
1F
100
AcDbEntity
  8
0
  6
HIDDEN
 62
     7
370
    18
100
AcDbCircle
 10
1542.0206741456
 20
3904.3404070324
 30
0.0
 40
6.000000000000455
  0
CIRCLE
  5
B6
330
1F
100
AcDbEntity
  8
0
  6
HIDDEN
 62
     7
370
    18
100
AcDbCircle
 10
1365.7187235862
 20
3961.6243832534
 30
0.0
 40
5.999999999999545
  0
CIRCLE
  5
B7
330
1F
100
AcDbEntity
  8
0
  6
HIDDEN
 62
     7
370
    18
100
AcDbCircle
 10
1180.3438825136
 20
3961.6243832534
 30
0.0
 40
6.000000000000455
  0
CIRCLE
  5
B8
330
1F
100
AcDbEntity
  8
0
  6
HIDDEN
 62
     7
370
    18
100
AcDbCircle
 10
1004.0419319542
 20
3904.3404070324
 30
0.0
 40
6.000000000000455
  0
CIRCLE
  5
B9
330
1F
100
AcDbEntity
  8
0
  6
HIDDEN
 62
     7
370
    18
100
AcDbCircle
 10
854.0705351969
 20
3795.3798093038
 30
0.0
 40
6.0
  0
CIRCLE
  5
BA
330
1F
100
AcDbEntity
  8
0
  6
HIDDEN
 62
     7
370
    18
100
AcDbCircle
 10
745.1099374683
 20
3645.4084125465
 30
0.0
 40
5.999999999999545
  0
CIRCLE
  5
BB
330
1F
100
AcDbEntity
  8
0
  6
HIDDEN
 62
     7
370
    18
100
AcDbCircle
 10
687.8259612473
 20
3469.1064619871
 30
0.0
 40
6.000000000000455
  0
CIRCLE
  5
BC
330
1F
100
AcDbEntity
  8
0
  6
HIDDEN
 62
     7
370
    18
100
AcDbCircle
 10
687.8259612473
 20
3283.7316209144
 30
0.0
 40
5.999999999999545
  0
CIRCLE
  5
BD
330
1F
100
AcDbEntity
  8
0
  6
HIDDEN
 62
     7
370
    18
100
AcDbCircle
 10
745.1099374683
 20
3107.4296703551
 30
0.0
 40
6.0
  0
CIRCLE
  5
BE
330
1F
100
AcDbEntity
  8
0
  6
HIDDEN
 62
     7
370
    18
100
AcDbCircle
 10
854.0705351969
 20
2957.4582735977
 30
0.0
 40
6.0
  0
CIRCLE
  5
BF
330
1F
100
AcDbEntity
  8
0
  6
HIDDEN
 62
     7
370
    18
100
AcDbCircle
 10
1004.0419319542
 20
2848.4976758692
 30
0.0
 40
6.0
  0
CIRCLE
  5
C0
330
1F
100
AcDbEntity
  8
0
  6
HIDDEN
 62
     7
370
    18
100
AcDbCircle
 10
1180.3438825136
 20
2791.2136996482
 30
0.0
 40
6.0
  0
CIRCLE
  5
C1
330
1F
100
AcDbEntity
  8
0
  6
HIDDEN
 62
     7
370
    18
100
AcDbCircle
 10
1365.7187235862
 20
2791.2136996482
 30
0.0
 40
6.0
  0
CIRCLE
  5
C2
330
1F
100
AcDbEntity
  8
0
  6
HIDDEN
 62
     7
370
    18
100
AcDbCircle
 10
1542.0206741456
 20
2848.4976758692
 30
0.0
 40
5.999999999999545
  0
CIRCLE
  5
C3
330
1F
100
AcDbEntity
  8
0
  6
HIDDEN
 62
     7
370
    18
100
AcDbCircle
 10
1691.9920709029
 20
2957.4582735977
 30
0.0
 40
6.0
  0
CIRCLE
  5
C4
330
1F
100
AcDbEntity
  8
0
  6
HIDDEN
 62
     7
370
    18
100
AcDbCircle
 10
1800.9526686315
 20
3107.4296703551
 30
0.0
 40
5.999999999999545
  0
CIRCLE
  5
C5
330
1F
100
AcDbEntity
  8
0
  6
HIDDEN
 62
     7
370
    18
100
AcDbCircle
 10
1858.2366448525
 20
3283.7316209144
 30
0.0
 40
5.999999999999545
  0
CIRCLE
  5
C6
330
1F
100
AcDbEntity
  8
0
  6
HIDDEN
 62
     7
370
    18
100
AcDbCircle
 10
1858.2366448525
 20
3469.1064619871
 30
0.0
 40
6.000000000000455
  0
LINE
  5
C7
330
1F
100
AcDbEntity
  8
0
  6
HIDDEN
 62
     7
370
    18
100
AcDbLine
 10
2162.0313030499
 20
2256.4190414508
 30
0.0
 11
2162.0313030499
 21
2262.4190414508
 31
0.0
  0
LINE
  5
C8
330
1F
100
AcDbEntity
  8
0
  6
HIDDEN
 62
     7
370
    18
100
AcDbLine
 10
2144.0313030499
 20
2262.4190414508
 30
0.0
 11
2144.0313030499
 21
2256.4190414508
 31
0.0
  0
LINE
  5
C9
330
1F
100
AcDbEntity
  8
0
  6
HIDDEN
 62
     7
370
    18
100
AcDbLine
 10
2882.0313030499
 20
2256.4190414508
 30
0.0
 11
2882.0313030499
 21
2262.4190414508
 31
0.0
  0
LINE
  5
CA
330
1F
100
AcDbEntity
  8
0
  6
HIDDEN
 62
     7
370
    18
100
AcDbLine
 10
2864.0313030499
 20
2262.4190414508
 30
0.0
 11
2864.0313030499
 21
2256.4190414508
 31
0.0
  0
LINE
  5
CB
330
1F
100
AcDbEntity
  8
0
  6
HIDDEN
 62
     7
370
    18
100
AcDbLine
 10
1442.0313030499
 20
2256.4190414508
 30
0.0
 11
1442.0313030499
 21
2262.4190414508
 31
0.0
  0
LINE
  5
CC
330
1F
100
AcDbEntity
  8
0
  6
HIDDEN
 62
     7
370
    18
100
AcDbLine
 10
1424.0313030499
 20
2262.4190414508
 30
0.0
 11
1424.0313030499
 21
2256.4190414508
 31
0.0
  0
LINE
  5
CD
330
1F
100
AcDbEntity
  8
0
  6
HIDDEN
 62
     7
370
    18
100
AcDbLine
 10
722.0313030499
 20
2256.4190414508
 30
0.0
 11
722.0313030499
 21
2262.4190414508
 31
0.0
  0
LINE
  5
CE
330
1F
100
AcDbEntity
  8
0
  6
HIDDEN
 62
     7
370
    18
100
AcDbLine
 10
704.0313030499
 20
2262.4190414508
 30
0.0
 11
704.0313030499
 21
2256.4190414508
 31
0.0
  0
LINE
  5
CF
330
1F
100
AcDbEntity
  8
0
  6
HIDDEN
 62
     7
370
    18
100
AcDbLine
 10
1282.0313030499
 20
4136.4190414508
 30
0.0
 11
1282.0313030499
 21
4132.4190414508
 31
0.0
  0
LINE
  5
D0
330
1F
100
AcDbEntity
  8
0
  6
HIDDEN
 62
     7
370
    18
100
AcDbLine
 10
1294.0313030499
 20
4132.4190414508
 30
0.0
 11
1294.0313030499
 21
4136.4190414508
 31
0.0
  0
LINE
  5
D1
330
1F
100
AcDbEntity
  8
0
  6
HIDDEN
 62
     7
370
    18
100
AcDbLine
 10
1390.0313030499
 20
4136.4190414508
 30
0.0
 11
1390.0313030499
 21
4132.4190414508
 31
0.0
  0
LINE
  5
D2
330
1F
100
AcDbEntity
  8
0
  6
HIDDEN
 62
     7
370
    18
100
AcDbLine
 10
1402.0313030499
 20
4132.4190414508
 30
0.0
 11
1402.0313030499
 21
4136.4190414508
 31
0.0
  0
LINE
  5
D3
330
1F
100
AcDbEntity
  8
0
  6
HIDDEN
 62
     7
370
    18
100
AcDbLine
 10
1590.0313030499
 20
4136.4190414508
 30
0.0
 11
1590.0313030499
 21
4132.4190414508
 31
0.0
  0
LINE
  5
D4
330
1F
100
AcDbEntity
  8
0
  6
HIDDEN
 62
     7
370
    18
100
AcDbLine
 10
1602.0313030499
 20
4132.4190414508
 30
0.0
 11
1602.0313030499
 21
4136.4190414508
 31
0.0
  0
LINE
  5
D5
330
1F
100
AcDbEntity
  8
0
  6
HIDDEN
 62
     7
370
    18
100
AcDbLine
 10
1790.0313030499
 20
4136.4190414508
 30
0.0
 11
1790.0313030499
 21
4132.4190414508
 31
0.0
  0
LINE
  5
D6
330
1F
100
AcDbEntity
  8
0
  6
HIDDEN
 62
     7
370
    18
100
AcDbLine
 10
1802.0313030499
 20
4132.4190414508
 30
0.0
 11
1802.0313030499
 21
4136.4190414508
 31
0.0
  0
LINE
  5
D7
330
1F
100
AcDbEntity
  8
0
  6
HIDDEN
 62
     7
370
    18
100
AcDbLine
 10
1990.0313030499
 20
4136.4190414508
 30
0.0
 11
1990.0313030499
 21
4132.4190414508
 31
0.0
  0
LINE
  5
D8
330
1F
100
AcDbEntity
  8
0
  6
HIDDEN
 62
     7
370
    18
100
AcDbLine
 10
2002.0313030499
 20
4132.4190414508
 30
0.0
 11
2002.0313030499
 21
4136.4190414508
 31
0.0
  0
LINE
  5
D9
330
1F
100
AcDbEntity
  8
0
  6
HIDDEN
 62
     7
370
    18
100
AcDbLine
 10
2190.0313030499
 20
4136.4190414508
 30
0.0
 11
2190.0313030499
 21
4132.4190414508
 31
0.0
  0
LINE
  5
DA
330
1F
100
AcDbEntity
  8
0
  6
HIDDEN
 62
     7
370
    18
100
AcDbLine
 10
2202.0313030499
 20
4132.4190414508
 30
0.0
 11
2202.0313030499
 21
4136.4190414508
 31
0.0
  0
LINE
  5
DB
330
1F
100
AcDbEntity
  8
0
  6
HIDDEN
 62
     7
370
    18
100
AcDbLine
 10
2390.0313030499
 20
4136.4190414508
 30
0.0
 11
2390.0313030499
 21
4132.4190414508
 31
0.0
  0
LINE
  5
DC
330
1F
100
AcDbEntity
  8
0
  6
HIDDEN
 62
     7
370
    18
100
AcDbLine
 10
2402.0313030499
 20
4132.4190414508
 30
0.0
 11
2402.0313030499
 21
4136.4190414508
 31
0.0
  0
LINE
  5
DD
330
1F
100
AcDbEntity
  8
0
  6
HIDDEN
 62
     7
370
    18
100
AcDbLine
 10
2498.0313030499
 20
4136.4190414508
 30
0.0
 11
2498.0313030499
 21
4132.4190414508
 31
0.0
  0
LINE
  5
DE
330
1F
100
AcDbEntity
  8
0
  6
HIDDEN
 62
     7
370
    18
100
AcDbLine
 10
2510.0313030499
 20
4132.4190414508
 30
0.0
 11
2510.0313030499
 21
4136.4190414508
 31
0.0
  0
INSERT
  5
EA
330
1F
100
AcDbEntity
  8
2
100
AcDbBlockReference
  2
SW_CENTERMARKSYMBOL_0
 10
1273.0313030499
 20
3376.4190414508
 30
0.0
  0
LINE
  5
EB
330
1F
100
AcDbEntity
  8
1
100
AcDbLine
 10
3527.8698213906
 20
2513.9190414508
 30
0.0
 11
3687.8698213906
 21
2513.9190414508
 31
0.0
  0
LINE
  5
EC
330
1F
100
AcDbEntity
  8
1
100
AcDbLine
 10
3687.8698213906
 20
3701.4190414508
 30
0.0
 11
3527.8698213906
 21
3701.4190414508
 31
0.0
  0
LINE
  5
ED
330
1F
100
AcDbEntity
  8
1
100
AcDbLine
 10
4310.3698213906
 20
2921.9190414508
 30
0.0
 11
3755.3698213906
 21
2921.9190414508
 31
0.0
  0
LINE
  5
EE
330
1F
100
AcDbEntity
  8
1
100
AcDbLine
 10
3687.8698213906
 20
2702.4190414508
 30
0.0
 11
3755.3698213906
 21
2702.4190414508
 31
0.0
  0
LINE
  5
EF
330
1F
100
AcDbEntity
  8
1
100
AcDbLine
 10
3755.3698213906
 20
2750.4190414508
 30
0.0
 11
3687.8698213906
 21
2750.4190414508
 31
0.0
  0
LINE
  5
F0
330
1F
100
AcDbEntity
  8
1
100
AcDbLine
 10
4830.8698213906
 20
2366.4190414508
 30
0.0
 11
4830.8698213906
 21
2321.4190414508
 31
0.0
  0
LINE
  5
F1
330
1F
100
AcDbEntity
  8
1
100
AcDbLine
 10
4865.8698213906
 20
2321.4190414508
 30
0.0
 11
4865.8698213906
 21
2366.4190414508
 31
0.0
  0
LINE
  5
F2
330
1F
100
AcDbEntity
  8
1
100
AcDbLine
 10
3715.8698213906
 20
2366.4190414508
 30
0.0
 11
3715.8698213906
 21
2321.4190414508
 31
0.0
  0
LINE
  5
F3
330
1F
100
AcDbEntity
  8
1
100
AcDbLine
 10
3750.8698213906
 20
2321.4190414508
 30
0.0
 11
3750.8698213906
 21
2366.4190414508
 31
0.0
  0
LINE
  5
F4
330
1F
100
AcDbEntity
  8
1
100
AcDbLine
 10
4915.8698213906
 20
3986.4190414508
 30
0.0
 11
4913.5698213906
 21
3986.4190414508
 31
0.0
  0
LINE
  5
F5
330
1F
100
AcDbEntity
  8
1
100
AcDbLine
 10
4913.5698213906
 20
2766.4190414508
 30
0.0
 11
4915.8698213906
 21
2766.4190414508
 31
0.0
  0
LINE
  5
F6
330
1F
100
AcDbEntity
  8
1
100
AcDbLine
 10
4815.1698213906
 20
2766.4190414508
 30
0.0
 11
4822.8698213906
 21
2766.4190414508
 31
0.0
  0
LINE
  5
F7
330
1F
100
AcDbEntity
  8
1
100
AcDbLine
 10
4822.8698213906
 20
3986.4190414508
 30
0.0
 11
4815.1698213906
 21
3986.4190414508
 31
0.0
  0
LINE
  5
F8
330
1F
100
AcDbEntity
  8
1
100
AcDbLine
 10
4913.5698213906
 20
3938.7190414508
 30
0.0
 11
4822.8698213906
 21
3938.7190414508
 31
0.0
  0
LINE
  5
F9
330
1F
100
AcDbEntity
  8
1
100
AcDbLine
 10
4822.8698213906
 20
2814.1190414508
 30
0.0
 11
4913.5698213906
 21
2814.1190414508
 31
0.0
  0
LINE
  5
FA
330
1F
100
AcDbEntity
  8
1
100
AcDbLine
 10
3527.8698213906
 20
2513.9190414508
 30
0.0
 11
3527.8698213906
 21
2912.1236661302
 31
0.0
  0
LINE
  5
FB
330
1F
100
AcDbEntity
  8
1
100
AcDbLine
 10
3687.8698213906
 20
2513.9190414508
 30
0.0
 11
3687.8698213906
 21
2912.1236661302
 31
0.0
  0
LINE
  5
FC
330
1F
100
AcDbEntity
  8
1
100
AcDbLine
 10
3527.8698213906
 20
2912.1236661302
 30
0.0
 11
3527.8698213906
 21
3660.4378791957
 31
0.0
  0
LINE
  5
FD
330
1F
100
AcDbEntity
  8
1
100
AcDbLine
 10
3687.8698213906
 20
2912.1236661302
 30
0.0
 11
3687.8698213906
 21
3660.4378791957
 31
0.0
  0
LINE
  5
FE
330
1F
100
AcDbEntity
  8
1
100
AcDbLine
 10
3527.8698213906
 20
3660.4378791957
 30
0.0
 11
3527.8698213906
 21
3701.4190414508
 31
0.0
  0
LINE
  5
FF
330
1F
100
AcDbEntity
  8
1
100
AcDbLine
 10
3687.8698213906
 20
3660.4378791957
 30
0.0
 11
3687.8698213906
 21
3701.4190414508
 31
0.0
  0
LINE
  5
100
330
1F
100
AcDbEntity
  8
1
100
AcDbLine
 10
4201.8698213906
 20
2491.4190414508
 30
0.0
 11
4201.8698213906
 21
2546.4190414508
 31
0.0
  0
LINE
  5
101
330
1F
100
AcDbEntity
  8
1
100
AcDbLine
 10
3791.8698213906
 20
2491.4190414508
 30
0.0
 11
3791.8698213906
 21
2546.4190414508
 31
0.0
  0
LINE
  5
102
330
1F
100
AcDbEntity
  8
1
100
AcDbLine
 10
4201.8698213906
 20
2546.4190414508
 30
0.0
 11
3791.8698213906
 21
2546.4190414508
 31
0.0
  0
LINE
  5
103
330
1F
100
AcDbEntity
  8
1
100
AcDbLine
 10
4310.3698213906
 20
2555.4190414508
 30
0.0
 11
4158.8698213906
 21
2555.4190414508
 31
0.0
  0
LINE
  5
104
330
1F
100
AcDbEntity
  8
1
100
AcDbLine
 10
3834.8698213906
 20
2555.4190414508
 30
0.0
 11
3755.3698213906
 21
2555.4190414508
 31
0.0
  0
LINE
  5
105
330
1F
100
AcDbEntity
  8
1
100
AcDbLine
 10
3755.3698213906
 20
2921.9190414508
 30
0.0
 11
3755.3698213906
 21
2555.4190414508
 31
0.0
  0
LINE
  5
106
330
1F
100
AcDbEntity
  8
1
100
AcDbLine
 10
4310.3698213906
 20
2555.4190414508
 30
0.0
 11
4310.3698213906
 21
2921.9190414508
 31
0.0
  0
LINE
  5
107
330
1F
100
AcDbEntity
  8
1
100
AcDbLine
 10
3834.8698213906
 20
2546.4190414508
 30
0.0
 11
3834.8698213906
 21
2564.4190414508
 31
0.0
  0
LINE
  5
108
330
1F
100
AcDbEntity
  8
1
100
AcDbLine
 10
3834.8698213906
 20
2564.4190414508
 30
0.0
 11
4158.8698213906
 21
2564.4190414508
 31
0.0
  0
LINE
  5
109
330
1F
100
AcDbEntity
  8
1
100
AcDbLine
 10
4158.8698213906
 20
2546.4190414508
 30
0.0
 11
4158.8698213906
 21
2564.4190414508
 31
0.0
  0
LINE
  5
10A
330
1F
100
AcDbEntity
  8
1
100
AcDbLine
 10
3700.8698213906
 20
2315.4190414508
 30
0.0
 11
3700.8698213906
 21
2321.4190414508
 31
0.0
  0
LINE
  5
10B
330
1F
100
AcDbEntity
  8
1
100
AcDbLine
 10
4880.8698213906
 20
2315.4190414508
 30
0.0
 11
4880.8698213906
 21
2321.4190414508
 31
0.0
  0
LINE
  5
10C
330
1F
100
AcDbEntity
  8
1
100
AcDbLine
 10
4880.8698213906
 20
2315.4190414508
 30
0.0
 11
3700.8698213906
 21
2315.4190414508
 31
0.0
  0
LINE
  5
10D
330
1F
100
AcDbEntity
  8
1
100
AcDbLine
 10
4880.8698213906
 20
2321.4190414508
 30
0.0
 11
3700.8698213906
 21
2321.4190414508
 31
0.0
  0
LINE
  5
10E
330
1F
100
AcDbEntity
  8
1
100
AcDbLine
 10
4880.8698213906
 20
2256.4190414508
 30
0.0
 11
4880.8698213906
 21
2262.4190414508
 31
0.0
  0
LINE
  5
10F
330
1F
100
AcDbEntity
  8
1
100
AcDbLine
 10
3700.8698213906
 20
2256.4190414508
 30
0.0
 11
3700.8698213906
 21
2262.4190414508
 31
0.0
  0
LINE
  5
110
330
1F
100
AcDbEntity
  8
1
100
AcDbLine
 10
3700.8698213906
 20
2262.4190414508
 30
0.0
 11
4880.8698213906
 21
2262.4190414508
 31
0.0
  0
LINE
  5
111
330
1F
100
AcDbEntity
  8
1
100
AcDbLine
 10
3700.8698213906
 20
2256.4190414508
 30
0.0
 11
4880.8698213906
 21
2256.4190414508
 31
0.0
  0
LINE
  5
112
330
1F
100
AcDbEntity
  8
1
100
AcDbLine
 10
3759.8698213906
 20
2262.4190414508
 30
0.0
 11
3759.8698213906
 21
2315.4190414508
 31
0.0
  0
LINE
  5
113
330
1F
100
AcDbEntity
  8
1
100
AcDbLine
 10
4821.8698213906
 20
2262.4190414508
 30
0.0
 11
4821.8698213906
 21
2315.4190414508
 31
0.0
  0
LINE
  5
114
330
1F
100
AcDbEntity
  8
1
100
AcDbLine
 10
4880.8698213906
 20
2372.4190414508
 30
0.0
 11
4880.8698213906
 21
2366.4190414508
 31
0.0
  0
LINE
  5
115
330
1F
100
AcDbEntity
  8
1
100
AcDbLine
 10
4880.8698213906
 20
2366.4190414508
 30
0.0
 11
3700.8698213906
 21
2366.4190414508
 31
0.0
  0
LINE
  5
116
330
1F
100
AcDbEntity
  8
1
100
AcDbLine
 10
3700.8698213906
 20
2372.4190414508
 30
0.0
 11
3700.8698213906
 21
2366.4190414508
 31
0.0
  0
LINE
  5
117
330
1F
100
AcDbEntity
  8
1
100
AcDbLine
 10
4880.8698213906
 20
2372.4190414508
 30
0.0
 11
3700.8698213906
 21
2372.4190414508
 31
0.0
  0
LINE
  5
118
330
1F
100
AcDbEntity
  8
1
100
AcDbLine
 10
4880.8698213906
 20
2485.4190414508
 30
0.0
 11
3700.8698213906
 21
2485.4190414508
 31
0.0
  0
LINE
  5
119
330
1F
100
AcDbEntity
  8
1
100
AcDbLine
 10
3700.8698213906
 20
2491.4190414508
 30
0.0
 11
3700.8698213906
 21
2485.4190414508
 31
0.0
  0
LINE
  5
11A
330
1F
100
AcDbEntity
  8
1
100
AcDbLine
 10
4880.8698213906
 20
2491.4190414508
 30
0.0
 11
3700.8698213906
 21
2491.4190414508
 31
0.0
  0
LINE
  5
11B
330
1F
100
AcDbEntity
  8
1
100
AcDbLine
 10
4880.8698213906
 20
2491.4190414508
 30
0.0
 11
4880.8698213906
 21
2485.4190414508
 31
0.0
  0
LINE
  5
11C
330
1F
100
AcDbEntity
  8
1
100
AcDbLine
 10
3759.8698213906
 20
2485.4190414508
 30
0.0
 11
3759.8698213906
 21
2372.4190414508
 31
0.0
  0
LINE
  5
11D
330
1F
100
AcDbEntity
  8
1
100
AcDbLine
 10
4821.8698213906
 20
2485.4190414508
 30
0.0
 11
4821.8698213906
 21
2372.4190414508
 31
0.0
  0
LINE
  5
11E
330
1F
100
AcDbEntity
  8
1
100
AcDbLine
 10
4865.8698213906
 20
4132.4190414508
 30
0.0
 11
4865.8698213906
 21
4136.4190414508
 31
0.0
  0
LINE
  5
11F
330
1F
100
AcDbEntity
  8
1
100
AcDbLine
 10
4865.8698213906
 20
4132.4190414508
 30
0.0
 11
3909.8698213906
 21
4132.4190414508
 31
0.0
  0
LINE
  5
120
330
1F
100
AcDbEntity
  8
1
100
AcDbLine
 10
3909.8698213906
 20
4132.4190414508
 30
0.0
 11
3909.8698213906
 21
4136.4190414508
 31
0.0
  0
LINE
  5
121
330
1F
100
AcDbEntity
  8
1
100
AcDbLine
 10
4865.8698213906
 20
4136.4190414508
 30
0.0
 11
3909.8698213906
 21
4136.4190414508
 31
0.0
  0
LINE
  5
122
330
1F
100
AcDbEntity
  8
1
100
AcDbLine
 10
4815.1698213906
 20
4132.4190414508
 30
0.0
 11
4815.1698213906
 21
3364.4273704591
 31
0.0
  0
LINE
  5
123
330
1F
100
AcDbEntity
  8
1
100
AcDbLine
 10
3960.5698213906
 20
4132.4190414508
 30
0.0
 11
3960.5698213906
 21
3364.4273704591
 31
0.0
  0
LINE
  5
124
330
1F
100
AcDbEntity
  8
1
100
AcDbLine
 10
3960.5698213906
 20
3364.4273704591
 30
0.0
 11
3960.5698213906
 21
2921.9190414508
 31
0.0
  0
LINE
  5
125
330
1F
100
AcDbEntity
  8
1
100
AcDbLine
 10
4815.1698213906
 20
3364.4273704591
 30
0.0
 11
4815.1698213906
 21
2491.4190414508
 31
0.0
  0
LINE
  5
126
330
1F
100
AcDbEntity
  8
1
100
AcDbLine
 10
4915.8698213906
 20
2766.4190414508
 30
0.0
 11
4915.8698213906
 21
3986.4190414508
 31
0.0
  0
LINE
  5
127
330
1F
100
AcDbEntity
  8
1
100
AcDbLine
 10
4913.5698213906
 20
2766.4190414508
 30
0.0
 11
4913.5698213906
 21
3986.4190414508
 31
0.0
  0
LINE
  5
128
330
1F
100
AcDbEntity
  8
1
100
AcDbLine
 10
4822.8698213906
 20
3986.4190414508
 30
0.0
 11
4822.8698213906
 21
2766.4190414508
 31
0.0
  0
LINE
  5
129
330
1F
100
AcDbEntity
  8
0
  6
HIDDEN
 62
     7
370
    18
100
AcDbLine
 10
3570.3698213906
 20
2779.8607646982
 30
0.0
 11
3570.3698213906
 21
2613.9190414508
 31
0.0
  0
LINE
  5
12A
330
1F
100
AcDbEntity
  8
0
  6
HIDDEN
 62
     7
370
    18
100
AcDbLine
 10
3570.3698213906
 20
2838.9190414508
 30
0.0
 11
3570.3698213906
 21
2779.8607646982
 31
0.0
  0
LINE
  5
12B
330
1F
100
AcDbEntity
  8
0
  6
HIDDEN
 62
     7
370
    18
100
AcDbLine
 10
3645.3698213906
 20
2779.8607646982
 30
0.0
 11
3645.3698213906
 21
2613.9190414508
 31
0.0
  0
LINE
  5
12C
330
1F
100
AcDbEntity
  8
0
  6
HIDDEN
 62
     7
370
    18
100
AcDbLine
 10
3645.3698213906
 20
2838.9190414508
 30
0.0
 11
3645.3698213906
 21
2779.8607646982
 31
0.0
  0
LINE
  5
12D
330
1F
100
AcDbEntity
  8
0
  6
HIDDEN
 62
     7
370
    18
100
AcDbLine
 10
3645.3698213906
 20
3175.2943068306
 30
0.0
 11
3645.3698213906
 21
3601.4190414508
 31
0.0
  0
LINE
  5
12E
330
1F
100
AcDbEntity
  8
0
  6
HIDDEN
 62
     7
370
    18
100
AcDbLine
 10
3645.3698213906
 20
3151.4190414508
 30
0.0
 11
3645.3698213906
 21
3175.2943068306
 31
0.0
  0
LINE
  5
12F
330
1F
100
AcDbEntity
  8
0
  6
HIDDEN
 62
     7
370
    18
100
AcDbLine
 10
3570.3698213906
 20
3175.2943068306
 30
0.0
 11
3570.3698213906
 21
3601.4190414508
 31
0.0
  0
LINE
  5
130
330
1F
100
AcDbEntity
  8
0
  6
HIDDEN
 62
     7
370
    18
100
AcDbLine
 10
3570.3698213906
 20
3151.4190414508
 30
0.0
 11
3570.3698213906
 21
3175.2943068306
 31
0.0
  0
LINE
  5
131
330
1F
100
AcDbEntity
  8
0
  6
HIDDEN
 62
     7
370
    18
100
AcDbLine
 10
4815.8698213906
 20
2256.4190414508
 30
0.0
 11
4815.8698213906
 21
2321.4190414508
 31
0.0
  0
LINE
  5
132
330
1F
100
AcDbEntity
  8
0
  6
HIDDEN
 62
     7
370
    18
100
AcDbLine
 10
3765.8698213906
 20
2256.4190414508
 30
0.0
 11
3765.8698213906
 21
2321.4190414508
 31
0.0
  0
LINE
  5
133
330
1F
100
AcDbEntity
  8
0
  6
HIDDEN
 62
     7
370
    18
100
AcDbLine
 10
4815.8698213906
 20
2491.4190414508
 30
0.0
 11
4815.8698213906
 21
2366.4190414508
 31
0.0
  0
LINE
  5
134
330
1F
100
AcDbEntity
  8
0
  6
HIDDEN
 62
     7
370
    18
100
AcDbLine
 10
3765.8698213906
 20
2491.4190414508
 30
0.0
 11
3765.8698213906
 21
2366.4190414508
 31
0.0
  0
LINE
  5
135
330
1F
100
AcDbEntity
  8
0
  6
HIDDEN
 62
     7
370
    18
100
AcDbLine
 10
4812.8698213906
 20
4136.4190414508
 30
0.0
 11
4812.8698213906
 21
3364.5702420852
 31
0.0
  0
LINE
  5
136
330
1F
100
AcDbEntity
  8
0
  6
HIDDEN
 62
     7
370
    18
100
AcDbLine
 10
3962.8698213906
 20
4136.4190414508
 30
0.0
 11
3962.8698213906
 21
3364.5702420852
 31
0.0
  0
LINE
  5
137
330
1F
100
AcDbEntity
  8
0
  6
HIDDEN
 62
     7
370
    18
100
AcDbLine
 10
3960.5698213906
 20
2405.8190414508
 30
0.0
 11
4815.1698213906
 21
2405.8190414508
 31
0.0
  0
LINE
  5
138
330
1F
100
AcDbEntity
  8
0
  6
HIDDEN
 62
     7
370
    18
100
AcDbLine
 10
3960.5698213906
 20
2921.9190414508
 30
0.0
 11
3960.5698213906
 21
2405.8190414508
 31
0.0
  0
LINE
  5
139
330
1F
100
AcDbEntity
  8
0
  6
HIDDEN
 62
     7
370
    18
100
AcDbLine
 10
4815.1698213906
 20
2491.4190414508
 30
0.0
 11
4815.1698213906
 21
2405.8190414508
 31
0.0
  0
LINE
  5
13A
330
1F
100
AcDbEntity
  8
0
  6
HIDDEN
 62
     7
370
    18
100
AcDbLine
 10
3962.8698213906
 20
2407.4190414508
 30
0.0
 11
4812.8698213906
 21
2407.4190414508
 31
0.0
  0
LINE
  5
13B
330
1F
100
AcDbEntity
  8
0
  6
HIDDEN
 62
     7
370
    18
100
AcDbLine
 10
3962.8698213906
 20
3364.5702420852
 30
0.0
 11
3962.8698213906
 21
2407.4190414508
 31
0.0
  0
LINE
  5
13C
330
1F
100
AcDbEntity
  8
0
  6
HIDDEN
 62
     7
370
    18
100
AcDbLine
 10
4812.8698213906
 20
3364.5702420852
 30
0.0
 11
4812.8698213906
 21
2407.4190414508
 31
0.0
  0
LINE
  5
13D
330
1F
100
AcDbEntity
  8
0
  6
HIDDEN
 62
     7
370
    18
100
AcDbLine
 10
3962.8698213906
 20
4044.4190414508
 30
0.0
 11
4812.8698213906
 21
4044.4190414508
 31
0.0
  0
LINE
  5
13E
330
1F
100
AcDbEntity
  8
0
  6
HIDDEN
 62
     7
370
    18
100
AcDbLine
 10
3960.5698213906
 20
4046.0190414508
 30
0.0
 11
4815.1698213906
 21
4046.0190414508
 31
0.0
  0
LINE
  5
13F
330
1F
100
AcDbEntity
  8
0
  6
HIDDEN
 62
     7
370
    18
100
AcDbLine
 10
3645.3698213906
 20
2702.4190414508
 30
0.0
 11
3687.8698213906
 21
2702.4190414508
 31
0.0
  0
LINE
  5
140
330
1F
100
AcDbEntity
  8
0
  6
HIDDEN
 62
     7
370
    18
100
AcDbLine
 10
3687.8698213906
 20
2750.4190414508
 30
0.0
 11
3645.3698213906
 21
2750.4190414508
 31
0.0
  0
LINE
  5
141
330
1F
100
AcDbEntity
  8
0
  6
HIDDEN
 62
     7
370
    18
100
AcDbLine
 10
3570.3698213906
 20
2613.9190414508
 30
0.0
 11
3645.3698213906
 21
2613.9190414508
 31
0.0
  0
LINE
  5
142
330
1F
100
AcDbEntity
  8
0
  6
HIDDEN
 62
     7
370
    18
100
AcDbLine
 10
3645.3698213906
 20
2838.9190414508
 30
0.0
 11
3570.3698213906
 21
2838.9190414508
 31
0.0
  0
LINE
  5
143
330
1F
100
AcDbEntity
  8
0
  6
HIDDEN
 62
     7
370
    18
100
AcDbLine
 10
3645.3698213906
 20
3601.4190414508
 30
0.0
 11
3570.3698213906
 21
3601.4190414508
 31
0.0
  0
LINE
  5
144
330
1F
100
AcDbEntity
  8
0
  6
HIDDEN
 62
     7
370
    18
100
AcDbLine
 10
3570.3698213906
 20
3151.4190414508
 30
0.0
 11
3645.3698213906
 21
3151.4190414508
 31
0.0
  0
LINE
  5
145
330
1F
100
AcDbEntity
  8
0
  6
HIDDEN
 62
     7
370
    18
100
AcDbLine
 10
4859.8698213906
 20
2256.4190414508
 30
0.0
 11
4859.8698213906
 21
2262.4190414508
 31
0.0
  0
LINE
  5
146
330
1F
100
AcDbEntity
  8
0
  6
HIDDEN
 62
     7
370
    18
100
AcDbLine
 10
4841.8698213906
 20
2262.4190414508
 30
0.0
 11
4841.8698213906
 21
2256.4190414508
 31
0.0
  0
LINE
  5
147
330
1F
100
AcDbEntity
  8
0
  6
HIDDEN
 62
     7
370
    18
100
AcDbLine
 10
3739.8698213906
 20
2256.4190414508
 30
0.0
 11
3739.8698213906
 21
2262.4190414508
 31
0.0
  0
LINE
  5
148
330
1F
100
AcDbEntity
  8
0
  6
HIDDEN
 62
     7
370
    18
100
AcDbLine
 10
3721.8698213906
 20
2262.4190414508
 30
0.0
 11
3721.8698213906
 21
2256.4190414508
 31
0.0
  0
LINE
  5
149
330
1F
100
AcDbEntity
  8
0
  6
HIDDEN
 62
     7
370
    18
100
AcDbLine
 10
4839.8698213906
 20
4136.4190414508
 30
0.0
 11
4839.8698213906
 21
4132.4190414508
 31
0.0
  0
LINE
  5
14A
330
1F
100
AcDbEntity
  8
0
  6
HIDDEN
 62
     7
370
    18
100
AcDbLine
 10
4851.8698213906
 20
4132.4190414508
 30
0.0
 11
4851.8698213906
 21
4136.4190414508
 31
0.0
  0
LINE
  5
14B
330
1F
100
AcDbEntity
  8
0
  6
HIDDEN
 62
     7
370
    18
100
AcDbLine
 10
4681.8698213906
 20
4136.4190414508
 30
0.0
 11
4681.8698213906
 21
4132.4190414508
 31
0.0
  0
LINE
  5
14C
330
1F
100
AcDbEntity
  8
0
  6
HIDDEN
 62
     7
370
    18
100
AcDbLine
 10
4693.8698213906
 20
4132.4190414508
 30
0.0
 11
4693.8698213906
 21
4136.4190414508
 31
0.0
  0
LINE
  5
14D
330
1F
100
AcDbEntity
  8
0
  6
HIDDEN
 62
     7
370
    18
100
AcDbLine
 10
4481.8698213906
 20
4136.4190414508
 30
0.0
 11
4481.8698213906
 21
4132.4190414508
 31
0.0
  0
LINE
  5
14E
330
1F
100
AcDbEntity
  8
0
  6
HIDDEN
 62
     7
370
    18
100
AcDbLine
 10
4493.8698213906
 20
4132.4190414508
 30
0.0
 11
4493.8698213906
 21
4136.4190414508
 31
0.0
  0
LINE
  5
14F
330
1F
100
AcDbEntity
  8
0
  6
HIDDEN
 62
     7
370
    18
100
AcDbLine
 10
4281.8698213906
 20
4136.4190414508
 30
0.0
 11
4281.8698213906
 21
4132.4190414508
 31
0.0
  0
LINE
  5
150
330
1F
100
AcDbEntity
  8
0
  6
HIDDEN
 62
     7
370
    18
100
AcDbLine
 10
4293.8698213906
 20
4132.4190414508
 30
0.0
 11
4293.8698213906
 21
4136.4190414508
 31
0.0
  0
LINE
  5
151
330
1F
100
AcDbEntity
  8
0
  6
HIDDEN
 62
     7
370
    18
100
AcDbLine
 10
4081.8698213906
 20
4136.4190414508
 30
0.0
 11
4081.8698213906
 21
4132.4190414508
 31
0.0
  0
LINE
  5
152
330
1F
100
AcDbEntity
  8
0
  6
HIDDEN
 62
     7
370
    18
100
AcDbLine
 10
4093.8698213906
 20
4132.4190414508
 30
0.0
 11
4093.8698213906
 21
4136.4190414508
 31
0.0
  0
LINE
  5
153
330
1F
100
AcDbEntity
  8
0
  6
HIDDEN
 62
     7
370
    18
100
AcDbLine
 10
3923.8698213906
 20
4136.4190414508
 30
0.0
 11
3923.8698213906
 21
4132.4190414508
 31
0.0
  0
LINE
  5
154
330
1F
100
AcDbEntity
  8
0
  6
HIDDEN
 62
     7
370
    18
100
AcDbLine
 10
3935.8698213906
 20
4132.4190414508
 30
0.0
 11
3935.8698213906
 21
4136.4190414508
 31
0.0
  0
LINE
  5
155
330
1F
100
AcDbEntity
  8
0
  6
HIDDEN
 62
     7
370
    18
100
AcDbLine
 10
4915.8698213906
 20
3475.1064619871
 30
0.0
 11
4913.5698213906
 21
3475.1064619871
 31
0.0
  0
LINE
  5
156
330
1F
100
AcDbEntity
  8
0
  6
HIDDEN
 62
     7
370
    18
100
AcDbLine
 10
4913.5698213906
 20
3463.1064619871
 30
0.0
 11
4915.8698213906
 21
3463.1064619871
 31
0.0
  0
LINE
  5
157
330
1F
100
AcDbEntity
  8
0
  6
HIDDEN
 62
     7
370
    18
100
AcDbLine
 10
4915.8698213906
 20
3289.7316209144
 30
0.0
 11
4913.5698213906
 21
3289.7316209144
 31
0.0
  0
LINE
  5
158
330
1F
100
AcDbEntity
  8
0
  6
HIDDEN
 62
     7
370
    18
100
AcDbLine
 10
4913.5698213906
 20
3277.7316209144
 30
0.0
 11
4915.8698213906
 21
3277.7316209144
 31
0.0
  0
LINE
  5
159
330
1F
100
AcDbEntity
  8
0
  6
HIDDEN
 62
     7
370
    18
100
AcDbLine
 10
4812.8698213906
 20
2816.4190414508
 30
0.0
 11
4915.8698213906
 21
2816.4190414508
 31
0.0
  0
LINE
  5
15A
330
1F
100
AcDbEntity
  8
0
  6
HIDDEN
 62
     7
370
    18
100
AcDbLine
 10
4915.8698213906
 20
3936.4190414508
 30
0.0
 11
4812.8698213906
 21
3936.4190414508
 31
0.0
  0
LINE
  5
15B
330
1F
100
AcDbEntity
  8
0
  6
HIDDEN
 62
     7
370
    18
100
AcDbLine
 10
4915.8698213906
 20
3651.4084125465
 30
0.0
 11
4913.5698213906
 21
3651.4084125465
 31
0.0
  0
LINE
  5
15C
330
1F
100
AcDbEntity
  8
0
  6
HIDDEN
 62
     7
370
    18
100
AcDbLine
 10
4913.5698213906
 20
3639.4084125465
 30
0.0
 11
4915.8698213906
 21
3639.4084125465
 31
0.0
  0
LINE
  5
15D
330
1F
100
AcDbEntity
  8
0
  6
HIDDEN
 62
     7
370
    18
100
AcDbLine
 10
4915.8698213906
 20
3113.4296703551
 30
0.0
 11
4913.5698213906
 21
3113.4296703551
 31
0.0
  0
LINE
  5
15E
330
1F
100
AcDbEntity
  8
0
  6
HIDDEN
 62
     7
370
    18
100
AcDbLine
 10
4913.5698213906
 20
3101.4296703551
 30
0.0
 11
4915.8698213906
 21
3101.4296703551
 31
0.0
  0
LINE
  5
15F
330
1F
100
AcDbEntity
  8
0
  6
HIDDEN
 62
     7
370
    18
100
AcDbLine
 10
4915.8698213906
 20
2963.4582735977
 30
0.0
 11
4913.5698213906
 21
2963.4582735977
 31
0.0
  0
LINE
  5
160
330
1F
100
AcDbEntity
  8
0
  6
HIDDEN
 62
     7
370
    18
100
AcDbLine
 10
4913.5698213906
 20
2951.4582735977
 30
0.0
 11
4915.8698213906
 21
2951.4582735977
 31
0.0
  0
LINE
  5
161
330
1F
100
AcDbEntity
  8
0
  6
HIDDEN
 62
     7
370
    18
100
AcDbLine
 10
4915.8698213906
 20
3801.3798093038
 30
0.0
 11
4913.5698213906
 21
3801.3798093038
 31
0.0
  0
LINE
  5
162
330
1F
100
AcDbEntity
  8
0
  6
HIDDEN
 62
     7
370
    18
100
AcDbLine
 10
4913.5698213906
 20
3789.3798093038
 30
0.0
 11
4915.8698213906
 21
3789.3798093038
 31
0.0
  0
LINE
  5
163
330
1F
100
AcDbEntity
  8
0
  6
HIDDEN
 62
     7
370
    18
100
AcDbLine
 10
4915.8698213906
 20
2854.4976758692
 30
0.0
 11
4913.5698213906
 21
2854.4976758692
 31
0.0
  0
LINE
  5
164
330
1F
100
AcDbEntity
  8
0
  6
HIDDEN
 62
     7
370
    18
100
AcDbLine
 10
4913.5698213906
 20
2842.4976758692
 30
0.0
 11
4915.8698213906
 21
2842.4976758692
 31
0.0
  0
LINE
  5
165
330
1F
100
AcDbEntity
  8
0
  6
HIDDEN
 62
     7
370
    18
100
AcDbLine
 10
4915.8698213906
 20
3910.3404070324
 30
0.0
 11
4913.5698213906
 21
3910.3404070324
 31
0.0
  0
LINE
  5
166
330
1F
100
AcDbEntity
  8
0
  6
HIDDEN
 62
     7
370
    18
100
AcDbLine
 10
4913.5698213906
 20
3898.3404070324
 30
0.0
 11
4915.8698213906
 21
3898.3404070324
 31
0.0
  0
LINE
  5
167
330
1F
100
AcDbEntity
  8
0
  6
HIDDEN
 62
     7
370
    18
100
AcDbLine
 10
4915.8698213906
 20
2797.2136996482
 30
0.0
 11
4913.5698213906
 21
2797.2136996482
 31
0.0
  0
LINE
  5
168
330
1F
100
AcDbEntity
  8
0
  6
HIDDEN
 62
     7
370
    18
100
AcDbLine
 10
4913.5698213906
 20
2785.2136996482
 30
0.0
 11
4915.8698213906
 21
2785.2136996482
 31
0.0
  0
LINE
  5
169
330
1F
100
AcDbEntity
  8
0
  6
HIDDEN
 62
     7
370
    18
100
AcDbLine
 10
4915.8698213906
 20
3967.6243832534
 30
0.0
 11
4913.5698213906
 21
3967.6243832534
 31
0.0
  0
LINE
  5
16A
330
1F
100
AcDbEntity
  8
0
  6
HIDDEN
 62
     7
370
    18
100
AcDbLine
 10
4913.5698213906
 20
3955.6243832534
 30
0.0
 11
4915.8698213906
 21
3955.6243832534
 31
0.0
  0
LINE
  5
16B
330
1F
100
AcDbEntity
  8
2
100
AcDbLine
 10
3836.5008970607
 20
3376.4190414508
 30
0.0
 11
4607.7158356479
 21
3376.4190414508
 31
0.0
  0
LINE
  5
16C
330
1F
100
AcDbEntity
  8
2
100
AcDbLine
 10
4387.8698213906
 20
3701.4893071774
 30
0.0
 11
4387.8698213906
 21
2811.2277673318
 31
0.0
  0
LINE
  5
16D
330
1F
100
AcDbEntity
  8
1
100
AcDbLine
 10
948.0313030499
 20
5366.6979562825
 30
0.0
 11
948.0313030499
 21
5206.6979562825
 31
0.0
  0
LINE
  5
16E
330
1F
100
AcDbEntity
  8
1
100
AcDbLine
 10
2885.5313030499
 20
5206.6979562825
 30
0.0
 11
2885.5313030499
 21
5366.6979562825
 31
0.0
  0
LINE
  5
16F
330
1F
100
AcDbEntity
  8
1
100
AcDbLine
 10
2868.5313030499
 20
5434.1979562825
 30
0.0
 11
2868.5313030499
 21
5989.1979562825
 31
0.0
  0
LINE
  5
170
330
1F
100
AcDbEntity
  8
1
100
AcDbLine
 10
2477.5313030499
 20
5588.6979562825
 30
0.0
 11
2477.5313030499
 21
5434.1979562825
 31
0.0
  0
LINE
  5
171
330
1F
100
AcDbEntity
  8
1
100
AcDbLine
 10
2697.0313030499
 20
5366.6979562825
 30
0.0
 11
2697.0313030499
 21
5434.1979562825
 31
0.0
  0
LINE
  5
172
330
1F
100
AcDbEntity
  8
1
100
AcDbLine
 10
2649.0313030499
 20
5434.1979562825
 30
0.0
 11
2649.0313030499
 21
5366.6979562825
 31
0.0
  0
LINE
  5
173
330
1F
100
AcDbEntity
  8
1
100
AcDbLine
 10
663.0313030499
 20
6594.6979562825
 30
0.0
 11
663.0313030499
 21
6592.3979562825
 31
0.0
  0
LINE
  5
174
330
1F
100
AcDbEntity
  8
1
100
AcDbLine
 10
1883.0313030499
 20
6592.3979562825
 30
0.0
 11
1883.0313030499
 21
6594.6979562825
 31
0.0
  0
LINE
  5
175
330
1F
100
AcDbEntity
  8
1
100
AcDbLine
 10
663.0313030499
 20
6501.6979562825
 30
0.0
 11
663.0313030499
 21
6493.9979562825
 31
0.0
  0
LINE
  5
176
330
1F
100
AcDbEntity
  8
1
100
AcDbLine
 10
710.7313030499
 20
6592.3979562825
 30
0.0
 11
710.7313030499
 21
6501.6979562825
 31
0.0
  0
LINE
  5
177
330
1F
100
AcDbEntity
  8
1
100
AcDbLine
 10
1835.3313030499
 20
6544.6979562825
 30
0.0
 11
1835.3313030499
 21
6592.3979562825
 31
0.0
  0
LINE
  5
178
330
1F
100
AcDbEntity
  8
1
100
AcDbLine
 10
1431.0132634315
 20
5206.6979562825
 30
0.0
 11
948.0313030499
 21
5206.6979562825
 31
0.0
  0
LINE
  5
179
330
1F
100
AcDbEntity
  8
1
100
AcDbLine
 10
1431.0132634315
 20
5366.6979562825
 30
0.0
 11
948.0313030499
 21
5366.6979562825
 31
0.0
  0
LINE
  5
17A
330
1F
100
AcDbEntity
  8
1
100
AcDbLine
 10
2776.3272002225
 20
5206.6979562825
 30
0.0
 11
1431.0132634315
 21
5206.6979562825
 31
0.0
  0
LINE
  5
17B
330
1F
100
AcDbEntity
  8
1
100
AcDbLine
 10
2776.3272002225
 20
5366.6979562825
 30
0.0
 11
1431.0132634315
 21
5366.6979562825
 31
0.0
  0
LINE
  5
17C
330
1F
100
AcDbEntity
  8
1
100
AcDbLine
 10
2885.5313030499
 20
5206.6979562825
 30
0.0
 11
2776.3272002225
 21
5206.6979562825
 31
0.0
  0
LINE
  5
17D
330
1F
100
AcDbEntity
  8
1
100
AcDbLine
 10
2885.5313030499
 20
5366.6979562825
 30
0.0
 11
2776.3272002225
 21
5366.6979562825
 31
0.0
  0
LINE
  5
17E
330
1F
100
AcDbEntity
  8
1
100
AcDbLine
 10
2868.5313030499
 20
5989.1979562825
 30
0.0
 11
2524.0313030499
 21
5989.1979562825
 31
0.0
  0
LINE
  5
17F
330
1F
100
AcDbEntity
  8
1
100
AcDbLine
 10
2477.5313030499
 20
5434.1979562825
 30
0.0
 11
2868.5313030499
 21
5434.1979562825
 31
0.0
  0
LINE
  5
180
330
1F
100
AcDbEntity
  8
1
100
AcDbLine
 10
2868.5313030499
 20
5880.6979562825
 30
0.0
 11
2898.0313030499
 21
5880.6979562825
 31
0.0
  0
LINE
  5
181
330
1F
100
AcDbEntity
  8
1
100
AcDbLine
 10
2898.0313030499
 20
5880.6979562825
 30
0.0
 11
2898.0313030499
 21
5470.6979562825
 31
0.0
  0
LINE
  5
182
330
1F
100
AcDbEntity
  8
1
100
AcDbLine
 10
2898.0313030499
 20
5470.6979562825
 30
0.0
 11
2868.5313030499
 21
5470.6979562825
 31
0.0
  0
LINE
  5
183
330
1F
100
AcDbEntity
  8
1
100
AcDbLine
 10
2477.5313030499
 20
5470.6979562825
 30
0.0
 11
2448.0313030499
 21
5470.6979562825
 31
0.0
  0
LINE
  5
184
330
1F
100
AcDbEntity
  8
1
100
AcDbLine
 10
2448.0313030499
 20
5470.6979562825
 30
0.0
 11
2448.0313030499
 21
5588.6979562825
 31
0.0
  0
LINE
  5
185
330
1F
100
AcDbEntity
  8
1
100
AcDbLine
 10
2973.0313030499
 20
6559.6979562825
 30
0.0
 11
2973.0313030499
 21
5379.6979562825
 31
0.0
  0
LINE
  5
186
330
1F
100
AcDbEntity
  8
1
100
AcDbLine
 10
2973.0313030499
 20
5379.6979562825
 30
0.0
 11
2697.0313030499
 21
5379.6979562825
 31
0.0
  0
LINE
  5
187
330
1F
100
AcDbEntity
  8
1
100
AcDbLine
 10
2649.0313030499
 20
5379.6979562825
 30
0.0
 11
613.0313030499
 21
5379.6979562825
 31
0.0
  0
LINE
  5
188
330
1F
100
AcDbEntity
  8
1
100
AcDbLine
 10
613.0313030499
 20
6559.6979562825
 30
0.0
 11
710.7313030499
 21
6559.6979562825
 31
0.0
  0
LINE
  5
189
330
1F
100
AcDbEntity
  8
1
100
AcDbLine
 10
1835.3313030499
 20
6559.6979562825
 30
0.0
 11
2973.0313030499
 21
6559.6979562825
 31
0.0
  0
LINE
  5
18A
330
1F
100
AcDbEntity
  8
1
100
AcDbLine
 10
2524.0313030499
 20
6494.6979562825
 30
0.0
 11
2908.0313030499
 21
6494.6979562825
 31
0.0
  0
LINE
  5
18B
330
1F
100
AcDbEntity
  8
1
100
AcDbLine
 10
678.0313030499
 20
5444.6979562825
 30
0.0
 11
678.0313030499
 21
5639.3979562825
 31
0.0
  0
LINE
  5
18C
330
1F
100
AcDbEntity
  8
1
100
AcDbLine
 10
2908.0313030499
 20
5444.6979562825
 30
0.0
 11
2868.5313030499
 21
5444.6979562825
 31
0.0
  0
LINE
  5
18D
330
1F
100
AcDbEntity
  8
1
100
AcDbLine
 10
2477.5313030499
 20
5444.6979562825
 30
0.0
 11
678.0313030499
 21
5444.6979562825
 31
0.0
  0
LINE
  5
18E
330
1F
100
AcDbEntity
  8
1
100
AcDbLine
 10
2908.0313030499
 20
6494.6979562825
 30
0.0
 11
2908.0313030499
 21
5444.6979562825
 31
0.0
  0
LINE
  5
18F
330
1F
100
AcDbEntity
  8
1
100
AcDbLine
 10
613.0313030499
 20
5379.6979562825
 30
0.0
 11
613.0313030499
 21
5639.3979562825
 31
0.0
  0
LINE
  5
190
330
1F
100
AcDbEntity
  8
1
100
AcDbLine
 10
613.0313030499
 20
6493.9979562825
 30
0.0
 11
613.0313030499
 21
6559.6979562825
 31
0.0
  0
CIRCLE
  5
191
330
1F
100
AcDbEntity
  8
1
100
AcDbCircle
 10
2504.0313030499
 20
5608.6979562825
 30
0.0
 40
6.0
  0
CIRCLE
  5
192
330
1F
100
AcDbEntity
  8
1
100
AcDbCircle
 10
2504.0313030499
 20
5766.6979562825
 30
0.0
 40
6.0
  0
CIRCLE
  5
193
330
1F
100
AcDbEntity
  8
1
100
AcDbCircle
 10
2504.0313030499
 20
5966.6979562825
 30
0.0
 40
6.0
  0
CIRCLE
  5
194
330
1F
100
AcDbEntity
  8
1
100
AcDbCircle
 10
2396.0313030499
 20
5608.6979562825
 30
0.0
 40
6.0
  0
CIRCLE
  5
195
330
1F
100
AcDbEntity
  8
1
100
AcDbCircle
 10
2196.0313030499
 20
5608.6979562825
 30
0.0
 40
6.0
  0
CIRCLE
  5
196
330
1F
100
AcDbEntity
  8
1
100
AcDbCircle
 10
1996.0313030499
 20
5608.6979562825
 30
0.0
 40
6.0
  0
CIRCLE
  5
197
330
1F
100
AcDbEntity
  8
1
100
AcDbCircle
 10
1996.0313030499
 20
6524.6979562825
 30
0.0
 40
6.000000000000909
  0
CIRCLE
  5
198
330
1F
100
AcDbEntity
  8
1
100
AcDbCircle
 10
2196.0313030499
 20
6524.6979562825
 30
0.0
 40
6.000000000000909
  0
CIRCLE
  5
199
330
1F
100
AcDbEntity
  8
1
100
AcDbCircle
 10
2504.0313030499
 20
6166.6979562825
 30
0.0
 40
6.000000000000909
  0
CIRCLE
  5
19A
330
1F
100
AcDbEntity
  8
1
100
AcDbCircle
 10
2504.0313030499
 20
6366.6979562825
 30
0.0
 40
6.000000000000909
  0
CIRCLE
  5
19B
330
1F
100
AcDbEntity
  8
1
100
AcDbCircle
 10
2504.0313030499
 20
6524.6979562825
 30
0.0
 40
6.000000000000909
  0
CIRCLE
  5
19C
330
1F
100
AcDbEntity
  8
1
100
AcDbCircle
 10
1288.0313030499
 20
6366.6979562825
 30
0.0
 40
5.999999999999091
  0
CIRCLE
  5
19D
330
1F
100
AcDbEntity
  8
1
100
AcDbCircle
 10
1288.0313030499
 20
6166.6979562825
 30
0.0
 40
6.0
  0
CIRCLE
  5
19E
330
1F
100
AcDbEntity
  8
1
100
AcDbCircle
 10
1796.0313030499
 20
6524.6979562825
 30
0.0
 40
6.000000000000909
  0
CIRCLE
  5
19F
330
1F
100
AcDbEntity
  8
1
100
AcDbCircle
 10
1796.0313030499
 20
5608.6979562825
 30
0.0
 40
6.0
  0
CIRCLE
  5
1A0
330
1F
100
AcDbEntity
  8
1
100
AcDbCircle
 10
1596.0313030499
 20
5608.6979562825
 30
0.0
 40
6.0
  0
CIRCLE
  5
1A1
330
1F
100
AcDbEntity
  8
1
100
AcDbCircle
 10
1396.0313030499
 20
5608.6979562825
 30
0.0
 40
6.0
  0
CIRCLE
  5
1A2
330
1F
100
AcDbEntity
  8
1
100
AcDbCircle
 10
1288.0313030499
 20
5766.6979562825
 30
0.0
 40
5.999999999999091
  0
CIRCLE
  5
1A3
330
1F
100
AcDbEntity
  8
1
100
AcDbCircle
 10
1288.0313030499
 20
5608.6979562825
 30
0.0
 40
6.0
  0
LINE
  5
1A4
330
1F
100
AcDbEntity
  8
1
100
AcDbLine
 10
2524.0313030499
 20
6544.6979562825
 30
0.0
 11
2524.0313030499
 21
5588.6979562825
 31
0.0
  0
LINE
  5
1A5
330
1F
100
AcDbEntity
  8
1
100
AcDbLine
 10
2524.0313030499
 20
5588.6979562825
 30
0.0
 11
1268.0313030499
 21
5588.6979562825
 31
0.0
  0
LINE
  5
1A6
330
1F
100
AcDbEntity
  8
1
100
AcDbLine
 10
1321.0313030499
 20
5641.6979562825
 30
0.0
 11
1321.0313030499
 21
6491.6979562825
 31
0.0
  0
LINE
  5
1A7
330
1F
100
AcDbEntity
  8
1
100
AcDbLine
 10
1321.0313030499
 20
5641.6979562825
 30
0.0
 11
2471.0313030499
 21
5641.6979562825
 31
0.0
  0
LINE
  5
1A8
330
1F
100
AcDbEntity
  8
1
100
AcDbLine
 10
2471.0313030499
 20
5641.6979562825
 30
0.0
 11
2471.0313030499
 21
6491.6979562825
 31
0.0
  0
LINE
  5
1A9
330
1F
100
AcDbEntity
  8
1
100
AcDbLine
 10
1321.0313030499
 20
6491.6979562825
 30
0.0
 11
2471.0313030499
 21
6491.6979562825
 31
0.0
  0
CIRCLE
  5
1AA
330
1F
100
AcDbEntity
  8
1
100
AcDbCircle
 10
1288.0313030499
 20
5966.6979562825
 30
0.0
 40
6.0
  0
CIRCLE
  5
1AB
330
1F
100
AcDbEntity
  8
1
100
AcDbCircle
 10
2396.0313030499
 20
6524.6979562825
 30
0.0
 40
6.000000000000909
  0
CIRCLE
  5
1AC
330
1F
100
AcDbEntity
  8
1
100
AcDbCircle
 10
1396.0313030499
 20
6524.6979562825
 30
0.0
 40
5.999999999999091
  0
CIRCLE
  5
1AD
330
1F
100
AcDbEntity
  8
1
100
AcDbCircle
 10
1596.0313030499
 20
6524.6979562825
 30
0.0
 40
6.000000000000909
  0
CIRCLE
  5
1AE
330
1F
100
AcDbEntity
  8
1
100
AcDbCircle
 10
1288.0313030499
 20
6524.6979562825
 30
0.0
 40
5.999999999999091
  0
LINE
  5
1AF
330
1F
100
AcDbEntity
  8
1
100
AcDbLine
 10
1268.0313030499
 20
5588.6979562825
 30
0.0
 11
1268.0313030499
 21
6544.6979562825
 31
0.0
  0
LINE
  5
1B0
330
1F
100
AcDbEntity
  8
1
100
AcDbLine
 10
1268.0313030499
 20
6544.6979562825
 30
0.0
 11
2524.0313030499
 21
6544.6979562825
 31
0.0
  0
LINE
  5
1B1
330
1F
100
AcDbEntity
  8
1
100
AcDbLine
 10
466.4313030499
 20
5639.3979562825
 30
0.0
 11
466.4313030499
 21
6493.9979562825
 31
0.0
  0
LINE
  5
1B2
330
1F
100
AcDbEntity
  8
1
100
AcDbLine
 10
466.4313030499
 20
5639.3979562825
 30
0.0
 11
1204.5313030499
 21
5639.3979562825
 31
0.0
  0
LINE
  5
1B3
330
1F
100
AcDbEntity
  8
1
100
AcDbLine
 10
466.4313030499
 20
6493.9979562825
 30
0.0
 11
1204.5313030499
 21
6493.9979562825
 31
0.0
  0
LINE
  5
1B4
330
1F
100
AcDbEntity
  8
1
100
AcDbLine
 10
1204.5313030499
 20
5639.3979562825
 30
0.0
 11
1268.0313030499
 21
5639.3979562825
 31
0.0
  0
LINE
  5
1B5
330
1F
100
AcDbEntity
  8
1
100
AcDbLine
 10
1204.5313030499
 20
6493.9979562825
 30
0.0
 11
1268.0313030499
 21
6493.9979562825
 31
0.0
  0
LINE
  5
1B6
330
1F
100
AcDbEntity
  8
1
100
AcDbLine
 10
1883.0313030499
 20
6594.6979562825
 30
0.0
 11
663.0313030499
 21
6594.6979562825
 31
0.0
  0
LINE
  5
1B7
330
1F
100
AcDbEntity
  8
1
100
AcDbLine
 10
1883.0313030499
 20
6592.3979562825
 30
0.0
 11
663.0313030499
 21
6592.3979562825
 31
0.0
  0
LINE
  5
1B8
330
1F
100
AcDbEntity
  8
1
100
AcDbLine
 10
663.0313030499
 20
6501.6979562825
 30
0.0
 11
1268.0313030499
 21
6501.6979562825
 31
0.0
  0
LINE
  5
1B9
330
1F
100
AcDbEntity
  8
0
  6
HIDDEN
 62
     7
370
    18
100
AcDbLine
 10
2563.595248662
 20
5513.6979562825
 30
0.0
 11
2578.2723984551
 21
5513.6979562825
 31
0.0
  0
LINE
  5
1BA
330
1F
100
AcDbEntity
  8
0
  6
HIDDEN
 62
     7
370
    18
100
AcDbLine
 10
2563.595248662
 20
5513.6979562825
 30
0.0
 11
2563.595248662
 21
5837.6979562825
 31
0.0
  0
LINE
  5
1BB
330
1F
100
AcDbEntity
  8
0
  6
HIDDEN
 62
     7
370
    18
100
AcDbLine
 10
2563.595248662
 20
5837.6979562825
 30
0.0
 11
2578.2723984551
 21
5837.6979562825
 31
0.0
  0
LINE
  5
1BC
330
1F
100
AcDbEntity
  8
0
  6
HIDDEN
 62
     7
370
    18
100
AcDbLine
 10
2578.2723984551
 20
5989.1979562825
 30
0.0
 11
2578.2723984551
 21
5837.6979562825
 31
0.0
  0
LINE
  5
1BD
330
1F
100
AcDbEntity
  8
0
  6
HIDDEN
 62
     7
370
    18
100
AcDbLine
 10
2524.0313030499
 20
5989.1979562825
 30
0.0
 11
2477.5313030499
 21
5989.1979562825
 31
0.0
  0
LINE
  5
1BE
330
1F
100
AcDbEntity
  8
0
  6
HIDDEN
 62
     7
370
    18
100
AcDbLine
 10
2767.7902076447
 20
5989.1979562825
 30
0.0
 11
2767.7902076447
 21
5837.6979562825
 31
0.0
  0
LINE
  5
1BF
330
1F
100
AcDbEntity
  8
0
  6
HIDDEN
 62
     7
370
    18
100
AcDbLine
 10
2767.7902076447
 20
5837.6979562825
 30
0.0
 11
2782.4673574379
 21
5837.6979562825
 31
0.0
  0
LINE
  5
1C0
330
1F
100
AcDbEntity
  8
0
  6
HIDDEN
 62
     7
370
    18
100
AcDbLine
 10
2782.4673574379
 20
5837.6979562825
 30
0.0
 11
2782.4673574379
 21
5513.6979562825
 31
0.0
  0
LINE
  5
1C1
330
1F
100
AcDbEntity
  8
0
  6
HIDDEN
 62
     7
370
    18
100
AcDbLine
 10
2767.7902076447
 20
5513.6979562825
 30
0.0
 11
2782.4673574379
 21
5513.6979562825
 31
0.0
  0
LINE
  5
1C2
330
1F
100
AcDbEntity
  8
0
  6
HIDDEN
 62
     7
370
    18
100
AcDbLine
 10
2767.7902076447
 20
5513.6979562825
 30
0.0
 11
2767.7902076447
 21
5434.1979562825
 31
0.0
  0
LINE
  5
1C3
330
1F
100
AcDbEntity
  8
0
  6
HIDDEN
 62
     7
370
    18
100
AcDbLine
 10
2578.2723984551
 20
5513.6979562825
 30
0.0
 11
2578.2723984551
 21
5434.1979562825
 31
0.0
  0
LINE
  5
1C4
330
1F
100
AcDbEntity
  8
0
  6
HIDDEN
 62
     7
370
    18
100
AcDbLine
 10
2563.595248662
 20
5837.6979562825
 30
0.0
 11
2530.0313030499
 21
5837.6979562825
 31
0.0
  0
LINE
  5
1C5
330
1F
100
AcDbEntity
  8
0
  6
HIDDEN
 62
     7
370
    18
100
AcDbLine
 10
2563.595248662
 20
5513.6979562825
 30
0.0
 11
2530.0313030499
 21
5513.6979562825
 31
0.0
  0
LINE
  5
1C6
330
1F
100
AcDbEntity
  8
0
  6
HIDDEN
 62
     7
370
    18
100
AcDbLine
 10
2530.0313030499
 20
5513.6979562825
 30
0.0
 11
2530.0313030499
 21
5837.6979562825
 31
0.0
  0
LINE
  5
1C7
330
1F
100
AcDbEntity
  8
0
  6
HIDDEN
 62
     7
370
    18
100
AcDbLine
 10
2816.0313030499
 20
5513.6979562825
 30
0.0
 11
2816.0313030499
 21
5837.6979562825
 31
0.0
  0
LINE
  5
1C8
330
1F
100
AcDbEntity
  8
0
  6
HIDDEN
 62
     7
370
    18
100
AcDbLine
 10
2816.0313030499
 20
5513.6979562825
 30
0.0
 11
2782.4673574379
 21
5513.6979562825
 31
0.0
  0
LINE
  5
1C9
330
1F
100
AcDbEntity
  8
0
  6
HIDDEN
 62
     7
370
    18
100
AcDbLine
 10
2816.0313030499
 20
5837.6979562825
 30
0.0
 11
2782.4673574379
 21
5837.6979562825
 31
0.0
  0
LINE
  5
1CA
330
1F
100
AcDbEntity
  8
0
  6
HIDDEN
 62
     7
370
    18
100
AcDbLine
 10
2578.2723984551
 20
5837.6979562825
 30
0.0
 11
2767.7902076447
 21
5837.6979562825
 31
0.0
  0
LINE
  5
1CB
330
1F
100
AcDbEntity
  8
0
  6
HIDDEN
 62
     7
370
    18
100
AcDbLine
 10
2578.2723984551
 20
5513.6979562825
 30
0.0
 11
2767.7902076447
 21
5513.6979562825
 31
0.0
  0
LINE
  5
1CC
330
1F
100
AcDbEntity
  8
0
  6
HIDDEN
 62
     7
370
    18
100
AcDbLine
 10
2448.0313030499
 20
5880.6979562825
 30
0.0
 11
2868.5313030499
 21
5880.6979562825
 31
0.0
  0
LINE
  5
1CD
330
1F
100
AcDbEntity
  8
0
  6
HIDDEN
 62
     7
370
    18
100
AcDbLine
 10
2868.5313030499
 20
5470.6979562825
 30
0.0
 11
2477.5313030499
 21
5470.6979562825
 31
0.0
  0
LINE
  5
1CE
330
1F
100
AcDbEntity
  8
0
  6
HIDDEN
 62
     7
370
    18
100
AcDbLine
 10
2448.0313030499
 20
5588.6979562825
 30
0.0
 11
2448.0313030499
 21
5880.6979562825
 31
0.0
  0
LINE
  5
1CF
330
1F
100
AcDbEntity
  8
0
  6
HIDDEN
 62
     7
370
    18
100
AcDbLine
 10
2772.0274252788
 20
5249.1979562825
 30
0.0
 11
2785.5313030499
 21
5249.1979562825
 31
0.0
  0
LINE
  5
1D0
330
1F
100
AcDbEntity
  8
0
  6
HIDDEN
 62
     7
370
    18
100
AcDbLine
 10
2560.5313030499
 20
5249.1979562825
 30
0.0
 11
2772.0274252788
 21
5249.1979562825
 31
0.0
  0
LINE
  5
1D1
330
1F
100
AcDbEntity
  8
0
  6
HIDDEN
 62
     7
370
    18
100
AcDbLine
 10
2772.0274252788
 20
5324.1979562825
 30
0.0
 11
2785.5313030499
 21
5324.1979562825
 31
0.0
  0
LINE
  5
1D2
330
1F
100
AcDbEntity
  8
0
  6
HIDDEN
 62
     7
370
    18
100
AcDbLine
 10
2560.5313030499
 20
5324.1979562825
 30
0.0
 11
2772.0274252788
 21
5324.1979562825
 31
0.0
  0
LINE
  5
1D3
330
1F
100
AcDbEntity
  8
0
  6
HIDDEN
 62
     7
370
    18
100
AcDbLine
 10
1498.0313030499
 20
5249.1979562825
 30
0.0
 11
1048.0313030499
 21
5249.1979562825
 31
0.0
  0
LINE
  5
1D4
330
1F
100
AcDbEntity
  8
0
  6
HIDDEN
 62
     7
370
    18
100
AcDbLine
 10
1498.0313030499
 20
5324.1979562825
 30
0.0
 11
1048.0313030499
 21
5324.1979562825
 31
0.0
  0
CIRCLE
  5
1D5
330
1F
100
AcDbEntity
  8
0
  6
HIDDEN
 62
     7
370
    18
100
AcDbCircle
 10
2873.0313030499
 20
6529.6979562825
 30
0.0
 40
8.99999999999909
  0
CIRCLE
  5
1D6
330
1F
100
AcDbEntity
  8
0
  6
HIDDEN
 62
     7
370
    18
100
AcDbCircle
 10
2153.0313030499
 20
6529.6979562825
 30
0.0
 40
8.99999999999909
  0
CIRCLE
  5
1D7
330
1F
100
AcDbEntity
  8
0
  6
HIDDEN
 62
     7
370
    18
100
AcDbCircle
 10
1433.0313030499
 20
6529.6979562825
 30
0.0
 40
8.99999999999909
  0
CIRCLE
  5
1D8
330
1F
100
AcDbEntity
  8
0
  6
HIDDEN
 62
     7
370
    18
100
AcDbCircle
 10
713.0313030499
 20
6529.6979562825
 30
0.0
 40
8.99999999999909
  0
CIRCLE
  5
1D9
330
1F
100
AcDbEntity
  8
0
  6
HIDDEN
 62
     7
370
    18
100
AcDbCircle
 10
713.0313030499
 20
5409.6979562825
 30
0.0
 40
9.0
  0
CIRCLE
  5
1DA
330
1F
100
AcDbEntity
  8
0
  6
HIDDEN
 62
     7
370
    18
100
AcDbCircle
 10
1433.0313030499
 20
5409.6979562825
 30
0.0
 40
9.0
  0
CIRCLE
  5
1DB
330
1F
100
AcDbEntity
  8
0
  6
HIDDEN
 62
     7
370
    18
100
AcDbCircle
 10
2153.0313030499
 20
5409.6979562825
 30
0.0
 40
9.0
  0
CIRCLE
  5
1DC
330
1F
100
AcDbEntity
  8
0
  6
HIDDEN
 62
     7
370
    18
100
AcDbCircle
 10
2873.0313030499
 20
5409.6979562825
 30
0.0
 40
9.0
  0
LINE
  5
1DD
330
1F
100
AcDbEntity
  8
0
  6
HIDDEN
 62
     7
370
    18
100
AcDbLine
 10
2697.0313030499
 20
5379.6979562825
 30
0.0
 11
2649.0313030499
 21
5379.6979562825
 31
0.0
  0
LINE
  5
1DE
330
1F
100
AcDbEntity
  8
0
  6
HIDDEN
 62
     7
370
    18
100
AcDbLine
 10
710.7313030499
 20
6559.6979562825
 30
0.0
 11
1835.3313030499
 21
6559.6979562825
 31
0.0
  0
LINE
  5
1DF
330
1F
100
AcDbEntity
  8
0
  6
HIDDEN
 62
     7
370
    18
100
AcDbLine
 10
678.0313030499
 20
6494.6979562825
 30
0.0
 11
2524.0313030499
 21
6494.6979562825
 31
0.0
  0
LINE
  5
1E0
330
1F
100
AcDbEntity
  8
0
  6
HIDDEN
 62
     7
370
    18
100
AcDbLine
 10
678.0313030499
 20
5639.3979562825
 30
0.0
 11
678.0313030499
 21
6494.6979562825
 31
0.0
  0
LINE
  5
1E1
330
1F
100
AcDbEntity
  8
0
  6
HIDDEN
 62
     7
370
    18
100
AcDbLine
 10
2868.5313030499
 20
5444.6979562825
 30
0.0
 11
2477.5313030499
 21
5444.6979562825
 31
0.0
  0
LINE
  5
1E2
330
1F
100
AcDbEntity
  8
0
  6
HIDDEN
 62
     7
370
    18
100
AcDbLine
 10
613.0313030499
 20
5639.3979562825
 30
0.0
 11
613.0313030499
 21
6493.9979562825
 31
0.0
  0
LINE
  5
1E3
330
1F
100
AcDbEntity
  8
0
  6
HIDDEN
 62
     7
370
    18
100
AcDbLine
 10
672.0313030499
 20
5438.6979562825
 30
0.0
 11
672.0313030499
 21
6500.6979562825
 31
0.0
  0
LINE
  5
1E4
330
1F
100
AcDbEntity
  8
0
  6
HIDDEN
 62
     7
370
    18
100
AcDbLine
 10
2914.0313030499
 20
6500.6979562825
 30
0.0
 11
2914.0313030499
 21
5438.6979562825
 31
0.0
  0
LINE
  5
1E5
330
1F
100
AcDbEntity
  8
0
  6
HIDDEN
 62
     7
370
    18
100
AcDbLine
 10
672.0313030499
 20
6500.6979562825
 30
0.0
 11
2914.0313030499
 21
6500.6979562825
 31
0.0
  0
LINE
  5
1E6
330
1F
100
AcDbEntity
  8
0
  6
HIDDEN
 62
     7
370
    18
100
AcDbLine
 10
2914.0313030499
 20
5438.6979562825
 30
0.0
 11
672.0313030499
 21
5438.6979562825
 31
0.0
  0
CIRCLE
  5
1E7
330
1F
100
AcDbEntity
  8
0
  6
HIDDEN
 62
     7
370
    18
100
AcDbCircle
 10
678.0313030499
 20
6527.1979562825
 30
0.0
 40
17.5
  0
CIRCLE
  5
1E8
330
1F
100
AcDbEntity
  8
0
  6
HIDDEN
 62
     7
370
    18
100
AcDbCircle
 10
2908.0313030499
 20
6527.1979562825
 30
0.0
 40
17.5
  0
CIRCLE
  5
1E9
330
1F
100
AcDbEntity
  8
0
  6
HIDDEN
 62
     7
370
    18
100
AcDbCircle
 10
678.0313030499
 20
5412.1979562825
 30
0.0
 40
17.50000000000091
  0
CIRCLE
  5
1EA
330
1F
100
AcDbEntity
  8
0
  6
HIDDEN
 62
     7
370
    18
100
AcDbCircle
 10
2908.0313030499
 20
5412.1979562825
 30
0.0
 40
17.50000000000091
  0
LINE
  5
1EB
330
1F
100
AcDbEntity
  8
0
  6
HIDDEN
 62
     7
370
    18
100
AcDbLine
 10
2472.2791086646
 20
6493.9979562825
 30
0.0
 11
1319.4313030499
 21
6493.9979562825
 31
0.0
  0
LINE
  5
1EC
330
1F
100
AcDbEntity
  8
0
  6
HIDDEN
 62
     7
370
    18
100
AcDbLine
 10
1319.4313030499
 20
5639.3979562825
 30
0.0
 11
1319.4313030499
 21
6493.9979562825
 31
0.0
  0
LINE
  5
1ED
330
1F
100
AcDbEntity
  8
0
  6
HIDDEN
 62
     7
370
    18
100
AcDbLine
 10
2472.2791086646
 20
6493.9979562825
 30
0.0
 11
2472.2791086646
 21
5639.3979562825
 31
0.0
  0
LINE
  5
1EE
330
1F
100
AcDbEntity
  8
0
  6
HIDDEN
 62
     7
370
    18
100
AcDbLine
 10
2472.2791086646
 20
5639.3979562825
 30
0.0
 11
1319.4313030499
 21
5639.3979562825
 31
0.0
  0
LINE
  5
1EF
330
1F
100
AcDbEntity
  8
0
  6
HIDDEN
 62
     7
370
    18
100
AcDbLine
 10
1268.0313030499
 20
5639.3979562825
 30
0.0
 11
1319.4313030499
 21
5639.3979562825
 31
0.0
  0
LINE
  5
1F0
330
1F
100
AcDbEntity
  8
0
  6
HIDDEN
 62
     7
370
    18
100
AcDbLine
 10
1268.0313030499
 20
6493.9979562825
 30
0.0
 11
1319.4313030499
 21
6493.9979562825
 31
0.0
  0
LINE
  5
1F1
330
1F
100
AcDbEntity
  8
0
  6
HIDDEN
 62
     7
370
    18
100
AcDbLine
 10
468.0313030499
 20
5641.6979562825
 30
0.0
 11
468.0313030499
 21
6491.6979562825
 31
0.0
  0
LINE
  5
1F2
330
1F
100
AcDbEntity
  8
0
  6
HIDDEN
 62
     7
370
    18
100
AcDbLine
 10
468.0313030499
 20
5641.6979562825
 30
0.0
 11
1204.5313030499
 21
5641.6979562825
 31
0.0
  0
LINE
  5
1F3
330
1F
100
AcDbEntity
  8
0
  6
HIDDEN
 62
     7
370
    18
100
AcDbLine
 10
468.0313030499
 20
6491.6979562825
 30
0.0
 11
1204.5313030499
 21
6491.6979562825
 31
0.0
  0
LINE
  5
1F4
330
1F
100
AcDbEntity
  8
0
  6
HIDDEN
 62
     7
370
    18
100
AcDbLine
 10
1204.5313030499
 20
5641.6979562825
 30
0.0
 11
1321.0313030499
 21
5641.6979562825
 31
0.0
  0
LINE
  5
1F5
330
1F
100
AcDbEntity
  8
0
  6
HIDDEN
 62
     7
370
    18
100
AcDbLine
 10
1204.5313030499
 20
6491.6979562825
 30
0.0
 11
1321.0313030499
 21
6491.6979562825
 31
0.0
  0
LINE
  5
1F6
330
1F
100
AcDbEntity
  8
0
  6
HIDDEN
 62
     7
370
    18
100
AcDbLine
 10
1268.0313030499
 20
6501.6979562825
 30
0.0
 11
1883.0313030499
 21
6501.6979562825
 31
0.0
  0
LINE
  5
1F7
330
1F
100
AcDbEntity
  8
0
  6
HIDDEN
 62
     7
370
    18
100
AcDbLine
 10
2477.5313030499
 20
5989.1979562825
 30
0.0
 11
2477.5313030499
 21
5588.6979562825
 31
0.0
  0
LINE
  5
1F8
330
1F
100
AcDbEntity
  8
0
  6
HIDDEN
 62
     7
370
    18
100
AcDbLine
 10
2697.0313030499
 20
5324.1979562825
 30
0.0
 11
2697.0313030499
 21
5366.6979562825
 31
0.0
  0
LINE
  5
1F9
330
1F
100
AcDbEntity
  8
0
  6
HIDDEN
 62
     7
370
    18
100
AcDbLine
 10
2649.0313030499
 20
5366.6979562825
 30
0.0
 11
2649.0313030499
 21
5324.1979562825
 31
0.0
  0
LINE
  5
1FA
330
1F
100
AcDbEntity
  8
0
  6
HIDDEN
 62
     7
370
    18
100
AcDbLine
 10
2785.5313030499
 20
5249.1979562825
 30
0.0
 11
2785.5313030499
 21
5324.1979562825
 31
0.0
  0
LINE
  5
1FB
330
1F
100
AcDbEntity
  8
0
  6
HIDDEN
 62
     7
370
    18
100
AcDbLine
 10
2560.5313030499
 20
5324.1979562825
 30
0.0
 11
2560.5313030499
 21
5249.1979562825
 31
0.0
  0
LINE
  5
1FC
330
1F
100
AcDbEntity
  8
0
  6
HIDDEN
 62
     7
370
    18
100
AcDbLine
 10
1048.0313030499
 20
5324.1979562825
 30
0.0
 11
1048.0313030499
 21
5249.1979562825
 31
0.0
  0
LINE
  5
1FD
330
1F
100
AcDbEntity
  8
0
  6
HIDDEN
 62
     7
370
    18
100
AcDbLine
 10
1498.0313030499
 20
5249.1979562825
 30
0.0
 11
1498.0313030499
 21
5324.1979562825
 31
0.0
  0
LINE
  5
1FE
330
1F
100
AcDbEntity
  8
0
  6
HIDDEN
 62
     7
370
    18
100
AcDbLine
 10
1883.0313030499
 20
6493.9979562825
 30
0.0
 11
1883.0313030499
 21
6501.6979562825
 31
0.0
  0
LINE
  5
1FF
330
1F
100
AcDbEntity
  8
0
  6
HIDDEN
 62
     7
370
    18
100
AcDbLine
 10
1174.3438825136
 20
6594.6979562825
 30
0.0
 11
1174.3438825136
 21
6592.3979562825
 31
0.0
  0
LINE
  5
200
330
1F
100
AcDbEntity
  8
0
  6
HIDDEN
 62
     7
370
    18
100
AcDbLine
 10
1186.3438825136
 20
6592.3979562825
 30
0.0
 11
1186.3438825136
 21
6594.6979562825
 31
0.0
  0
LINE
  5
201
330
1F
100
AcDbEntity
  8
0
  6
HIDDEN
 62
     7
370
    18
100
AcDbLine
 10
1359.7187235862
 20
6594.6979562825
 30
0.0
 11
1359.7187235862
 21
6592.3979562825
 31
0.0
  0
LINE
  5
202
330
1F
100
AcDbEntity
  8
0
  6
HIDDEN
 62
     7
370
    18
100
AcDbLine
 10
1371.7187235862
 20
6592.3979562825
 30
0.0
 11
1371.7187235862
 21
6594.6979562825
 31
0.0
  0
LINE
  5
203
330
1F
100
AcDbEntity
  8
0
  6
HIDDEN
 62
     7
370
    18
100
AcDbLine
 10
1835.3313030499
 20
6501.6979562825
 30
0.0
 11
1835.3313030499
 21
6544.6979562825
 31
0.0
  0
LINE
  5
204
330
1F
100
AcDbEntity
  8
0
  6
HIDDEN
 62
     7
370
    18
100
AcDbLine
 10
1833.0313030499
 20
6491.6979562825
 30
0.0
 11
1833.0313030499
 21
6594.6979562825
 31
0.0
  0
LINE
  5
205
330
1F
100
AcDbEntity
  8
0
  6
HIDDEN
 62
     7
370
    18
100
AcDbLine
 10
713.0313030499
 20
6594.6979562825
 30
0.0
 11
713.0313030499
 21
6491.6979562825
 31
0.0
  0
LINE
  5
206
330
1F
100
AcDbEntity
  8
0
  6
HIDDEN
 62
     7
370
    18
100
AcDbLine
 10
998.0419319542
 20
6594.6979562825
 30
0.0
 11
998.0419319542
 21
6592.3979562825
 31
0.0
  0
LINE
  5
207
330
1F
100
AcDbEntity
  8
0
  6
HIDDEN
 62
     7
370
    18
100
AcDbLine
 10
1010.0419319542
 20
6592.3979562825
 30
0.0
 11
1010.0419319542
 21
6594.6979562825
 31
0.0
  0
LINE
  5
208
330
1F
100
AcDbEntity
  8
0
  6
HIDDEN
 62
     7
370
    18
100
AcDbLine
 10
1536.0206741456
 20
6594.6979562825
 30
0.0
 11
1536.0206741456
 21
6592.3979562825
 31
0.0
  0
LINE
  5
209
330
1F
100
AcDbEntity
  8
0
  6
HIDDEN
 62
     7
370
    18
100
AcDbLine
 10
1548.0206741456
 20
6592.3979562825
 30
0.0
 11
1548.0206741456
 21
6594.6979562825
 31
0.0
  0
LINE
  5
20A
330
1F
100
AcDbEntity
  8
0
  6
HIDDEN
 62
     7
370
    18
100
AcDbLine
 10
848.0705351969
 20
6594.6979562825
 30
0.0
 11
848.0705351969
 21
6592.3979562825
 31
0.0
  0
LINE
  5
20B
330
1F
100
AcDbEntity
  8
0
  6
HIDDEN
 62
     7
370
    18
100
AcDbLine
 10
860.0705351969
 20
6592.3979562825
 30
0.0
 11
860.0705351969
 21
6594.6979562825
 31
0.0
  0
LINE
  5
20C
330
1F
100
AcDbEntity
  8
0
  6
HIDDEN
 62
     7
370
    18
100
AcDbLine
 10
1685.9920709029
 20
6594.6979562825
 30
0.0
 11
1685.9920709029
 21
6592.3979562825
 31
0.0
  0
LINE
  5
20D
330
1F
100
AcDbEntity
  8
0
  6
HIDDEN
 62
     7
370
    18
100
AcDbLine
 10
1697.9920709029
 20
6592.3979562825
 30
0.0
 11
1697.9920709029
 21
6594.6979562825
 31
0.0
  0
LINE
  5
20E
330
1F
100
AcDbEntity
  8
0
  6
HIDDEN
 62
     7
370
    18
100
AcDbLine
 10
739.1099374683
 20
6594.6979562825
 30
0.0
 11
739.1099374683
 21
6592.3979562825
 31
0.0
  0
LINE
  5
20F
330
1F
100
AcDbEntity
  8
0
  6
HIDDEN
 62
     7
370
    18
100
AcDbLine
 10
751.1099374683
 20
6592.3979562825
 30
0.0
 11
751.1099374683
 21
6594.6979562825
 31
0.0
  0
LINE
  5
210
330
1F
100
AcDbEntity
  8
0
  6
HIDDEN
 62
     7
370
    18
100
AcDbLine
 10
1794.9526686315
 20
6594.6979562825
 30
0.0
 11
1794.9526686315
 21
6592.3979562825
 31
0.0
  0
LINE
  5
211
330
1F
100
AcDbEntity
  8
0
  6
HIDDEN
 62
     7
370
    18
100
AcDbLine
 10
1806.9526686315
 20
6592.3979562825
 30
0.0
 11
1806.9526686315
 21
6594.6979562825
 31
0.0
  0
LINE
  5
212
330
1F
100
AcDbEntity
  8
0
  6
HIDDEN
 62
     7
370
    18
100
AcDbLine
 10
681.8259612473
 20
6594.6979562825
 30
0.0
 11
681.8259612473
 21
6592.3979562825
 31
0.0
  0
LINE
  5
213
330
1F
100
AcDbEntity
  8
0
  6
HIDDEN
 62
     7
370
    18
100
AcDbLine
 10
693.8259612473
 20
6592.3979562825
 30
0.0
 11
693.8259612473
 21
6594.6979562825
 31
0.0
  0
LINE
  5
214
330
1F
100
AcDbEntity
  8
0
  6
HIDDEN
 62
     7
370
    18
100
AcDbLine
 10
1852.2366448525
 20
6594.6979562825
 30
0.0
 11
1852.2366448525
 21
6592.3979562825
 31
0.0
  0
LINE
  5
215
330
1F
100
AcDbEntity
  8
0
  6
HIDDEN
 62
     7
370
    18
100
AcDbLine
 10
1864.2366448525
 20
6592.3979562825
 30
0.0
 11
1864.2366448525
 21
6594.6979562825
 31
0.0
  0
CIRCLE
  5
216
330
1F
100
AcDbEntity
  8
基礎穴
100
AcDbCircle
 10
713.0313030499
 20
6529.6979562825
 30
0.0
 40
9.000000000000089
  0
CIRCLE
  5
217
330
1F
100
AcDbEntity
  8
基礎穴
100
AcDbCircle
 10
1433.0313030499
 20
6529.6979562825
 30
0.0
 40
9.000000000000089
  0
CIRCLE
  5
218
330
1F
100
AcDbEntity
  8
基礎穴
100
AcDbCircle
 10
2153.0313030499
 20
6529.6979562825
 30
0.0
 40
8.999999999999872
  0
CIRCLE
  5
219
330
1F
100
AcDbEntity
  8
基礎穴
100
AcDbCircle
 10
2873.0313030499
 20
6529.6979562825
 30
0.0
 40
8.999999999999437
  0
CIRCLE
  5
21A
330
1F
100
AcDbEntity
  8
基礎穴
100
AcDbCircle
 10
2873.0313030499
 20
5409.6979562825
 30
0.0
 40
8.999999999999872
  0
CIRCLE
  5
21B
330
1F
100
AcDbEntity
  8
基礎穴
100
AcDbCircle
 10
2153.0313030499
 20
5409.6979562825
 30
0.0
 40
9.000000000000307
  0
CIRCLE
  5
21C
330
1F
100
AcDbEntity
  8
基礎穴
100
AcDbCircle
 10
1433.0313030499
 20
5409.6979562825
 30
0.0
 40
8.999999999999872
  0
CIRCLE
  5
21D
330
1F
100
AcDbEntity
  8
基礎穴
100
AcDbCircle
 10
713.0313030499
 20
5409.6979562825
 30
0.0
 40
9.000000000000089
  0
LINE
  5
21E
330
1F
100
AcDbEntity
  8
2
100
AcDbLine
 10
2079.8313030499
 20
6066.6979562825
 30
0.0
 11
1025.8148426021
 21
6066.6979562825
 31
0.0
  0
LINE
  5
21F
330
1F
100
AcDbEntity
  8
2
100
AcDbLine
 10
1273.0313030499
 20
5522.337077049
 30
0.0
 11
1273.0313030499
 21
6295.8988151531
 31
0.0
  0
LINE
  5
220
330
1F
100
AcDbEntity
  8
2
100
AcDbLine
 10
1896.0313030499
 20
6263.4672255717
 30
0.0
 11
1896.0313030499
 21
5792.065906569
 31
0.0
  0
ENDSEC
  0
SECTION
  2
OBJECTS
  0
DICTIONARY
  5
C
330
0
100
AcDbDictionary
281
     1
  3
ACAD_GROUP
350
D
  3
ACAD_LAYOUT
350
1A
  3
ACAD_MLINESTYLE
350
17
  3
ACAD_PLOTSETTINGS
350
19
  3
ACAD_PLOTSTYLENAME
350
E
  3
ACAD_SCALELIST
350
47
  3
DWGPROPS
350
221
  0
DICTIONARY
  5
D
102
{ACAD_REACTORS
330
C
102
}
330
C
100
AcDbDictionary
281
     1
  0
DICTIONARY
  5
1A
102
{ACAD_REACTORS
330
C
102
}
330
C
100
AcDbDictionary
281
     1
  3
Layout1
350
1E
  3
Layout2
350
26
  3
Model
350
22
  0
DICTIONARY
  5
17
102
{ACAD_REACTORS
330
C
102
}
330
C
100
AcDbDictionary
281
     1
  3
Standard
350
18
  0
DICTIONARY
  5
19
102
{ACAD_REACTORS
330
C
102
}
330
C
100
AcDbDictionary
281
     1
  0
ACDBDICTIONARYWDFLT
  5
E
102
{ACAD_REACTORS
330
C
102
}
330
C
100
AcDbDictionary
281
     1
  3
Normal
350
F
100
AcDbDictionaryWithDefault
340
F
  0
DICTIONARY
  5
47
102
{ACAD_REACTORS
330
C
102
}
330
C
100
AcDbDictionary
281
     1
  3
A0
350
48
  3
A1
350
49
  3
A2
350
4A
  3
A3
350
4B
  3
A4
350
4C
  3
A5
350
4D
  3
A6
350
4E
  3
A7
350
4F
  3
A8
350
50
  3
A9
350
51
  3
B0
350
52
  3
B1
350
53
  3
B2
350
54
  3
B3
350
55
  3
B4
350
56
  3
B5
350
57
  3
B6
350
58
  0
XRECORD
  5
221
102
{ACAD_REACTORS
330
C
102
}
330
C
100
AcDbXrecord
280
     1
  1
DWGPROPS COOKIE
  2

  3

  4

  6

  7

  8
yuta.kunimatsu
  9

300
=
301
=
302
=
303
=
304
=
305
=
306
=
307
=
308
=
309
=
 40
0.0
 41
2460174.415913322
 42
2460174.415915995
  1

 90
        0
  0
LAYOUT
  5
1E
102
{ACAD_REACTORS
330
1A
102
}
330
1A
100
AcDbPlotSettings
  1

  2
none_device
  4

  6

 40
0.0
 41
0.0
 42
0.0
 43
0.0
 44
0.0
 45
0.0
 46
0.0
 47
0.0
 48
0.0
 49
0.0
140
0.0
141
0.0
142
1.0
143
1.0
 70
   688
 72
     1
 73
     0
 74
     5
  7

 75
    16
147
1.0
148
0.0
149
0.0
100
AcDbLayout
  1
Layout1
 70
     1
 71
     1
 10
0.0
 20
0.0
 11
420.0
 21
297.0
 12
0.0
 22
0.0
 32
0.0
 14
1.0000000000E+20
 24
1.0000000000E+20
 34
1.0000000000E+20
 15
-1.0000000000E+20
 25
-1.0000000000E+20
 35
-1.0000000000E+20
146
0.0
 13
0.0
 23
0.0
 33
0.0
 16
1.0
 26
0.0
 36
0.0
 17
0.0
 27
1.0
 37
0.0
 76
     0
330
1B
  0
LAYOUT
  5
26
102
{ACAD_REACTORS
330
1A
102
}
330
1A
100
AcDbPlotSettings
  1

  2
none_device
  4

  6

 40
0.0
 41
0.0
 42
0.0
 43
0.0
 44
0.0
 45
0.0
 46
0.0
 47
0.0
 48
0.0
 49
0.0
140
0.0
141
0.0
142
1.0
143
1.0
 70
   688
 72
     1
 73
     0
 74
     5
  7

 75
    16
147
1.0
148
0.0
149
0.0
100
AcDbLayout
  1
Layout2
 70
     1
 71
     2
 10
0.0
 20
0.0
 11
0.0
 21
0.0
 12
0.0
 22
0.0
 32
0.0
 14
0.0
 24
0.0
 34
0.0
 15
0.0
 25
0.0
 35
0.0
146
0.0
 13
0.0
 23
0.0
 33
0.0
 16
1.0
 26
0.0
 36
0.0
 17
0.0
 27
1.0
 37
0.0
 76
     0
330
23
  0
LAYOUT
  5
22
102
{ACAD_REACTORS
330
1A
102
}
330
1A
100
AcDbPlotSettings
  1

  2
none_device
  4
Letter_(8.50_x_11.00_Inches)
  6

 40
6.35
 41
6.35
 42
6.35000508
 43
6.35000508
 44
215.9
 45
279.4
 46
0.0
 47
0.0
 48
0.0
 49
0.0
140
0.0
141
0.0
142
1.0
143
1.0
 70
  1712
 72
     1
 73
     0
 74
     0
  7

 75
     0
147
1.0
148
0.0
149
0.0
100
AcDbLayout
  1
Model
 70
     1
 71
     0
 10
0.0
 20
0.0
 11
5250.0
 21
7425.0
 12
0.0
 22
0.0
 32
0.0
 14
0.0
 24
0.0
 34
0.0
 15
5250.0
 25
7425.0
 35
0.0
146
0.0
 13
0.0
 23
0.0
 33
0.0
 16
1.0
 26
0.0
 36
0.0
 17
0.0
 27
1.0
 37
0.0
 76
     0
330
1F
331
29
  0
MLINESTYLE
  5
18
102
{ACAD_REACTORS
330
17
102
}
330
17
100
AcDbMlineStyle
  2
Standard
 70
     0
  3

 62
   256
 51
90.0
 52
90.0
 71
     2
 49
0.5
 62
   256
  6
BYLAYER
 49
-0.5
 62
   256
  6
BYLAYER
  0
ACDBPLACEHOLDER
  5
F
102
{ACAD_REACTORS
330
E
102
}
330
E
  0
SCALE
  5
48
102
{ACAD_REACTORS
330
47
102
}
330
47
100
AcDbScale
 70
     0
300
1:1
140
1.0
141
1.0
290
     1
  0
SCALE
  5
49
102
{ACAD_REACTORS
330
47
102
}
330
47
100
AcDbScale
 70
     0
300
1:2
140
1.0
141
2.0
290
     0
  0
SCALE
  5
4A
102
{ACAD_REACTORS
330
47
102
}
330
47
100
AcDbScale
 70
     0
300
1:4
140
1.0
141
4.0
290
     0
  0
SCALE
  5
4B
102
{ACAD_REACTORS
330
47
102
}
330
47
100
AcDbScale
 70
     0
300
1:5
140
1.0
141
5.0
290
     0
  0
SCALE
  5
4C
102
{ACAD_REACTORS
330
47
102
}
330
47
100
AcDbScale
 70
     0
300
1:8
140
1.0
141
8.0
290
     0
  0
SCALE
  5
4D
102
{ACAD_REACTORS
330
47
102
}
330
47
100
AcDbScale
 70
     0
300
1:10
140
1.0
141
10.0
290
     0
  0
SCALE
  5
4E
102
{ACAD_REACTORS
330
47
102
}
330
47
100
AcDbScale
 70
     0
300
1:16
140
1.0
141
16.0
290
     0
  0
SCALE
  5
4F
102
{ACAD_REACTORS
330
47
102
}
330
47
100
AcDbScale
 70
     0
300
1:20
140
1.0
141
20.0
290
     0
  0
SCALE
  5
50
102
{ACAD_REACTORS
330
47
102
}
330
47
100
AcDbScale
 70
     0
300
1:30
140
1.0
141
30.0
290
     0
  0
SCALE
  5
51
102
{ACAD_REACTORS
330
47
102
}
330
47
100
AcDbScale
 70
     0
300
1:40
140
1.0
141
40.0
290
     0
  0
SCALE
  5
52
102
{ACAD_REACTORS
330
47
102
}
330
47
100
AcDbScale
 70
     0
300
1:50
140
1.0
141
50.0
290
     0
  0
SCALE
  5
53
102
{ACAD_REACTORS
330
47
102
}
330
47
100
AcDbScale
 70
     0
300
1:100
140
1.0
141
100.0
290
     0
  0
SCALE
  5
54
102
{ACAD_REACTORS
330
47
102
}
330
47
100
AcDbScale
 70
     0
300
2:1
140
2.0
141
1.0
290
     0
  0
SCALE
  5
55
102
{ACAD_REACTORS
330
47
102
}
330
47
100
AcDbScale
 70
     0
300
4:1
140
4.0
141
1.0
290
     0
  0
SCALE
  5
56
102
{ACAD_REACTORS
330
47
102
}
330
47
100
AcDbScale
 70
     0
300
8:1
140
8.0
141
1.0
290
     0
  0
SCALE
  5
57
102
{ACAD_REACTORS
330
47
102
}
330
47
100
AcDbScale
 70
     0
300
10:1
140
10.0
141
1.0
290
     0
  0
SCALE
  5
58
102
{ACAD_REACTORS
330
47
102
}
330
47
100
AcDbScale
 70
     0
300
100:1
140
100.0
141
1.0
290
     0
  0
ENDSEC
  0
EOF
