  0
SECTION
  2
HEADER
  9
$ACADVER
  1
AC1015
  9
$ACADMAINTVER
 70
     6
  9
$DWGCODEPAGE
  3
DOS932
  9
$INSBASE
 10
0.0
 20
0.0
 30
0.0
  9
$EXTMIN
 10
0.0
 20
0.0
 30
0.0
  9
$EXTMAX
 10
5250.0
 20
7425.0
 30
0.0
  9
$LIMMIN
 10
0.0
 20
0.0
  9
$LIMMAX
 10
5250.0
 20
7425.0
  9
$ORTHOMODE
 70
     0
  9
$REGENMODE
 70
     1
  9
$FILLMODE
 70
     1
  9
$QTEXTMODE
 70
     0
  9
$MIRRTEXT
 70
     1
  9
$LTSCALE
 40
25.0
  9
$ATTMODE
 70
     1
  9
$TEXTSIZE
 40
70.5555555556
  9
$TRACEWID
 40
1.0
  9
$TEXTSTYLE
  7
Standard
  9
$CLAYER
  8
0
  9
$CELTYPE
  6
ByLayer
  9
$CECOLOR
 62
   256
  9
$CELTSCALE
 40
1.0
  9
$DISPSILH
 70
     0
  9
$DIMSCALE
 40
1.0
  9
$DIMASZ
 40
37.5
  9
$DIMEXO
 40
25.0
  9
$DIMDLI
 40
3.75
  9
$DIMRND
 40
0.0
  9
$DIMDLE
 40
0.0
  9
$DIMEXE
 40
25.0
  9
$DIMTP
 40
0.0
  9
$DIMTM
 40
0.0
  9
$DIMTXT
 40
70.5555555556
  9
$DIMCEN
 40
2.5
  9
$DIMTSZ
 40
0.0
  9
$DIMTOL
 70
     0
  9
$DIMLIM
 70
     0
  9
$DIMTIH
 70
     1
  9
$DIMTOH
 70
     1
  9
$DIMSE1
 70
     0
  9
$DIMSE2
 70
     0
  9
$DIMTAD
 70
     1
  9
$DIMZIN
 70
     0
  9
$DIMBLK
  1

  9
$DIMASO
 70
     1
  9
$DIMSHO
 70
     1
  9
$DIMPOST
  1

  9
$DIMAPOST
  1

  9
$DIMALT
 70
     0
  9
$DIMALTD
 70
     3
  9
$DIMALTF
 40
0.0393700787
  9
$DIMLFAC
 40
1.0
  9
$DIMTOFL
 70
     1
  9
$DIMTVP
 40
0.0
  9
$DIMTIX
 70
     0
  9
$DIMSOXD
 70
     0
  9
$DIMSAH
 70
     0
  9
$DIMBLK1
  1

  9
$DIMBLK2
  1

  9
$DIMSTYLE
  2
ISO-25
  9
$DIMCLRD
 70
     0
  9
$DIMCLRE
 70
     0
  9
$DIMCLRT
 70
     0
  9
$DIMTFAC
 40
1.0
  9
$DIMGAP
 40
38.1
  9
$DIMJUST
 70
     0
  9
$DIMSD1
 70
     0
  9
$DIMSD2
 70
     0
  9
$DIMTOLJ
 70
     0
  9
$DIMTZIN
 70
     0
  9
$DIMALTZ
 70
     0
  9
$DIMALTTZ
 70
     0
  9
$DIMUPT
 70
     0
  9
$DIMDEC
 70
     0
  9
$DIMTDEC
 70
     0
  9
$DIMALTU
 70
     2
  9
$DIMALTTD
 70
     3
  9
$DIMTXSTY
  7
Standard
  9
$DIMAUNIT
 70
     0
  9
$DIMADEC
 70
     2
  9
$DIMALTRND
 40
0.0
  9
$DIMAZIN
 70
     0
  9
$DIMDSEP
 70
    44
  9
$DIMATFIT
 70
     3
  9
$DIMFRAC
 70
     0
  9
$DIMLDRBLK
  1

  9
$DIMLUNIT
 70
     2
  9
$DIMLWD
 70
    -2
  9
$DIMLWE
 70
    -2
  9
$DIMTMOVE
 70
     0
  9
$LUNITS
 70
     2
  9
$LUPREC
 70
     2
  9
$SKETCHINC
 40
1.0
  9
$FILLETRAD
 40
0.0
  9
$AUNITS
 70
     0
  9
$AUPREC
 70
     2
  9
$MENU
  1
.
  9
$ELEVATION
 40
0.0
  9
$PELEVATION
 40
0.0
  9
$THICKNESS
 40
0.0
  9
$LIMCHECK
 70
     0
  9
$CHAMFERA
 40
0.0
  9
$CHAMFERB
 40
0.0
  9
$CHAMFERC
 40
0.0
  9
$CHAMFERD
 40
0.0
  9
$SKPOLY
 70
     0
  9
$TDCREATE
 40
2460151.575114144
  9
$TDUCREATE
 40
2460151.200114144
  9
$TDUPDATE
 40
2460151.575114583
  9
$TDUUPDATE
 40
2460151.200114583
  9
$TDINDWG
 40
0.0000000116
  9
$TDUSRTIMER
 40
0.0000000116
  9
$USRTIMER
 70
     1
  9
$ANGBASE
 50
0.0
  9
$ANGDIR
 70
     0
  9
$PDMODE
 70
     0
  9
$PDSIZE
 40
-1.0
  9
$PLINEWID
 40
0.0
  9
$SPLFRAME
 70
     0
  9
$SPLINETYPE
 70
     6
  9
$SPLINESEGS
 70
     8
  9
$HANDSEED
  5
20D
  9
$SURFTAB1
 70
     6
  9
$SURFTAB2
 70
     6
  9
$SURFTYPE
 70
     6
  9
$SURFU
 70
     6
  9
$SURFV
 70
     6
  9
$UCSBASE
  2

  9
$UCSNAME
  2

  9
$UCSORG
 10
0.0
 20
0.0
 30
0.0
  9
$UCSXDIR
 10
1.0
 20
0.0
 30
0.0
  9
$UCSYDIR
 10
0.0
 20
1.0
 30
0.0
  9
$UCSORTHOREF
  2

  9
$UCSORTHOVIEW
 70
     0
  9
$UCSORGTOP
 10
0.0
 20
0.0
 30
0.0
  9
$UCSORGBOTTOM
 10
0.0
 20
0.0
 30
0.0
  9
$UCSORGLEFT
 10
0.0
 20
0.0
 30
0.0
  9
$UCSORGRIGHT
 10
0.0
 20
0.0
 30
0.0
  9
$UCSORGFRONT
 10
0.0
 20
0.0
 30
0.0
  9
$UCSORGBACK
 10
0.0
 20
0.0
 30
0.0
  9
$PUCSBASE
  2

  9
$PUCSNAME
  2

  9
$PUCSORG
 10
0.0
 20
0.0
 30
0.0
  9
$PUCSXDIR
 10
1.0
 20
0.0
 30
0.0
  9
$PUCSYDIR
 10
0.0
 20
1.0
 30
0.0
  9
$PUCSORTHOREF
  2

  9
$PUCSORTHOVIEW
 70
     0
  9
$PUCSORGTOP
 10
0.0
 20
0.0
 30
0.0
  9
$PUCSORGBOTTOM
 10
0.0
 20
0.0
 30
0.0
  9
$PUCSORGLEFT
 10
0.0
 20
0.0
 30
0.0
  9
$PUCSORGRIGHT
 10
0.0
 20
0.0
 30
0.0
  9
$PUCSORGFRONT
 10
0.0
 20
0.0
 30
0.0
  9
$PUCSORGBACK
 10
0.0
 20
0.0
 30
0.0
  9
$USERI1
 70
     0
  9
$USERI2
 70
     0
  9
$USERI3
 70
     0
  9
$USERI4
 70
     0
  9
$USERI5
 70
     0
  9
$USERR1
 40
0.0
  9
$USERR2
 40
0.0
  9
$USERR3
 40
0.0
  9
$USERR4
 40
0.0
  9
$USERR5
 40
0.0
  9
$WORLDVIEW
 70
     1
  9
$SHADEDGE
 70
     3
  9
$SHADEDIF
 70
    70
  9
$TILEMODE
 70
     1
  9
$MAXACTVP
 70
    64
  9
$PINSBASE
 10
0.0
 20
0.0
 30
0.0
  9
$PLIMCHECK
 70
     0
  9
$PEXTMIN
 10
1.0000000000E+20
 20
1.0000000000E+20
 30
1.0000000000E+20
  9
$PEXTMAX
 10
-1.0000000000E+20
 20
-1.0000000000E+20
 30
-1.0000000000E+20
  9
$PLIMMIN
 10
0.0
 20
0.0
  9
$PLIMMAX
 10
420.0
 20
297.0
  9
$UNITMODE
 70
     0
  9
$VISRETAIN
 70
     1
  9
$PLINEGEN
 70
     0
  9
$PSLTSCALE
 70
     1
  9
$TREEDEPTH
 70
  3020
  9
$CMLSTYLE
  2
Standard
  9
$CMLJUST
 70
     0
  9
$CMLSCALE
 40
20.0
  9
$PROXYGRAPHICS
 70
     1
  9
$MEASUREMENT
 70
     1
  9
$CELWEIGHT
370
    -1
  9
$ENDCAPS
280
     0
  9
$JOINSTYLE
280
     0
  9
$LWDISPLAY
290
     1
  9
$INSUNITS
 70
     4
  9
$HYPERLINKBASE
  1

  9
$STYLESHEET
  1

  9
$XEDIT
290
     1
  9
$CEPSNTYPE
380
     0
  9
$PSTYLEMODE
290
     1
  9
$FINGERPRINTGUID
  2
{010a5370-4b4f-4301-a2dc-2e127cb3eb92}
  9
$VERSIONGUID
  2
{FAEB1C32-E019-11D5-929B-00C0DF256EC4}
  9
$EXTNAMES
290
     1
  9
$PSVPSCALE
 40
0.0
  9
$OLESTARTUP
290
     0
  0
ENDSEC
  0
SECTION
  2
CLASSES
  0
CLASS
  1
ACDBDICTIONARYWDFLT
  2
AcDbDictionaryWithDefault
  3
ObjectDBX Classes
 90
        0
280
     0
281
     0
  0
CLASS
  1
VISUALSTYLE
  2
AcDbVisualStyle
  3
ObjectDBX Classes
 90
     4095
280
     0
281
     0
  0
CLASS
  1
MATERIAL
  2
AcDbMaterial
  3
ObjectDBX Classes
 90
     1153
280
     0
281
     0
  0
CLASS
  1
SCALE
  2
AcDbScale
  3
ObjectDBX Classes
 90
     1153
280
     0
281
     0
  0
CLASS
  1
TABLESTYLE
  2
AcDbTableStyle
  3
ObjectDBX Classes
 90
     4095
280
     0
281
     0
  0
CLASS
  1
MLEADERSTYLE
  2
AcDbMLeaderStyle
  3
ACDB_MLEADERSTYLE_CLASS
 90
     4095
280
     0
281
     0
  0
CLASS
  1
SUN
  2
AcDbSun
  3
SCENEOE
 90
     1153
280
     0
281
     0
  0
CLASS
  1
ACDBPLACEHOLDER
  2
AcDbPlaceHolder
  3
ObjectDBX Classes
 90
        0
280
     0
281
     0
  0
CLASS
  1
LAYOUT
  2
AcDbLayout
  3
ObjectDBX Classes
 90
        0
280
     0
281
     0
  0
ENDSEC
  0
SECTION
  2
TABLES
  0
TABLE
  2
VPORT
  5
8
330
0
100
AcDbSymbolTable
 70
     1
  0
VPORT
  5
29
330
8
100
AcDbSymbolTableRecord
100
AcDbViewportTableRecord
  2
*Active
 70
     0
 10
0.0
 20
0.0
 11
1.0
 21
1.0
 12
2625.0
 22
3712.5
 13
0.0
 23
0.0
 14
10.0
 24
10.0
 15
10.0
 25
10.0
 16
0.0
 26
0.0
 36
1.0
 17
0.0
 27
0.0
 37
0.0
 40
7425.0
 41
0.7070707071
 42
50.0
 43
0.0
 44
0.0
 50
0.0
 51
0.0
 71
     0
 72
  2000
 73
     1
 74
     3
 75
     0
 76
     0
 77
     0
 78
     0
281
     0
 65
     1
110
0.0
120
0.0
130
0.0
111
1.0
121
0.0
131
0.0
112
0.0
122
1.0
132
0.0
 79
     0
146
0.0
  0
ENDTAB
  0
TABLE
  2
LTYPE
  5
5
330
0
100
AcDbSymbolTable
 70
     6
  0
LTYPE
  5
14
330
5
100
AcDbSymbolTableRecord
100
AcDbLinetypeTableRecord
  2
ByBlock
 70
     0
  3

 72
    65
 73
     0
 40
0.0
  0
LTYPE
  5
15
330
5
100
AcDbSymbolTableRecord
100
AcDbLinetypeTableRecord
  2
ByLayer
 70
     0
  3

 72
    65
 73
     0
 40
0.0
  0
LTYPE
  5
16
330
5
100
AcDbSymbolTableRecord
100
AcDbLinetypeTableRecord
  2
Continuous
 70
     0
  3
Solid line
 72
    65
 73
     0
 40
0.0
  0
LTYPE
  5
5E
330
5
100
AcDbSymbolTableRecord
100
AcDbLinetypeTableRecord
  2
HIDDEN
 70
     0
  3
Hidden __ __ __ __ __ __ __ __ __ __ __ __ __ __
 72
    65
 73
     2
 40
1.905
 49
1.27
 74
     0
 49
-0.635
 74
     0
  0
LTYPE
  5
5F
330
5
100
AcDbSymbolTableRecord
100
AcDbLinetypeTableRecord
  2
PHANTOM
 70
     0
  3
Phantom ______  __  __  ______  __  __  ______
 72
    65
 73
     6
 40
12.7
 49
6.35
 74
     0
 49
-1.27
 74
     0
 49
1.27
 74
     0
 49
-1.27
 74
     0
 49
1.27
 74
     0
 49
-1.27
 74
     0
  0
LTYPE
  5
60
330
5
100
AcDbSymbolTableRecord
100
AcDbLinetypeTableRecord
  2
CENTER
 70
     0
  3
Center ____ _ ____ _ ____ _ ____ _ ____ _ ____
 72
    65
 73
     4
 40
10.16
 49
6.35
 74
     0
 49
-1.27
 74
     0
 49
1.27
 74
     0
 49
-1.27
 74
     0
  0
LTYPE
  5
61
330
5
100
AcDbSymbolTableRecord
100
AcDbLinetypeTableRecord
  2
CENTERX2
 70
     0
  3
Center (2x) ________  __  ________  __  _____
 72
    65
 73
     4
 40
20.32
 49
12.7
 74
     0
 49
-2.54
 74
     0
 49
2.54
 74
     0
 49
-2.54
 74
     0
  0
LTYPE
  5
62
330
5
100
AcDbSymbolTableRecord
100
AcDbLinetypeTableRecord
  2
DOT2
 70
     0
  3
Dot (.5x) ........................................
 72
    65
 73
     2
 40
0.635
 49
0.0
 74
     0
 49
-0.635
 74
     0
  0
ENDTAB
  0
TABLE
  2
LAYER
  5
2
330
0
100
AcDbSymbolTable
 70
     6
  0
LAYER
  5
10
330
2
100
AcDbSymbolTableRecord
100
AcDbLayerTableRecord
  2
0
 70
     0
 62
     7
  6
Continuous
370
    -3
390
F
  0
LAYER
  5
63
330
2
100
AcDbSymbolTableRecord
100
AcDbLayerTableRecord
  2
1
 70
     0
 62
     4
  6
Continuous
370
    25
390
F
  0
LAYER
  5
64
330
2
100
AcDbSymbolTableRecord
100
AcDbLayerTableRecord
  2
2
 70
     0
 62
     3
  6
CENTERX2
370
    -3
390
F
  0
LAYER
  5
65
330
2
100
AcDbSymbolTableRecord
100
AcDbLayerTableRecord
  2
3
 70
     0
 62
     2
  6
Continuous
370
    -3
390
F
  0
LAYER
  5
66
330
2
100
AcDbSymbolTableRecord
100
AcDbLayerTableRecord
  2
4
 70
     0
 62
     7
  6
Continuous
370
    -3
390
F
  0
LAYER
  5
67
330
2
100
AcDbSymbolTableRecord
100
AcDbLayerTableRecord
  2
基礎穴
 70
     0
 62
     1
  6
PHANTOM
370
    35
390
F
  0
ENDTAB
  0
TABLE
  2
STYLE
  5
3
330
0
100
AcDbSymbolTable
 70
     2
  0
STYLE
  5
11
330
3
100
AcDbSymbolTableRecord
100
AcDbTextStyleTableRecord
  2
Standard
 70
     0
 40
0.0
 41
1.0
 50
0.0
 71
     0
 42
70.5555555556
  3
txt
  4
bigfont
  0
STYLE
  5
68
330
3
100
AcDbSymbolTableRecord
100
AcDbTextStyleTableRecord
  2
SLDTEXTSTYLE0
 70
     0
 40
0.0
 41
0.7
 50
0.0
 71
     0
 42
70.5555555556
  3
TXT
  4
bigfont
  0
ENDTAB
  0
TABLE
  2
VIEW
  5
6
330
0
100
AcDbSymbolTable
 70
     0
  0
ENDTAB
  0
TABLE
  2
UCS
  5
7
330
0
100
AcDbSymbolTable
 70
     0
  0
ENDTAB
  0
TABLE
  2
APPID
  5
9
330
0
100
AcDbSymbolTable
 70
     1
  0
APPID
  5
12
330
9
100
AcDbSymbolTableRecord
100
AcDbRegAppTableRecord
  2
ACAD
 70
     0
  0
ENDTAB
  0
TABLE
  2
DIMSTYLE
  5
A
330
0
100
AcDbSymbolTable
 70
     1
100
AcDbDimStyleTable
  0
DIMSTYLE
105
27
330
A
100
AcDbSymbolTableRecord
100
AcDbDimStyleTableRecord
  2
ISO-25
 70
     0
 41
2.5
 42
0.625
 43
3.75
 44
1.25
 73
     0
 74
     0
 77
     1
 78
     8
140
2.5
141
2.5
143
0.0393700787
147
0.625
171
     3
172
     1
178
     0
271
     2
272
     2
274
     3
278
    44
283
     0
284
     8
340
11
  0
ENDTAB
  0
TABLE
  2
BLOCK_RECORD
  5
1
330
0
100
AcDbSymbolTable
 70
     2
  0
BLOCK_RECORD
  5
1F
330
1
100
AcDbSymbolTableRecord
100
AcDbBlockTableRecord
  2
*Model_Space
340
22
  0
BLOCK_RECORD
  5
1B
330
1
100
AcDbSymbolTableRecord
100
AcDbBlockTableRecord
  2
*Paper_Space
340
1E
  0
BLOCK_RECORD
  5
23
330
1
100
AcDbSymbolTableRecord
100
AcDbBlockTableRecord
  2
*Paper_Space0
340
26
  0
BLOCK_RECORD
  5
CD
330
1
100
AcDbSymbolTableRecord
100
AcDbBlockTableRecord
  2
SW_CENTERMARKSYMBOL_0
340
0
102
{BLKREFS
331
D8
102
}
  0
ENDTAB
  0
ENDSEC
  0
SECTION
  2
BLOCKS
  0
BLOCK
  5
20
330
1F
100
AcDbEntity
  8
0
100
AcDbBlockBegin
  2
*Model_Space
 70
     0
 10
0.0
 20
0.0
 30
0.0
  3
*Model_Space
  1

  0
ENDBLK
  5
21
330
1F
100
AcDbEntity
  8
0
100
AcDbBlockEnd
  0
BLOCK
  5
1C
330
1B
100
AcDbEntity
 67
     1
  8
0
100
AcDbBlockBegin
  2
*Paper_Space
 70
     0
 10
0.0
 20
0.0
 30
0.0
  3
*Paper_Space
  1

  0
ENDBLK
  5
1D
330
1B
100
AcDbEntity
 67
     1
  8
0
100
AcDbBlockEnd
  0
BLOCK
  5
24
330
23
100
AcDbEntity
  8
0
100
AcDbBlockBegin
  2
*Paper_Space0
 70
     0
 10
0.0
 20
0.0
 30
0.0
  3
*Paper_Space0
  1

  0
ENDBLK
  5
25
330
23
100
AcDbEntity
  8
0
100
AcDbBlockEnd
  0
BLOCK
  5
CE
330
CD
100
AcDbEntity
  8
0
100
AcDbBlockBegin
  2
SW_CENTERMARKSYMBOL_0
 70
     0
 10
0.0
 20
0.0
 30
0.0
  3
SW_CENTERMARKSYMBOL_0
  1

  0
LINE
  5
D0
330
CD
100
AcDbEntity
  8
2
 62
     0
100
AcDbLine
 10
0.0
 20
0.0
 30
0.0
 11
0.0
 21
2.5
 31
0.0
  0
LINE
  5
D1
330
CD
100
AcDbEntity
  8
2
 62
     0
100
AcDbLine
 10
0.0
 20
0.0
 30
0.0
 11
-2.5
 21
0.0
 31
0.0
  0
LINE
  5
D2
330
CD
100
AcDbEntity
  8
2
 62
     0
100
AcDbLine
 10
0.0
 20
0.0
 30
0.0
 11
0.0
 21
-2.5
 31
0.0
  0
LINE
  5
D3
330
CD
100
AcDbEntity
  8
2
 62
     0
100
AcDbLine
 10
0.0
 20
0.0
 30
0.0
 11
2.5
 21
0.0
 31
0.0
  0
LINE
  5
D4
330
CD
100
AcDbEntity
  8
2
 62
     0
100
AcDbLine
 10
0.0
 20
5.0
 30
0.0
 11
0.0
 21
612.5
 31
0.0
  0
LINE
  5
D5
330
CD
100
AcDbEntity
  8
2
 62
     0
100
AcDbLine
 10
-5.0
 20
0.0
 30
0.0
 11
-612.5
 21
0.0
 31
0.0
  0
LINE
  5
D6
330
CD
100
AcDbEntity
  8
2
 62
     0
100
AcDbLine
 10
0.0
 20
-5.0
 30
0.0
 11
0.0
 21
-612.5
 31
0.0
  0
LINE
  5
D7
330
CD
100
AcDbEntity
  8
2
 62
     0
100
AcDbLine
 10
5.0
 20
0.0
 30
0.0
 11
612.5
 21
0.0
 31
0.0
  0
ENDBLK
  5
CF
330
CD
100
AcDbEntity
  8
0
100
AcDbBlockEnd
  0
ENDSEC
  0
SECTION
  2
ENTITIES
  0
MTEXT
  5
69
330
1F
100
AcDbEntity
  8
0
  6
Continuous
 62
     7
370
     0
100
AcDbMText
 10
3938.6342985742
 20
1655.2661834907
 30
0.0
 40
70.5555555556
 41
0.0
 71
     1
 72
     1
  1
LL07040Y101K-R3
  7
SLDTEXTSTYLE0
 73
     1
 44
1.0
  0
LINE
  5
6A
330
1F
100
AcDbEntity
  8
1
100
AcDbLine
 10
2637.8695880136
 20
2701.0999670481
 30
0.0
 11
1308.9081972195
 21
3783.3339398001
 31
0.0
  0
ARC
  5
6B
330
1F
100
AcDbEntity
  8
1
100
AcDbCircle
 10
2503.6855484025
 20
2536.3246851832
 30
0.0
 40
212.5000000000002
100
AcDbArc
 50
238.3535961312
 51
50.8424998628
  0
LINE
  5
6C
330
1F
100
AcDbEntity
  8
1
100
AcDbLine
 10
933.165995322
 20
3254.6514446679
 30
0.0
 11
2392.1919944653
 21
2355.4229510001
 31
0.0
  0
ARC
  5
6D
330
1F
100
AcDbEntity
  8
1
100
AcDbCircle
 10
1103.6855484025
 20
3531.3246851832
 30
0.0
 40
325.0000000000028
100
AcDbArc
 50
50.8424998628
 51
238.3535961312
  0
LINE
  5
6E
330
1F
100
AcDbEntity
  8
1
100
AcDbLine
 10
2278.6855484025
 20
2301.3246851832
 30
0.0
 11
2278.6855484025
 21
2356.3246851832
 31
0.0
  0
LINE
  5
6F
330
1F
100
AcDbEntity
  8
1
100
AcDbLine
 10
2728.6855484025
 20
2301.3246851832
 30
0.0
 11
2728.6855484025
 21
2356.3246851832
 31
0.0
  0
LINE
  5
70
330
1F
100
AcDbEntity
  8
1
100
AcDbLine
 10
2728.6855484025
 20
2356.3246851832
 30
0.0
 11
2616.6291183833
 21
2356.3246851832
 31
0.0
  0
LINE
  5
71
330
1F
100
AcDbEntity
  8
1
100
AcDbLine
 10
2390.7289029077
 20
2356.3246851832
 30
0.0
 11
2278.6855484025
 21
2356.3246851832
 31
0.0
  0
LINE
  5
72
330
1F
100
AcDbEntity
  8
1
100
AcDbLine
 10
2646.6855484025
 20
2374.3246851832
 30
0.0
 11
2641.2073648536
 21
2374.3246851832
 31
0.0
  0
LINE
  5
73
330
1F
100
AcDbEntity
  8
1
100
AcDbLine
 10
2360.6855484025
 20
2374.3246851832
 30
0.0
 11
2360.6855484025
 21
2356.3246851832
 31
0.0
  0
LINE
  5
74
330
1F
100
AcDbEntity
  8
1
100
AcDbLine
 10
2361.5233470679
 20
2374.3246851832
 30
0.0
 11
2360.6855484025
 21
2374.3246851832
 31
0.0
  0
LINE
  5
75
330
1F
100
AcDbEntity
  8
1
100
AcDbLine
 10
2646.6855484025
 20
2356.3246851832
 30
0.0
 11
2646.6855484025
 21
2374.3246851832
 31
0.0
  0
LINE
  5
76
330
1F
100
AcDbEntity
  8
1
100
AcDbLine
 10
2803.6855484025
 20
2295.3246851832
 30
0.0
 11
443.6855484025
 21
2295.3246851832
 31
0.0
  0
LINE
  5
77
330
1F
100
AcDbEntity
  8
1
100
AcDbLine
 10
2803.6855484025
 20
2301.3246851832
 30
0.0
 11
2803.6855484025
 21
2295.3246851832
 31
0.0
  0
LINE
  5
78
330
1F
100
AcDbEntity
  8
1
100
AcDbLine
 10
443.6855484025
 20
2301.3246851832
 30
0.0
 11
443.6855484025
 21
2295.3246851832
 31
0.0
  0
LINE
  5
79
330
1F
100
AcDbEntity
  8
1
100
AcDbLine
 10
2803.6855484025
 20
2301.3246851832
 30
0.0
 11
443.6855484025
 21
2301.3246851832
 31
0.0
  0
LINE
  5
7A
330
1F
100
AcDbEntity
  8
1
100
AcDbLine
 10
2803.6855484025
 20
2182.3246851832
 30
0.0
 11
2803.6855484025
 21
2176.3246851832
 31
0.0
  0
LINE
  5
7B
330
1F
100
AcDbEntity
  8
1
100
AcDbLine
 10
2803.6855484025
 20
2182.3246851832
 30
0.0
 11
443.6855484025
 21
2182.3246851832
 31
0.0
  0
LINE
  5
7C
330
1F
100
AcDbEntity
  8
1
100
AcDbLine
 10
2803.6855484025
 20
2176.3246851832
 30
0.0
 11
443.6855484025
 21
2176.3246851832
 31
0.0
  0
LINE
  5
7D
330
1F
100
AcDbEntity
  8
1
100
AcDbLine
 10
443.6855484025
 20
2182.3246851832
 30
0.0
 11
443.6855484025
 21
2176.3246851832
 31
0.0
  0
LINE
  5
7E
330
1F
100
AcDbEntity
  8
1
100
AcDbLine
 10
502.6855484025
 20
2295.3246851832
 30
0.0
 11
502.6855484025
 21
2182.3246851832
 31
0.0
  0
LINE
  5
7F
330
1F
100
AcDbEntity
  8
1
100
AcDbLine
 10
2744.6855484025
 20
2295.3246851832
 30
0.0
 11
2744.6855484025
 21
2182.3246851832
 31
0.0
  0
LINE
  5
80
330
1F
100
AcDbEntity
  8
1
100
AcDbLine
 10
347.6855484025
 20
3536.3246851832
 30
0.0
 11
343.6855484025
 21
3536.3246851832
 31
0.0
  0
LINE
  5
81
330
1F
100
AcDbEntity
  8
1
100
AcDbLine
 10
347.6855484025
 20
2280.3246851832
 30
0.0
 11
347.6855484025
 21
3536.3246851832
 31
0.0
  0
LINE
  5
82
330
1F
100
AcDbEntity
  8
1
100
AcDbLine
 10
347.6855484025
 20
2280.3246851832
 30
0.0
 11
343.6855484025
 21
2280.3246851832
 31
0.0
  0
LINE
  5
83
330
1F
100
AcDbEntity
  8
1
100
AcDbLine
 10
343.6855484025
 20
2280.3246851832
 30
0.0
 11
343.6855484025
 21
3536.3246851832
 31
0.0
  0
LINE
  5
84
330
1F
100
AcDbEntity
  8
1
100
AcDbLine
 10
434.0855484025
 20
3484.9246851832
 30
0.0
 11
347.6855484025
 21
3484.9246851832
 31
0.0
  0
ARC
  5
85
330
1F
100
AcDbEntity
  8
1
100
AcDbCircle
 10
1172.1855484025
 20
3599.8246851832
 30
0.0
 40
738.1000000000008
100
AcDbArc
 50
90.0
 51
180.0
  0
ARC
  5
86
330
1F
100
AcDbEntity
  8
1
100
AcDbCircle
 10
1185.6855484025
 20
3449.3246851832
 30
0.0
 40
888.6000000000008
100
AcDbArc
 50
0.0
 51
90.0
  0
LINE
  5
87
330
1F
100
AcDbEntity
  8
1
100
AcDbLine
 10
347.6855484025
 20
2332.0768795685
 30
0.0
 11
1115.6772193942
 21
2400.9295660682
 31
0.0
  0
LINE
  5
88
330
1F
100
AcDbEntity
  8
1
100
AcDbLine
 10
1185.6855484025
 20
4337.9246851832
 30
0.0
 11
1172.1855484025
 21
4337.9246851832
 31
0.0
  0
ARC
  5
89
330
1F
100
AcDbEntity
  8
1
100
AcDbCircle
 10
1021.6855484025
 20
3449.3246851832
 30
0.0
 40
1052.600000000001
100
AcDbArc
 50
275.1230368211
 51
316.7249663329
  0
ARC
  5
8A
330
1F
100
AcDbEntity
  8
1
100
AcDbCircle
 10
1021.6855484025
 20
3449.3246851832
 30
0.0
 40
1052.600000000001
100
AcDbArc
 50
345.5734341299
 51
0.0
  0
LINE
  5
8B
330
1F
100
AcDbEntity
  8
1
100
AcDbLine
 10
434.0855484025
 20
3599.8246851832
 30
0.0
 11
434.0855484025
 21
3484.9246851832
 31
0.0
  0
CIRCLE
  5
8C
330
1F
100
AcDbEntity
  8
0
  6
HIDDEN
 62
     7
370
    18
100
AcDbCircle
 10
2503.6855484025
 20
2536.3246851832
 30
0.0
 40
24.00000000000045
  0
ARC
  5
8D
330
1F
100
AcDbEntity
  8
0
  6
HIDDEN
 62
     7
370
    18
100
AcDbCircle
 10
2503.6855484025
 20
2536.3246851832
 30
0.0
 40
195.5
100
AcDbArc
 50
298.9928373896
 51
241.0071626104
  0
LINE
  5
8E
330
1F
100
AcDbEntity
  8
0
  6
HIDDEN
 62
     7
370
    18
100
AcDbLine
 10
2598.4444529973
 20
2365.3246851832
 30
0.0
 11
2408.9266438078
 21
2365.3246851832
 31
0.0
  0
LINE
  5
8F
330
1F
100
AcDbEntity
  8
0
  6
HIDDEN
 62
     7
370
    18
100
AcDbLine
 10
2616.6291183833
 20
2356.3246851832
 30
0.0
 11
2390.7289029077
 21
2356.3246851832
 31
0.0
  0
LINE
  5
90
330
1F
100
AcDbEntity
  8
0
  6
HIDDEN
 62
     7
370
    18
100
AcDbLine
 10
2641.2073648536
 20
2374.3246851832
 30
0.0
 11
2613.1216027905
 21
2374.3246851832
 31
0.0
  0
LINE
  5
91
330
1F
100
AcDbEntity
  8
0
  6
HIDDEN
 62
     7
370
    18
100
AcDbLine
 10
2394.2494940146
 20
2374.3246851832
 30
0.0
 11
2361.5233470679
 21
2374.3246851832
 31
0.0
  0
CIRCLE
  5
92
330
1F
100
AcDbEntity
  8
0
  6
HIDDEN
 62
     7
370
    18
100
AcDbCircle
 10
2503.6855484025
 20
2536.3246851832
 30
0.0
 40
112.4999999999998
  0
CIRCLE
  5
93
330
1F
100
AcDbEntity
  8
0
  6
HIDDEN
 62
     7
370
    18
100
AcDbCircle
 10
1103.6855484025
 20
3531.3246851832
 30
0.0
 40
225.0000000000003
  0
LINE
  5
94
330
1F
100
AcDbEntity
  8
0
  6
HIDDEN
 62
     7
370
    18
100
AcDbLine
 10
508.6855484025
 20
2301.3246851832
 30
0.0
 11
508.6855484025
 21
2176.3246851832
 31
0.0
  0
LINE
  5
95
330
1F
100
AcDbEntity
  8
0
  6
HIDDEN
 62
     7
370
    18
100
AcDbLine
 10
2738.6855484025
 20
2301.3246851832
 30
0.0
 11
2738.6855484025
 21
2176.3246851832
 31
0.0
  0
ARC
  5
96
330
1F
100
AcDbEntity
  8
0
  6
HIDDEN
 62
     7
370
    18
100
AcDbCircle
 10
1021.6855484025
 20
3449.3246851832
 30
0.0
 40
1052.600000000001
100
AcDbArc
 50
316.7249663329
 51
345.5734341299
  0
LINE
  5
97
330
1F
100
AcDbEntity
  8
0
  6
HIDDEN
 62
     7
370
    18
100
AcDbLine
 10
1185.6855484025
 20
4336.3246851832
 30
0.0
 11
1172.1855484025
 21
4336.3246851832
 31
0.0
  0
ARC
  5
98
330
1F
100
AcDbEntity
  8
0
  6
HIDDEN
 62
     7
370
    18
100
AcDbCircle
 10
1021.6855484025
 20
3449.3246851832
 30
0.0
 40
1051.0
100
AcDbArc
 50
275.1230368211
 51
0.0
  0
ARC
  5
99
330
1F
100
AcDbEntity
  8
0
  6
HIDDEN
 62
     7
370
    18
100
AcDbCircle
 10
1172.1855484025
 20
3599.8246851832
 30
0.0
 40
736.5000000000005
100
AcDbArc
 50
90.0
 51
180.0
  0
LINE
  5
9A
330
1F
100
AcDbEntity
  8
0
  6
HIDDEN
 62
     7
370
    18
100
AcDbLine
 10
343.6855484025
 20
2333.3246851832
 30
0.0
 11
1115.5343477682
 21
2402.5231744575
 31
0.0
  0
LINE
  5
9B
330
1F
100
AcDbEntity
  8
0
  6
HIDDEN
 62
     7
370
    18
100
AcDbLine
 10
435.6855484025
 20
3483.3246851832
 30
0.0
 11
343.6855484025
 21
3483.3246851832
 31
0.0
  0
LINE
  5
9C
330
1F
100
AcDbEntity
  8
0
  6
HIDDEN
 62
     7
370
    18
100
AcDbLine
 10
435.6855484025
 20
3599.8246851832
 30
0.0
 11
435.6855484025
 21
3483.3246851832
 31
0.0
  0
ARC
  5
9D
330
1F
100
AcDbEntity
  8
0
  6
HIDDEN
 62
     7
370
    18
100
AcDbCircle
 10
1185.6855484025
 20
3449.3246851832
 30
0.0
 40
887.0000000000005
100
AcDbArc
 50
0.0
 51
90.0
  0
CIRCLE
  5
9E
330
1F
100
AcDbEntity
  8
0
  6
HIDDEN
 62
     7
370
    18
100
AcDbCircle
 10
1103.6855484025
 20
3531.3246851832
 30
0.0
 40
560.0000000000002
  0
CIRCLE
  5
9F
330
1F
100
AcDbEntity
  8
0
  6
HIDDEN
 62
     7
370
    18
100
AcDbCircle
 10
1103.6855484025
 20
3531.3246851832
 30
0.0
 40
609.9999999999999
  0
CIRCLE
  5
A0
330
1F
100
AcDbEntity
  8
0
  6
HIDDEN
 62
     7
370
    18
100
AcDbCircle
 10
1103.6855484025
 20
3531.3246851832
 30
0.0
 40
562.3000000000002
  0
CIRCLE
  5
A1
330
1F
100
AcDbEntity
  8
0
  6
HIDDEN
 62
     7
370
    18
100
AcDbCircle
 10
834.6961773069
 20
3003.4033196016
 30
0.0
 40
6.0
  0
CIRCLE
  5
A2
330
1F
100
AcDbEntity
  8
0
  6
HIDDEN
 62
     7
370
    18
100
AcDbCircle
 10
684.7247805495
 20
3112.3639173302
 30
0.0
 40
5.999999999999886
  0
CIRCLE
  5
A3
330
1F
100
AcDbEntity
  8
0
  6
HIDDEN
 62
     7
370
    18
100
AcDbCircle
 10
575.7641828209
 20
3262.3353140875
 30
0.0
 40
5.999999999999659
  0
CIRCLE
  5
A4
330
1F
100
AcDbEntity
  8
0
  6
HIDDEN
 62
     7
370
    18
100
AcDbCircle
 10
518.4802065999
 20
3438.6372646469
 30
0.0
 40
5.999999999999659
  0
CIRCLE
  5
A5
330
1F
100
AcDbEntity
  8
0
  6
HIDDEN
 62
     7
370
    18
100
AcDbCircle
 10
518.4802065999
 20
3624.0121057195
 30
0.0
 40
6.0
  0
CIRCLE
  5
A6
330
1F
100
AcDbEntity
  8
0
  6
HIDDEN
 62
     7
370
    18
100
AcDbCircle
 10
575.7641828209
 20
3800.3140562789
 30
0.0
 40
5.999999999999659
  0
CIRCLE
  5
A7
330
1F
100
AcDbEntity
  8
0
  6
HIDDEN
 62
     7
370
    18
100
AcDbCircle
 10
684.7247805495
 20
3950.2854530362
 30
0.0
 40
6.000000000000114
  0
CIRCLE
  5
A8
330
1F
100
AcDbEntity
  8
0
  6
HIDDEN
 62
     7
370
    18
100
AcDbCircle
 10
834.6961773069
 20
4059.2460507648
 30
0.0
 40
6.0
  0
CIRCLE
  5
A9
330
1F
100
AcDbEntity
  8
0
  6
HIDDEN
 62
     7
370
    18
100
AcDbCircle
 10
1010.9981278662
 20
4116.5300269858
 30
0.0
 40
5.999999999999886
  0
CIRCLE
  5
AA
330
1F
100
AcDbEntity
  8
0
  6
HIDDEN
 62
     7
370
    18
100
AcDbCircle
 10
1196.3729689389
 20
4116.5300269858
 30
0.0
 40
6.0
  0
CIRCLE
  5
AB
330
1F
100
AcDbEntity
  8
0
  6
HIDDEN
 62
     7
370
    18
100
AcDbCircle
 10
1372.6749194982
 20
4059.2460507648
 30
0.0
 40
5.999999999999773
  0
CIRCLE
  5
AC
330
1F
100
AcDbEntity
  8
0
  6
HIDDEN
 62
     7
370
    18
100
AcDbCircle
 10
1522.6463162556
 20
3950.2854530362
 30
0.0
 40
5.999999999999773
  0
CIRCLE
  5
AD
330
1F
100
AcDbEntity
  8
0
  6
HIDDEN
 62
     7
370
    18
100
AcDbCircle
 10
1631.6069139841
 20
3800.3140562789
 30
0.0
 40
6.0
  0
CIRCLE
  5
AE
330
1F
100
AcDbEntity
  8
0
  6
HIDDEN
 62
     7
370
    18
100
AcDbCircle
 10
1688.8908902052
 20
3624.0121057195
 30
0.0
 40
5.999999999999773
  0
CIRCLE
  5
AF
330
1F
100
AcDbEntity
  8
0
  6
HIDDEN
 62
     7
370
    18
100
AcDbCircle
 10
1688.8908902052
 20
3438.6372646469
 30
0.0
 40
5.999999999999773
  0
CIRCLE
  5
B0
330
1F
100
AcDbEntity
  8
0
  6
HIDDEN
 62
     7
370
    18
100
AcDbCircle
 10
1631.6069139841
 20
3262.3353140875
 30
0.0
 40
6.0
  0
CIRCLE
  5
B1
330
1F
100
AcDbEntity
  8
0
  6
HIDDEN
 62
     7
370
    18
100
AcDbCircle
 10
1522.6463162556
 20
3112.3639173302
 30
0.0
 40
6.0
  0
CIRCLE
  5
B2
330
1F
100
AcDbEntity
  8
0
  6
HIDDEN
 62
     7
370
    18
100
AcDbCircle
 10
1372.6749194982
 20
3003.4033196016
 30
0.0
 40
5.999999999999773
  0
CIRCLE
  5
B3
330
1F
100
AcDbEntity
  8
0
  6
HIDDEN
 62
     7
370
    18
100
AcDbCircle
 10
1196.3729689389
 20
2946.1193433806
 30
0.0
 40
6.0
  0
CIRCLE
  5
B4
330
1F
100
AcDbEntity
  8
0
  6
HIDDEN
 62
     7
370
    18
100
AcDbCircle
 10
1010.9981278662
 20
2946.1193433806
 30
0.0
 40
5.999999999999886
  0
LINE
  5
B5
330
1F
100
AcDbEntity
  8
0
  6
HIDDEN
 62
     7
370
    18
100
AcDbLine
 10
1992.6855484025
 20
2176.3246851832
 30
0.0
 11
1992.6855484025
 21
2182.3246851832
 31
0.0
  0
LINE
  5
B6
330
1F
100
AcDbEntity
  8
0
  6
HIDDEN
 62
     7
370
    18
100
AcDbLine
 10
1974.6855484025
 20
2182.3246851832
 30
0.0
 11
1974.6855484025
 21
2176.3246851832
 31
0.0
  0
LINE
  5
B7
330
1F
100
AcDbEntity
  8
0
  6
HIDDEN
 62
     7
370
    18
100
AcDbLine
 10
1272.6855484025
 20
2176.3246851832
 30
0.0
 11
1272.6855484025
 21
2182.3246851832
 31
0.0
  0
LINE
  5
B8
330
1F
100
AcDbEntity
  8
0
  6
HIDDEN
 62
     7
370
    18
100
AcDbLine
 10
1254.6855484025
 20
2182.3246851832
 30
0.0
 11
1254.6855484025
 21
2176.3246851832
 31
0.0
  0
LINE
  5
B9
330
1F
100
AcDbEntity
  8
0
  6
HIDDEN
 62
     7
370
    18
100
AcDbLine
 10
2712.6855484025
 20
2176.3246851832
 30
0.0
 11
2712.6855484025
 21
2182.3246851832
 31
0.0
  0
LINE
  5
BA
330
1F
100
AcDbEntity
  8
0
  6
HIDDEN
 62
     7
370
    18
100
AcDbLine
 10
2694.6855484025
 20
2182.3246851832
 30
0.0
 11
2694.6855484025
 21
2176.3246851832
 31
0.0
  0
LINE
  5
BB
330
1F
100
AcDbEntity
  8
0
  6
HIDDEN
 62
     7
370
    18
100
AcDbLine
 10
552.6855484025
 20
2176.3246851832
 30
0.0
 11
552.6855484025
 21
2182.3246851832
 31
0.0
  0
LINE
  5
BC
330
1F
100
AcDbEntity
  8
0
  6
HIDDEN
 62
     7
370
    18
100
AcDbLine
 10
534.6855484025
 20
2182.3246851832
 30
0.0
 11
534.6855484025
 21
2176.3246851832
 31
0.0
  0
LINE
  5
BD
330
1F
100
AcDbEntity
  8
0
  6
HIDDEN
 62
     7
370
    18
100
AcDbLine
 10
343.6855484025
 20
2802.3246851832
 30
0.0
 11
347.6855484025
 21
2802.3246851832
 31
0.0
  0
LINE
  5
BE
330
1F
100
AcDbEntity
  8
0
  6
HIDDEN
 62
     7
370
    18
100
AcDbLine
 10
347.6855484025
 20
2814.3246851832
 30
0.0
 11
343.6855484025
 21
2814.3246851832
 31
0.0
  0
LINE
  5
BF
330
1F
100
AcDbEntity
  8
0
  6
HIDDEN
 62
     7
370
    18
100
AcDbLine
 10
343.6855484025
 20
3202.3246851832
 30
0.0
 11
347.6855484025
 21
3202.3246851832
 31
0.0
  0
LINE
  5
C0
330
1F
100
AcDbEntity
  8
0
  6
HIDDEN
 62
     7
370
    18
100
AcDbLine
 10
347.6855484025
 20
3214.3246851832
 30
0.0
 11
343.6855484025
 21
3214.3246851832
 31
0.0
  0
LINE
  5
C1
330
1F
100
AcDbEntity
  8
0
  6
HIDDEN
 62
     7
370
    18
100
AcDbLine
 10
343.6855484025
 20
3510.3246851832
 30
0.0
 11
347.6855484025
 21
3510.3246851832
 31
0.0
  0
LINE
  5
C2
330
1F
100
AcDbEntity
  8
0
  6
HIDDEN
 62
     7
370
    18
100
AcDbLine
 10
347.6855484025
 20
3522.3246851832
 30
0.0
 11
343.6855484025
 21
3522.3246851832
 31
0.0
  0
LINE
  5
C3
330
1F
100
AcDbEntity
  8
0
  6
HIDDEN
 62
     7
370
    18
100
AcDbLine
 10
343.6855484025
 20
3002.3246851832
 30
0.0
 11
347.6855484025
 21
3002.3246851832
 31
0.0
  0
LINE
  5
C4
330
1F
100
AcDbEntity
  8
0
  6
HIDDEN
 62
     7
370
    18
100
AcDbLine
 10
347.6855484025
 20
3014.3246851832
 30
0.0
 11
343.6855484025
 21
3014.3246851832
 31
0.0
  0
LINE
  5
C5
330
1F
100
AcDbEntity
  8
0
  6
HIDDEN
 62
     7
370
    18
100
AcDbLine
 10
343.6855484025
 20
2602.3246851832
 30
0.0
 11
347.6855484025
 21
2602.3246851832
 31
0.0
  0
LINE
  5
C6
330
1F
100
AcDbEntity
  8
0
  6
HIDDEN
 62
     7
370
    18
100
AcDbLine
 10
347.6855484025
 20
2614.3246851832
 30
0.0
 11
343.6855484025
 21
2614.3246851832
 31
0.0
  0
LINE
  5
C7
330
1F
100
AcDbEntity
  8
0
  6
HIDDEN
 62
     7
370
    18
100
AcDbLine
 10
343.6855484025
 20
2294.3246851832
 30
0.0
 11
347.6855484025
 21
2294.3246851832
 31
0.0
  0
LINE
  5
C8
330
1F
100
AcDbEntity
  8
0
  6
HIDDEN
 62
     7
370
    18
100
AcDbLine
 10
347.6855484025
 20
2306.3246851832
 30
0.0
 11
343.6855484025
 21
2306.3246851832
 31
0.0
  0
LINE
  5
C9
330
1F
100
AcDbEntity
  8
0
  6
HIDDEN
 62
     7
370
    18
100
AcDbLine
 10
343.6855484025
 20
2402.3246851832
 30
0.0
 11
347.6855484025
 21
2402.3246851832
 31
0.0
  0
LINE
  5
CA
330
1F
100
AcDbEntity
  8
0
  6
HIDDEN
 62
     7
370
    18
100
AcDbLine
 10
347.6855484025
 20
2414.3246851832
 30
0.0
 11
343.6855484025
 21
2414.3246851832
 31
0.0
  0
LINE
  5
CB
330
1F
100
AcDbEntity
  8
0
  6
HIDDEN
 62
     7
370
    18
100
AcDbLine
 10
343.6855484025
 20
3402.3246851832
 30
0.0
 11
347.6855484025
 21
3402.3246851832
 31
0.0
  0
LINE
  5
CC
330
1F
100
AcDbEntity
  8
0
  6
HIDDEN
 62
     7
370
    18
100
AcDbLine
 10
347.6855484025
 20
3414.3246851832
 30
0.0
 11
343.6855484025
 21
3414.3246851832
 31
0.0
  0
INSERT
  5
D8
330
1F
100
AcDbEntity
  8
2
100
AcDbBlockReference
  2
SW_CENTERMARKSYMBOL_0
 10
1103.6855484025
 20
3531.3246851832
 30
0.0
  0
LINE
  5
D9
330
1F
100
AcDbEntity
  8
1
100
AcDbLine
 10
3265.7613006087
 20
2323.8246851832
 30
0.0
 11
3425.7613006087
 21
2323.8246851832
 31
0.0
  0
LINE
  5
DA
330
1F
100
AcDbEntity
  8
1
100
AcDbLine
 10
3425.7613006087
 20
3856.3246851832
 30
0.0
 11
3265.7613006087
 21
3856.3246851832
 31
0.0
  0
LINE
  5
DB
330
1F
100
AcDbEntity
  8
1
100
AcDbLine
 10
4048.2613006087
 20
2731.8246851832
 30
0.0
 11
3493.2613006087
 21
2731.8246851832
 31
0.0
  0
LINE
  5
DC
330
1F
100
AcDbEntity
  8
1
100
AcDbLine
 10
3425.7613006087
 20
2512.3246851832
 30
0.0
 11
3493.2613006087
 21
2512.3246851832
 31
0.0
  0
LINE
  5
DD
330
1F
100
AcDbEntity
  8
1
100
AcDbLine
 10
3493.2613006087
 20
2560.3246851832
 30
0.0
 11
3425.7613006087
 21
2560.3246851832
 31
0.0
  0
LINE
  5
DE
330
1F
100
AcDbEntity
  8
1
100
AcDbLine
 10
4653.7613006087
 20
4141.3246851832
 30
0.0
 11
4651.4613006087
 21
4141.3246851832
 31
0.0
  0
LINE
  5
DF
330
1F
100
AcDbEntity
  8
1
100
AcDbLine
 10
4651.4613006087
 20
2921.3246851832
 30
0.0
 11
4653.7613006087
 21
2921.3246851832
 31
0.0
  0
LINE
  5
E0
330
1F
100
AcDbEntity
  8
1
100
AcDbLine
 10
4553.0613006087
 20
2921.3246851832
 30
0.0
 11
4560.7613006087
 21
2921.3246851832
 31
0.0
  0
LINE
  5
E1
330
1F
100
AcDbEntity
  8
1
100
AcDbLine
 10
4560.7613006087
 20
4141.3246851832
 30
0.0
 11
4553.0613006087
 21
4141.3246851832
 31
0.0
  0
LINE
  5
E2
330
1F
100
AcDbEntity
  8
1
100
AcDbLine
 10
4651.4613006087
 20
4093.6246851832
 30
0.0
 11
4560.7613006087
 21
4093.6246851832
 31
0.0
  0
LINE
  5
E3
330
1F
100
AcDbEntity
  8
1
100
AcDbLine
 10
4560.7613006087
 20
2969.0246851832
 30
0.0
 11
4651.4613006087
 21
2969.0246851832
 31
0.0
  0
LINE
  5
E4
330
1F
100
AcDbEntity
  8
1
100
AcDbLine
 10
3265.7613006087
 20
2323.8246851832
 30
0.0
 11
3265.7613006087
 21
2701.0999670481
 31
0.0
  0
LINE
  5
E5
330
1F
100
AcDbEntity
  8
1
100
AcDbLine
 10
3425.7613006087
 20
2323.8246851832
 30
0.0
 11
3425.7613006087
 21
2701.0999670481
 31
0.0
  0
LINE
  5
E6
330
1F
100
AcDbEntity
  8
1
100
AcDbLine
 10
3265.7613006087
 20
2701.0999670481
 30
0.0
 11
3265.7613006087
 21
3783.3339398001
 31
0.0
  0
LINE
  5
E7
330
1F
100
AcDbEntity
  8
1
100
AcDbLine
 10
3425.7613006087
 20
2701.0999670481
 30
0.0
 11
3425.7613006087
 21
3783.3339398001
 31
0.0
  0
LINE
  5
E8
330
1F
100
AcDbEntity
  8
1
100
AcDbLine
 10
3265.7613006087
 20
3783.3339398001
 30
0.0
 11
3265.7613006087
 21
3856.3246851832
 31
0.0
  0
LINE
  5
E9
330
1F
100
AcDbEntity
  8
1
100
AcDbLine
 10
3425.7613006087
 20
3783.3339398001
 30
0.0
 11
3425.7613006087
 21
3856.3246851832
 31
0.0
  0
LINE
  5
EA
330
1F
100
AcDbEntity
  8
1
100
AcDbLine
 10
3939.7613006087
 20
2301.3246851832
 30
0.0
 11
3939.7613006087
 21
2356.3246851832
 31
0.0
  0
LINE
  5
EB
330
1F
100
AcDbEntity
  8
1
100
AcDbLine
 10
3529.7613006087
 20
2301.3246851832
 30
0.0
 11
3529.7613006087
 21
2356.3246851832
 31
0.0
  0
LINE
  5
EC
330
1F
100
AcDbEntity
  8
1
100
AcDbLine
 10
3939.7613006087
 20
2356.3246851832
 30
0.0
 11
3529.7613006087
 21
2356.3246851832
 31
0.0
  0
LINE
  5
ED
330
1F
100
AcDbEntity
  8
1
100
AcDbLine
 10
4048.2613006087
 20
2365.3246851832
 30
0.0
 11
3896.7613006087
 21
2365.3246851832
 31
0.0
  0
LINE
  5
EE
330
1F
100
AcDbEntity
  8
1
100
AcDbLine
 10
3572.7613006087
 20
2365.3246851832
 30
0.0
 11
3493.2613006087
 21
2365.3246851832
 31
0.0
  0
LINE
  5
EF
330
1F
100
AcDbEntity
  8
1
100
AcDbLine
 10
3493.2613006087
 20
2731.8246851832
 30
0.0
 11
3493.2613006087
 21
2365.3246851832
 31
0.0
  0
LINE
  5
F0
330
1F
100
AcDbEntity
  8
1
100
AcDbLine
 10
4048.2613006087
 20
2365.3246851832
 30
0.0
 11
4048.2613006087
 21
2731.8246851832
 31
0.0
  0
LINE
  5
F1
330
1F
100
AcDbEntity
  8
1
100
AcDbLine
 10
3572.7613006087
 20
2356.3246851832
 30
0.0
 11
3572.7613006087
 21
2374.3246851832
 31
0.0
  0
LINE
  5
F2
330
1F
100
AcDbEntity
  8
1
100
AcDbLine
 10
3896.7613006087
 20
2356.3246851832
 30
0.0
 11
3896.7613006087
 21
2374.3246851832
 31
0.0
  0
LINE
  5
F3
330
1F
100
AcDbEntity
  8
1
100
AcDbLine
 10
3572.7613006087
 20
2374.3246851832
 30
0.0
 11
3896.7613006087
 21
2374.3246851832
 31
0.0
  0
LINE
  5
F4
330
1F
100
AcDbEntity
  8
1
100
AcDbLine
 10
4618.7613006087
 20
2182.3246851832
 30
0.0
 11
4618.7613006087
 21
2176.3246851832
 31
0.0
  0
LINE
  5
F5
330
1F
100
AcDbEntity
  8
1
100
AcDbLine
 10
4618.7613006087
 20
2176.3246851832
 30
0.0
 11
3438.7613006087
 21
2176.3246851832
 31
0.0
  0
LINE
  5
F6
330
1F
100
AcDbEntity
  8
1
100
AcDbLine
 10
3438.7613006087
 20
2182.3246851832
 30
0.0
 11
3438.7613006087
 21
2176.3246851832
 31
0.0
  0
LINE
  5
F7
330
1F
100
AcDbEntity
  8
1
100
AcDbLine
 10
4618.7613006087
 20
2182.3246851832
 30
0.0
 11
3438.7613006087
 21
2182.3246851832
 31
0.0
  0
LINE
  5
F8
330
1F
100
AcDbEntity
  8
1
100
AcDbLine
 10
4618.7613006087
 20
2295.3246851832
 30
0.0
 11
3438.7613006087
 21
2295.3246851832
 31
0.0
  0
LINE
  5
F9
330
1F
100
AcDbEntity
  8
1
100
AcDbLine
 10
3438.7613006087
 20
2301.3246851832
 30
0.0
 11
3438.7613006087
 21
2295.3246851832
 31
0.0
  0
LINE
  5
FA
330
1F
100
AcDbEntity
  8
1
100
AcDbLine
 10
4618.7613006087
 20
2301.3246851832
 30
0.0
 11
3438.7613006087
 21
2301.3246851832
 31
0.0
  0
LINE
  5
FB
330
1F
100
AcDbEntity
  8
1
100
AcDbLine
 10
4618.7613006087
 20
2301.3246851832
 30
0.0
 11
4618.7613006087
 21
2295.3246851832
 31
0.0
  0
LINE
  5
FC
330
1F
100
AcDbEntity
  8
1
100
AcDbLine
 10
3497.7613006087
 20
2295.3246851832
 30
0.0
 11
3497.7613006087
 21
2182.3246851832
 31
0.0
  0
LINE
  5
FD
330
1F
100
AcDbEntity
  8
1
100
AcDbLine
 10
4559.7613006087
 20
2295.3246851832
 30
0.0
 11
4559.7613006087
 21
2182.3246851832
 31
0.0
  0
LINE
  5
FE
330
1F
100
AcDbEntity
  8
1
100
AcDbLine
 10
3698.4613006087
 20
2731.8246851832
 30
0.0
 11
3698.4613006087
 21
3449.3246851832
 31
0.0
  0
LINE
  5
FF
330
1F
100
AcDbEntity
  8
1
100
AcDbLine
 10
4553.0613006087
 20
2400.9295660682
 30
0.0
 11
4553.0613006087
 21
3449.3246851832
 31
0.0
  0
LINE
  5
100
330
1F
100
AcDbEntity
  8
1
100
AcDbLine
 10
3698.4613006087
 20
3449.3246851832
 30
0.0
 11
3698.4613006087
 21
4337.9246851832
 31
0.0
  0
LINE
  5
101
330
1F
100
AcDbEntity
  8
1
100
AcDbLine
 10
3698.4613006087
 20
4337.9246851832
 30
0.0
 11
4553.0613006087
 21
4337.9246851832
 31
0.0
  0
LINE
  5
102
330
1F
100
AcDbEntity
  8
1
100
AcDbLine
 10
4553.0613006087
 20
3449.3246851832
 30
0.0
 11
4553.0613006087
 21
4337.9246851832
 31
0.0
  0
LINE
  5
103
330
1F
100
AcDbEntity
  8
1
100
AcDbLine
 10
4651.4613006087
 20
3531.3246851832
 30
0.0
 11
4651.4613006087
 21
2921.3246851832
 31
0.0
  0
LINE
  5
104
330
1F
100
AcDbEntity
  8
1
100
AcDbLine
 10
4651.4613006087
 20
4141.3246851832
 30
0.0
 11
4651.4613006087
 21
3531.3246851832
 31
0.0
  0
LINE
  5
105
330
1F
100
AcDbEntity
  8
1
100
AcDbLine
 10
4653.7613006087
 20
3531.3246851832
 30
0.0
 11
4653.7613006087
 21
2921.3246851832
 31
0.0
  0
LINE
  5
106
330
1F
100
AcDbEntity
  8
1
100
AcDbLine
 10
4653.7613006087
 20
4141.3246851832
 30
0.0
 11
4653.7613006087
 21
3531.3246851832
 31
0.0
  0
LINE
  5
107
330
1F
100
AcDbEntity
  8
1
100
AcDbLine
 10
4560.7613006087
 20
2921.3246851832
 30
0.0
 11
4560.7613006087
 21
4141.3246851832
 31
0.0
  0
LINE
  5
108
330
1F
100
AcDbEntity
  8
1
100
AcDbLine
 10
4553.0613006087
 20
2332.0768795685
 30
0.0
 11
3939.7613006087
 21
2332.0768795685
 31
0.0
  0
LINE
  5
109
330
1F
100
AcDbEntity
  8
1
100
AcDbLine
 10
4553.0613006087
 20
2332.0768795685
 30
0.0
 11
4553.0613006087
 21
2400.9295660682
 31
0.0
  0
LINE
  5
10A
330
1F
100
AcDbEntity
  8
1
100
AcDbLine
 10
3647.7613006087
 20
3536.3246851832
 30
0.0
 11
3698.4613006087
 21
3536.3246851832
 31
0.0
  0
LINE
  5
10B
330
1F
100
AcDbEntity
  8
1
100
AcDbLine
 10
4603.7613006087
 20
2969.0246851832
 30
0.0
 11
4603.7613006087
 21
2301.3246851832
 31
0.0
  0
LINE
  5
10C
330
1F
100
AcDbEntity
  8
1
100
AcDbLine
 10
4603.7613006087
 20
2295.3246851832
 30
0.0
 11
4603.7613006087
 21
2280.3246851832
 31
0.0
  0
LINE
  5
10D
330
1F
100
AcDbEntity
  8
1
100
AcDbLine
 10
4603.7613006087
 20
2280.3246851832
 30
0.0
 11
4559.7613006087
 21
2280.3246851832
 31
0.0
  0
LINE
  5
10E
330
1F
100
AcDbEntity
  8
1
100
AcDbLine
 10
3647.7613006087
 20
2731.8246851832
 30
0.0
 11
3647.7613006087
 21
3536.3246851832
 31
0.0
  0
CIRCLE
  5
10F
330
1F
100
AcDbEntity
  8
1
100
AcDbCircle
 10
3667.7613006087
 20
3516.3246851832
 30
0.0
 40
6.000000000000455
  0
CIRCLE
  5
110
330
1F
100
AcDbEntity
  8
1
100
AcDbCircle
 10
3667.7613006087
 20
3408.3246851832
 30
0.0
 40
6.000000000000455
  0
CIRCLE
  5
111
330
1F
100
AcDbEntity
  8
1
100
AcDbCircle
 10
3667.7613006087
 20
3208.3246851832
 30
0.0
 40
6.000000000000455
  0
CIRCLE
  5
112
330
1F
100
AcDbEntity
  8
1
100
AcDbCircle
 10
3667.7613006087
 20
3008.3246851832
 30
0.0
 40
6.000000000000455
  0
ARC
  5
113
330
1F
100
AcDbEntity
  8
1
100
AcDbCircle
 10
4583.7613006087
 20
2300.3246851832
 30
0.0
 40
6.000000000000174
100
AcDbArc
 50
236.4426902381
 51
303.5573097619
  0
ARC
  5
114
330
1F
100
AcDbEntity
  8
1
100
AcDbCircle
 10
4583.7613006087
 20
2300.3246851832
 30
0.0
 40
6.000000000000485
100
AcDbArc
 50
9.5940682269
 51
170.4059317731
  0
ARC
  5
115
330
1F
100
AcDbEntity
  8
1
100
AcDbCircle
 10
4425.7613006087
 20
2300.3246851832
 30
0.0
 40
6.000000000000485
100
AcDbArc
 50
9.5940682269
 51
170.4059317731
  0
ARC
  5
116
330
1F
100
AcDbEntity
  8
1
100
AcDbCircle
 10
4225.7613006087
 20
2300.3246851832
 30
0.0
 40
6.000000000000485
100
AcDbArc
 50
9.5940682269
 51
170.4059317731
  0
CIRCLE
  5
117
330
1F
100
AcDbEntity
  8
1
100
AcDbCircle
 10
4583.7613006087
 20
2408.3246851832
 30
0.0
 40
6.0
  0
CIRCLE
  5
118
330
1F
100
AcDbEntity
  8
1
100
AcDbCircle
 10
4583.7613006087
 20
2608.3246851832
 30
0.0
 40
6.0
  0
CIRCLE
  5
119
330
1F
100
AcDbEntity
  8
1
100
AcDbCircle
 10
4583.7613006087
 20
2808.3246851832
 30
0.0
 40
6.0
  0
CIRCLE
  5
11A
330
1F
100
AcDbEntity
  8
1
100
AcDbCircle
 10
3667.7613006087
 20
2808.3246851832
 30
0.0
 40
6.000000000000455
  0
ARC
  5
11B
330
1F
100
AcDbEntity
  8
1
100
AcDbCircle
 10
4025.7613006087
 20
2300.3246851832
 30
0.0
 40
5.999999999999885
100
AcDbArc
 50
9.5940682269
 51
170.4059317731
  0
LINE
  5
11C
330
1F
100
AcDbEntity
  8
0
  6
HIDDEN
 62
     7
370
    18
100
AcDbLine
 10
3308.2613006087
 20
2429.2572001171
 30
0.0
 11
3308.2613006087
 21
2423.8246851832
 31
0.0
  0
LINE
  5
11D
330
1F
100
AcDbEntity
  8
0
  6
HIDDEN
 62
     7
370
    18
100
AcDbLine
 10
3308.2613006087
 20
2648.8246851832
 30
0.0
 11
3308.2613006087
 21
2429.2572001171
 31
0.0
  0
LINE
  5
11E
330
1F
100
AcDbEntity
  8
0
  6
HIDDEN
 62
     7
370
    18
100
AcDbLine
 10
3383.2613006087
 20
2429.2572001171
 30
0.0
 11
3383.2613006087
 21
2423.8246851832
 31
0.0
  0
LINE
  5
11F
330
1F
100
AcDbEntity
  8
0
  6
HIDDEN
 62
     7
370
    18
100
AcDbLine
 10
3383.2613006087
 20
2648.8246851832
 30
0.0
 11
3383.2613006087
 21
2429.2572001171
 31
0.0
  0
LINE
  5
120
330
1F
100
AcDbEntity
  8
0
  6
HIDDEN
 62
     7
370
    18
100
AcDbLine
 10
3308.2613006087
 20
3754.733296419
 30
0.0
 11
3308.2613006087
 21
3306.3246851832
 31
0.0
  0
LINE
  5
121
330
1F
100
AcDbEntity
  8
0
  6
HIDDEN
 62
     7
370
    18
100
AcDbLine
 10
3308.2613006087
 20
3756.3246851832
 30
0.0
 11
3308.2613006087
 21
3754.733296419
 31
0.0
  0
LINE
  5
122
330
1F
100
AcDbEntity
  8
0
  6
HIDDEN
 62
     7
370
    18
100
AcDbLine
 10
3383.2613006087
 20
3754.733296419
 30
0.0
 11
3383.2613006087
 21
3306.3246851832
 31
0.0
  0
LINE
  5
123
330
1F
100
AcDbEntity
  8
0
  6
HIDDEN
 62
     7
370
    18
100
AcDbLine
 10
3383.2613006087
 20
3756.3246851832
 30
0.0
 11
3383.2613006087
 21
3754.733296419
 31
0.0
  0
LINE
  5
124
330
1F
100
AcDbEntity
  8
0
  6
HIDDEN
 62
     7
370
    18
100
AcDbLine
 10
4553.7613006087
 20
2301.3246851832
 30
0.0
 11
4553.7613006087
 21
2176.3246851832
 31
0.0
  0
LINE
  5
125
330
1F
100
AcDbEntity
  8
0
  6
HIDDEN
 62
     7
370
    18
100
AcDbLine
 10
3503.7613006087
 20
2301.3246851832
 30
0.0
 11
3503.7613006087
 21
2176.3246851832
 31
0.0
  0
LINE
  5
126
330
1F
100
AcDbEntity
  8
0
  6
HIDDEN
 62
     7
370
    18
100
AcDbLine
 10
3698.4613006087
 20
2400.9295660682
 30
0.0
 11
3698.4613006087
 21
2731.8246851832
 31
0.0
  0
LINE
  5
127
330
1F
100
AcDbEntity
  8
0
  6
HIDDEN
 62
     7
370
    18
100
AcDbLine
 10
3700.7613006087
 20
4336.3246851832
 30
0.0
 11
4550.7613006087
 21
4336.3246851832
 31
0.0
  0
LINE
  5
128
330
1F
100
AcDbEntity
  8
0
  6
HIDDEN
 62
     7
370
    18
100
AcDbLine
 10
3700.7613006087
 20
3449.3246851832
 30
0.0
 11
3700.7613006087
 21
4336.3246851832
 31
0.0
  0
LINE
  5
129
330
1F
100
AcDbEntity
  8
0
  6
HIDDEN
 62
     7
370
    18
100
AcDbLine
 10
4550.7613006087
 20
3449.3246851832
 30
0.0
 11
4550.7613006087
 21
4336.3246851832
 31
0.0
  0
LINE
  5
12A
330
1F
100
AcDbEntity
  8
0
  6
HIDDEN
 62
     7
370
    18
100
AcDbLine
 10
4550.7613006087
 20
2402.5231744575
 30
0.0
 11
4550.7613006087
 21
3449.3246851832
 31
0.0
  0
LINE
  5
12B
330
1F
100
AcDbEntity
  8
0
  6
HIDDEN
 62
     7
370
    18
100
AcDbLine
 10
3700.7613006087
 20
2402.5231744575
 30
0.0
 11
3700.7613006087
 21
3449.3246851832
 31
0.0
  0
LINE
  5
12C
330
1F
100
AcDbEntity
  8
0
  6
HIDDEN
 62
     7
370
    18
100
AcDbLine
 10
3939.7613006087
 20
2332.0768795685
 30
0.0
 11
3698.4613006087
 21
2332.0768795685
 31
0.0
  0
LINE
  5
12D
330
1F
100
AcDbEntity
  8
0
  6
HIDDEN
 62
     7
370
    18
100
AcDbLine
 10
3698.4613006087
 20
2332.0768795685
 30
0.0
 11
3698.4613006087
 21
2400.9295660682
 31
0.0
  0
LINE
  5
12E
330
1F
100
AcDbEntity
  8
0
  6
HIDDEN
 62
     7
370
    18
100
AcDbLine
 10
3700.7613006087
 20
2333.3246851832
 30
0.0
 11
3700.7613006087
 21
2402.5231744575
 31
0.0
  0
LINE
  5
12F
330
1F
100
AcDbEntity
  8
0
  6
HIDDEN
 62
     7
370
    18
100
AcDbLine
 10
4550.7613006087
 20
2333.3246851832
 30
0.0
 11
4550.7613006087
 21
2402.5231744575
 31
0.0
  0
LINE
  5
130
330
1F
100
AcDbEntity
  8
0
  6
HIDDEN
 62
     7
370
    18
100
AcDbLine
 10
3700.7613006087
 20
3483.3246851832
 30
0.0
 11
4550.7613006087
 21
3483.3246851832
 31
0.0
  0
LINE
  5
131
330
1F
100
AcDbEntity
  8
0
  6
HIDDEN
 62
     7
370
    18
100
AcDbLine
 10
3698.4613006087
 20
3484.9246851832
 30
0.0
 11
4553.0613006087
 21
3484.9246851832
 31
0.0
  0
LINE
  5
132
330
1F
100
AcDbEntity
  8
0
  6
HIDDEN
 62
     7
370
    18
100
AcDbLine
 10
3698.4613006087
 20
3536.3246851832
 30
0.0
 11
4603.7613006087
 21
3536.3246851832
 31
0.0
  0
LINE
  5
133
330
1F
100
AcDbEntity
  8
0
  6
HIDDEN
 62
     7
370
    18
100
AcDbLine
 10
4603.7613006087
 20
3536.3246851832
 30
0.0
 11
4603.7613006087
 21
2969.0246851832
 31
0.0
  0
LINE
  5
134
330
1F
100
AcDbEntity
  8
0
  6
HIDDEN
 62
     7
370
    18
100
AcDbLine
 10
4603.7613006087
 20
2301.3246851832
 30
0.0
 11
4603.7613006087
 21
2295.3246851832
 31
0.0
  0
LINE
  5
135
330
1F
100
AcDbEntity
  8
0
  6
HIDDEN
 62
     7
370
    18
100
AcDbLine
 10
4559.7613006087
 20
2280.3246851832
 30
0.0
 11
3647.7613006087
 21
2280.3246851832
 31
0.0
  0
LINE
  5
136
330
1F
100
AcDbEntity
  8
0
  6
HIDDEN
 62
     7
370
    18
100
AcDbLine
 10
3647.7613006087
 20
2280.3246851832
 30
0.0
 11
3647.7613006087
 21
2731.8246851832
 31
0.0
  0
CIRCLE
  5
137
330
1F
100
AcDbEntity
  8
0
  6
HIDDEN
 62
     7
370
    18
100
AcDbCircle
 10
3825.7613006087
 20
3516.3246851832
 30
0.0
 40
5.999999999999545
  0
CIRCLE
  5
138
330
1F
100
AcDbEntity
  8
0
  6
HIDDEN
 62
     7
370
    18
100
AcDbCircle
 10
4025.7613006087
 20
3516.3246851832
 30
0.0
 40
6.000000000000455
  0
CIRCLE
  5
139
330
1F
100
AcDbEntity
  8
0
  6
HIDDEN
 62
     7
370
    18
100
AcDbCircle
 10
4583.7613006087
 20
3008.3246851832
 30
0.0
 40
6.0
  0
CIRCLE
  5
13A
330
1F
100
AcDbEntity
  8
0
  6
HIDDEN
 62
     7
370
    18
100
AcDbCircle
 10
4583.7613006087
 20
3208.3246851832
 30
0.0
 40
6.0
  0
CIRCLE
  5
13B
330
1F
100
AcDbEntity
  8
0
  6
HIDDEN
 62
     7
370
    18
100
AcDbCircle
 10
4583.7613006087
 20
3408.3246851832
 30
0.0
 40
6.0
  0
CIRCLE
  5
13C
330
1F
100
AcDbEntity
  8
0
  6
HIDDEN
 62
     7
370
    18
100
AcDbCircle
 10
4225.7613006087
 20
3516.3246851832
 30
0.0
 40
6.0
  0
CIRCLE
  5
13D
330
1F
100
AcDbEntity
  8
0
  6
HIDDEN
 62
     7
370
    18
100
AcDbCircle
 10
4425.7613006087
 20
3516.3246851832
 30
0.0
 40
6.0
  0
CIRCLE
  5
13E
330
1F
100
AcDbEntity
  8
0
  6
HIDDEN
 62
     7
370
    18
100
AcDbCircle
 10
4583.7613006087
 20
3516.3246851832
 30
0.0
 40
6.0
  0
ARC
  5
13F
330
1F
100
AcDbEntity
  8
0
  6
HIDDEN
 62
     7
370
    18
100
AcDbCircle
 10
4583.7613006087
 20
2300.3246851832
 30
0.0
 40
6.000000000000174
100
AcDbArc
 50
303.5573097619
 51
0.0
  0
ARC
  5
140
330
1F
100
AcDbEntity
  8
0
  6
HIDDEN
 62
     7
370
    18
100
AcDbCircle
 10
4583.7613006087
 20
2300.3246851832
 30
0.0
 40
6.000000000000174
100
AcDbArc
 50
170.4059317731
 51
236.4426902381
  0
LINE
  5
141
330
1F
100
AcDbEntity
  8
0
  6
HIDDEN
 62
     7
370
    18
100
AcDbLine
 10
4589.6773803918
 20
2301.3246851832
 30
0.0
 11
4589.7613006087
 21
2300.3246851832
 31
0.0
  0
ARC
  5
142
330
1F
100
AcDbEntity
  8
0
  6
HIDDEN
 62
     7
370
    18
100
AcDbCircle
 10
4425.7613006087
 20
2300.3246851832
 30
0.0
 40
6.000000000000485
100
AcDbArc
 50
170.4059317731
 51
9.5940682269
  0
ARC
  5
143
330
1F
100
AcDbEntity
  8
0
  6
HIDDEN
 62
     7
370
    18
100
AcDbCircle
 10
4225.7613006087
 20
2300.3246851832
 30
0.0
 40
6.000000000000485
100
AcDbArc
 50
170.4059317731
 51
9.5940682269
  0
CIRCLE
  5
144
330
1F
100
AcDbEntity
  8
0
  6
HIDDEN
 62
     7
370
    18
100
AcDbCircle
 10
3667.7613006087
 20
2608.3246851832
 30
0.0
 40
6.000000000000455
  0
CIRCLE
  5
145
330
1F
100
AcDbEntity
  8
0
  6
HIDDEN
 62
     7
370
    18
100
AcDbCircle
 10
3667.7613006087
 20
2408.3246851832
 30
0.0
 40
6.000000000000455
  0
ARC
  5
146
330
1F
100
AcDbEntity
  8
0
  6
HIDDEN
 62
     7
370
    18
100
AcDbCircle
 10
4025.7613006087
 20
2300.3246851832
 30
0.0
 40
5.999999999999885
100
AcDbArc
 50
170.4059317731
 51
9.5940682269
  0
CIRCLE
  5
147
330
1F
100
AcDbEntity
  8
0
  6
HIDDEN
 62
     7
370
    18
100
AcDbCircle
 10
3825.7613006087
 20
2300.3246851832
 30
0.0
 40
5.999999999999545
  0
CIRCLE
  5
148
330
1F
100
AcDbEntity
  8
0
  6
HIDDEN
 62
     7
370
    18
100
AcDbCircle
 10
3667.7613006087
 20
2300.3246851832
 30
0.0
 40
6.000000000000455
  0
LINE
  5
149
330
1F
100
AcDbEntity
  8
0
  6
HIDDEN
 62
     7
370
    18
100
AcDbLine
 10
3700.7613006087
 20
2333.3246851832
 30
0.0
 11
4550.7613006087
 21
2333.3246851832
 31
0.0
  0
LINE
  5
14A
330
1F
100
AcDbEntity
  8
0
  6
HIDDEN
 62
     7
370
    18
100
AcDbLine
 10
3383.2613006087
 20
2512.3246851832
 30
0.0
 11
3425.7613006087
 21
2512.3246851832
 31
0.0
  0
LINE
  5
14B
330
1F
100
AcDbEntity
  8
0
  6
HIDDEN
 62
     7
370
    18
100
AcDbLine
 10
3425.7613006087
 20
2560.3246851832
 30
0.0
 11
3383.2613006087
 21
2560.3246851832
 31
0.0
  0
LINE
  5
14C
330
1F
100
AcDbEntity
  8
0
  6
HIDDEN
 62
     7
370
    18
100
AcDbLine
 10
3308.2613006087
 20
2423.8246851832
 30
0.0
 11
3383.2613006087
 21
2423.8246851832
 31
0.0
  0
LINE
  5
14D
330
1F
100
AcDbEntity
  8
0
  6
HIDDEN
 62
     7
370
    18
100
AcDbLine
 10
3383.2613006087
 20
2648.8246851832
 30
0.0
 11
3308.2613006087
 21
2648.8246851832
 31
0.0
  0
LINE
  5
14E
330
1F
100
AcDbEntity
  8
0
  6
HIDDEN
 62
     7
370
    18
100
AcDbLine
 10
3308.2613006087
 20
3306.3246851832
 30
0.0
 11
3383.2613006087
 21
3306.3246851832
 31
0.0
  0
LINE
  5
14F
330
1F
100
AcDbEntity
  8
0
  6
HIDDEN
 62
     7
370
    18
100
AcDbLine
 10
3383.2613006087
 20
3756.3246851832
 30
0.0
 11
3308.2613006087
 21
3756.3246851832
 31
0.0
  0
LINE
  5
150
330
1F
100
AcDbEntity
  8
0
  6
HIDDEN
 62
     7
370
    18
100
AcDbLine
 10
4597.7613006087
 20
2176.3246851832
 30
0.0
 11
4597.7613006087
 21
2182.3246851832
 31
0.0
  0
LINE
  5
151
330
1F
100
AcDbEntity
  8
0
  6
HIDDEN
 62
     7
370
    18
100
AcDbLine
 10
4579.7613006087
 20
2182.3246851832
 30
0.0
 11
4579.7613006087
 21
2176.3246851832
 31
0.0
  0
LINE
  5
152
330
1F
100
AcDbEntity
  8
0
  6
HIDDEN
 62
     7
370
    18
100
AcDbLine
 10
3477.7613006087
 20
2176.3246851832
 30
0.0
 11
3477.7613006087
 21
2182.3246851832
 31
0.0
  0
LINE
  5
153
330
1F
100
AcDbEntity
  8
0
  6
HIDDEN
 62
     7
370
    18
100
AcDbLine
 10
3459.7613006087
 20
2182.3246851832
 30
0.0
 11
3459.7613006087
 21
2176.3246851832
 31
0.0
  0
LINE
  5
154
330
1F
100
AcDbEntity
  8
0
  6
HIDDEN
 62
     7
370
    18
100
AcDbLine
 10
4653.7613006087
 20
3444.6372646469
 30
0.0
 11
4651.4613006087
 21
3444.6372646469
 31
0.0
  0
LINE
  5
155
330
1F
100
AcDbEntity
  8
0
  6
HIDDEN
 62
     7
370
    18
100
AcDbLine
 10
4651.4613006087
 20
3432.6372646469
 30
0.0
 11
4653.7613006087
 21
3432.6372646469
 31
0.0
  0
LINE
  5
156
330
1F
100
AcDbEntity
  8
0
  6
HIDDEN
 62
     7
370
    18
100
AcDbLine
 10
4653.7613006087
 20
3630.0121057195
 30
0.0
 11
4651.4613006087
 21
3630.0121057195
 31
0.0
  0
LINE
  5
157
330
1F
100
AcDbEntity
  8
0
  6
HIDDEN
 62
     7
370
    18
100
AcDbLine
 10
4651.4613006087
 20
3618.0121057195
 30
0.0
 11
4653.7613006087
 21
3618.0121057195
 31
0.0
  0
LINE
  5
158
330
1F
100
AcDbEntity
  8
0
  6
HIDDEN
 62
     7
370
    18
100
AcDbLine
 10
4550.7613006087
 20
2971.3246851832
 30
0.0
 11
4653.7613006087
 21
2971.3246851832
 31
0.0
  0
LINE
  5
159
330
1F
100
AcDbEntity
  8
0
  6
HIDDEN
 62
     7
370
    18
100
AcDbLine
 10
4653.7613006087
 20
4091.3246851832
 30
0.0
 11
4550.7613006087
 21
4091.3246851832
 31
0.0
  0
LINE
  5
15A
330
1F
100
AcDbEntity
  8
0
  6
HIDDEN
 62
     7
370
    18
100
AcDbLine
 10
4653.7613006087
 20
3268.3353140875
 30
0.0
 11
4651.4613006087
 21
3268.3353140875
 31
0.0
  0
LINE
  5
15B
330
1F
100
AcDbEntity
  8
0
  6
HIDDEN
 62
     7
370
    18
100
AcDbLine
 10
4651.4613006087
 20
3256.3353140875
 30
0.0
 11
4653.7613006087
 21
3256.3353140875
 31
0.0
  0
LINE
  5
15C
330
1F
100
AcDbEntity
  8
0
  6
HIDDEN
 62
     7
370
    18
100
AcDbLine
 10
4653.7613006087
 20
3806.3140562789
 30
0.0
 11
4651.4613006087
 21
3806.3140562789
 31
0.0
  0
LINE
  5
15D
330
1F
100
AcDbEntity
  8
0
  6
HIDDEN
 62
     7
370
    18
100
AcDbLine
 10
4651.4613006087
 20
3794.3140562789
 30
0.0
 11
4653.7613006087
 21
3794.3140562789
 31
0.0
  0
LINE
  5
15E
330
1F
100
AcDbEntity
  8
0
  6
HIDDEN
 62
     7
370
    18
100
AcDbLine
 10
4653.7613006087
 20
3118.3639173302
 30
0.0
 11
4651.4613006087
 21
3118.3639173302
 31
0.0
  0
LINE
  5
15F
330
1F
100
AcDbEntity
  8
0
  6
HIDDEN
 62
     7
370
    18
100
AcDbLine
 10
4651.4613006087
 20
3106.3639173302
 30
0.0
 11
4653.7613006087
 21
3106.3639173302
 31
0.0
  0
LINE
  5
160
330
1F
100
AcDbEntity
  8
0
  6
HIDDEN
 62
     7
370
    18
100
AcDbLine
 10
4653.7613006087
 20
3956.2854530362
 30
0.0
 11
4651.4613006087
 21
3956.2854530362
 31
0.0
  0
LINE
  5
161
330
1F
100
AcDbEntity
  8
0
  6
HIDDEN
 62
     7
370
    18
100
AcDbLine
 10
4651.4613006087
 20
3944.2854530362
 30
0.0
 11
4653.7613006087
 21
3944.2854530362
 31
0.0
  0
LINE
  5
162
330
1F
100
AcDbEntity
  8
0
  6
HIDDEN
 62
     7
370
    18
100
AcDbLine
 10
4653.7613006087
 20
4065.2460507648
 30
0.0
 11
4651.4613006087
 21
4065.2460507648
 31
0.0
  0
LINE
  5
163
330
1F
100
AcDbEntity
  8
0
  6
HIDDEN
 62
     7
370
    18
100
AcDbLine
 10
4651.4613006087
 20
4053.2460507648
 30
0.0
 11
4653.7613006087
 21
4053.2460507648
 31
0.0
  0
LINE
  5
164
330
1F
100
AcDbEntity
  8
0
  6
HIDDEN
 62
     7
370
    18
100
AcDbLine
 10
4653.7613006087
 20
3009.4033196016
 30
0.0
 11
4651.4613006087
 21
3009.4033196016
 31
0.0
  0
LINE
  5
165
330
1F
100
AcDbEntity
  8
0
  6
HIDDEN
 62
     7
370
    18
100
AcDbLine
 10
4651.4613006087
 20
2997.4033196016
 30
0.0
 11
4653.7613006087
 21
2997.4033196016
 31
0.0
  0
LINE
  5
166
330
1F
100
AcDbEntity
  8
0
  6
HIDDEN
 62
     7
370
    18
100
AcDbLine
 10
4653.7613006087
 20
2952.1193433806
 30
0.0
 11
4651.4613006087
 21
2952.1193433806
 31
0.0
  0
LINE
  5
167
330
1F
100
AcDbEntity
  8
0
  6
HIDDEN
 62
     7
370
    18
100
AcDbLine
 10
4651.4613006087
 20
2940.1193433806
 30
0.0
 11
4653.7613006087
 21
2940.1193433806
 31
0.0
  0
LINE
  5
168
330
1F
100
AcDbEntity
  8
0
  6
HIDDEN
 62
     7
370
    18
100
AcDbLine
 10
4653.7613006087
 20
4122.5300269858
 30
0.0
 11
4651.4613006087
 21
4122.5300269858
 31
0.0
  0
LINE
  5
169
330
1F
100
AcDbEntity
  8
0
  6
HIDDEN
 62
     7
370
    18
100
AcDbLine
 10
4651.4613006087
 20
4110.5300269858
 30
0.0
 11
4653.7613006087
 21
4110.5300269858
 31
0.0
  0
LINE
  5
16A
330
1F
100
AcDbEntity
  8
2
100
AcDbLine
 10
3575.1219665816
 20
3531.3246851832
 30
0.0
 11
4345.6782065253
 21
3531.3246851832
 31
0.0
  0
LINE
  5
16B
330
1F
100
AcDbEntity
  8
2
100
AcDbLine
 10
4125.7613006087
 20
3708.0264508891
 30
0.0
 11
4125.7613006087
 21
2631.3414331431
 31
0.0
  0
LINE
  5
16C
330
1F
100
AcDbEntity
  8
2
100
AcDbLine
 10
4587.8210181248
 20
2908.3246851832
 30
0.0
 11
3664.0913051009
 21
2908.3246851832
 31
0.0
  0
LINE
  5
16D
330
1F
100
AcDbEntity
  8
1
100
AcDbLine
 10
778.6855484025
 20
5480.1579896578
 30
0.0
 11
778.6855484025
 21
5320.1579896578
 31
0.0
  0
LINE
  5
16E
330
1F
100
AcDbEntity
  8
1
100
AcDbLine
 10
2716.1855484025
 20
5320.1579896578
 30
0.0
 11
2716.1855484025
 21
5480.1579896578
 31
0.0
  0
LINE
  5
16F
330
1F
100
AcDbEntity
  8
1
100
AcDbLine
 10
2699.1855484025
 20
5547.6579896578
 30
0.0
 11
2699.1855484025
 21
6102.6579896578
 31
0.0
  0
LINE
  5
170
330
1F
100
AcDbEntity
  8
1
100
AcDbLine
 10
2308.1855484025
 20
6102.6579896578
 30
0.0
 11
2308.1855484025
 21
5547.6579896578
 31
0.0
  0
LINE
  5
171
330
1F
100
AcDbEntity
  8
1
100
AcDbLine
 10
2527.6855484025
 20
5480.1579896578
 30
0.0
 11
2527.6855484025
 21
5547.6579896578
 31
0.0
  0
LINE
  5
172
330
1F
100
AcDbEntity
  8
1
100
AcDbLine
 10
2479.6855484025
 20
5547.6579896578
 30
0.0
 11
2479.6855484025
 21
5480.1579896578
 31
0.0
  0
LINE
  5
173
330
1F
100
AcDbEntity
  8
1
100
AcDbLine
 10
493.6855484025
 20
6708.1579896578
 30
0.0
 11
493.6855484025
 21
6705.8579896578
 31
0.0
  0
LINE
  5
174
330
1F
100
AcDbEntity
  8
1
100
AcDbLine
 10
1713.6855484025
 20
6705.8579896578
 30
0.0
 11
1713.6855484025
 21
6708.1579896578
 31
0.0
  0
LINE
  5
175
330
1F
100
AcDbEntity
  8
1
100
AcDbLine
 10
1713.6855484025
 20
6607.4579896578
 30
0.0
 11
1713.6855484025
 21
6615.1579896578
 31
0.0
  0
LINE
  5
176
330
1F
100
AcDbEntity
  8
1
100
AcDbLine
 10
493.6855484025
 20
6615.1579896578
 30
0.0
 11
493.6855484025
 21
6607.4579896578
 31
0.0
  0
LINE
  5
177
330
1F
100
AcDbEntity
  8
1
100
AcDbLine
 10
541.3855484025
 20
6705.8579896578
 30
0.0
 11
541.3855484025
 21
6615.1579896578
 31
0.0
  0
LINE
  5
178
330
1F
100
AcDbEntity
  8
1
100
AcDbLine
 10
1665.9855484025
 20
6615.1579896578
 30
0.0
 11
1665.9855484025
 21
6705.8579896578
 31
0.0
  0
LINE
  5
179
330
1F
100
AcDbEntity
  8
1
100
AcDbLine
 10
1308.9081972195
 20
5320.1579896578
 30
0.0
 11
778.6855484025
 21
5320.1579896578
 31
0.0
  0
LINE
  5
17A
330
1F
100
AcDbEntity
  8
1
100
AcDbLine
 10
1308.9081972195
 20
5480.1579896578
 30
0.0
 11
778.6855484025
 21
5480.1579896578
 31
0.0
  0
LINE
  5
17B
330
1F
100
AcDbEntity
  8
1
100
AcDbLine
 10
2637.8695880136
 20
5320.1579896578
 30
0.0
 11
1308.9081972195
 21
5320.1579896578
 31
0.0
  0
LINE
  5
17C
330
1F
100
AcDbEntity
  8
1
100
AcDbLine
 10
2637.8695880136
 20
5480.1579896578
 30
0.0
 11
1308.9081972195
 21
5480.1579896578
 31
0.0
  0
LINE
  5
17D
330
1F
100
AcDbEntity
  8
1
100
AcDbLine
 10
2716.1855484025
 20
5320.1579896578
 30
0.0
 11
2637.8695880136
 21
5320.1579896578
 31
0.0
  0
LINE
  5
17E
330
1F
100
AcDbEntity
  8
1
100
AcDbLine
 10
2716.1855484025
 20
5480.1579896578
 30
0.0
 11
2637.8695880136
 21
5480.1579896578
 31
0.0
  0
LINE
  5
17F
330
1F
100
AcDbEntity
  8
1
100
AcDbLine
 10
2308.1855484025
 20
5547.6579896578
 30
0.0
 11
2699.1855484025
 21
5547.6579896578
 31
0.0
  0
LINE
  5
180
330
1F
100
AcDbEntity
  8
1
100
AcDbLine
 10
2699.1855484025
 20
6102.6579896578
 30
0.0
 11
2308.1855484025
 21
6102.6579896578
 31
0.0
  0
LINE
  5
181
330
1F
100
AcDbEntity
  8
1
100
AcDbLine
 10
2278.6855484025
 20
5994.1579896578
 30
0.0
 11
2308.1855484025
 21
5994.1579896578
 31
0.0
  0
LINE
  5
182
330
1F
100
AcDbEntity
  8
1
100
AcDbLine
 10
2699.1855484025
 20
5994.1579896578
 30
0.0
 11
2728.6855484025
 21
5994.1579896578
 31
0.0
  0
LINE
  5
183
330
1F
100
AcDbEntity
  8
1
100
AcDbLine
 10
2728.6855484025
 20
5584.1579896578
 30
0.0
 11
2699.1855484025
 21
5584.1579896578
 31
0.0
  0
LINE
  5
184
330
1F
100
AcDbEntity
  8
1
100
AcDbLine
 10
2308.1855484025
 20
5584.1579896578
 30
0.0
 11
2278.6855484025
 21
5584.1579896578
 31
0.0
  0
LINE
  5
185
330
1F
100
AcDbEntity
  8
1
100
AcDbLine
 10
2278.6855484025
 20
5584.1579896578
 30
0.0
 11
2278.6855484025
 21
5994.1579896578
 31
0.0
  0
LINE
  5
186
330
1F
100
AcDbEntity
  8
1
100
AcDbLine
 10
2728.6855484025
 20
5994.1579896578
 30
0.0
 11
2728.6855484025
 21
5584.1579896578
 31
0.0
  0
LINE
  5
187
330
1F
100
AcDbEntity
  8
1
100
AcDbLine
 10
2803.6855484025
 20
6673.1579896578
 30
0.0
 11
2803.6855484025
 21
5493.1579896578
 31
0.0
  0
LINE
  5
188
330
1F
100
AcDbEntity
  8
1
100
AcDbLine
 10
2803.6855484025
 20
5493.1579896578
 30
0.0
 11
2527.6855484025
 21
5493.1579896578
 31
0.0
  0
LINE
  5
189
330
1F
100
AcDbEntity
  8
1
100
AcDbLine
 10
2479.6855484025
 20
5493.1579896578
 30
0.0
 11
443.6855484025
 21
5493.1579896578
 31
0.0
  0
LINE
  5
18A
330
1F
100
AcDbEntity
  8
1
100
AcDbLine
 10
443.6855484025
 20
6673.1579896578
 30
0.0
 11
541.3855484025
 21
6673.1579896578
 31
0.0
  0
LINE
  5
18B
330
1F
100
AcDbEntity
  8
1
100
AcDbLine
 10
1665.9855484025
 20
6673.1579896578
 30
0.0
 11
2803.6855484025
 21
6673.1579896578
 31
0.0
  0
LINE
  5
18C
330
1F
100
AcDbEntity
  8
1
100
AcDbLine
 10
1713.6855484025
 20
6608.1579896578
 30
0.0
 11
2738.6855484025
 21
6608.1579896578
 31
0.0
  0
LINE
  5
18D
330
1F
100
AcDbEntity
  8
1
100
AcDbLine
 10
508.6855484025
 20
5558.1579896578
 30
0.0
 11
508.6855484025
 21
5752.8579896578
 31
0.0
  0
LINE
  5
18E
330
1F
100
AcDbEntity
  8
1
100
AcDbLine
 10
2738.6855484025
 20
5558.1579896578
 30
0.0
 11
2699.1855484025
 21
5558.1579896578
 31
0.0
  0
LINE
  5
18F
330
1F
100
AcDbEntity
  8
1
100
AcDbLine
 10
2308.1855484025
 20
5558.1579896578
 30
0.0
 11
508.6855484025
 21
5558.1579896578
 31
0.0
  0
LINE
  5
190
330
1F
100
AcDbEntity
  8
1
100
AcDbLine
 10
2738.6855484025
 20
6608.1579896578
 30
0.0
 11
2738.6855484025
 21
5558.1579896578
 31
0.0
  0
LINE
  5
191
330
1F
100
AcDbEntity
  8
1
100
AcDbLine
 10
443.6855484025
 20
5493.1579896578
 30
0.0
 11
443.6855484025
 21
5752.8579896578
 31
0.0
  0
LINE
  5
192
330
1F
100
AcDbEntity
  8
1
100
AcDbLine
 10
443.6855484025
 20
6607.4579896578
 30
0.0
 11
443.6855484025
 21
6673.1579896578
 31
0.0
  0
LINE
  5
193
330
1F
100
AcDbEntity
  8
1
100
AcDbLine
 10
2074.2855484025
 20
5752.8579896578
 30
0.0
 11
2074.2855484025
 21
6607.4579896578
 31
0.0
  0
LINE
  5
194
330
1F
100
AcDbEntity
  8
1
100
AcDbLine
 10
2074.2855484025
 20
5752.8579896578
 30
0.0
 11
1185.6855484025
 21
5752.8579896578
 31
0.0
  0
LINE
  5
195
330
1F
100
AcDbEntity
  8
1
100
AcDbLine
 10
2074.2855484025
 20
6607.4579896578
 30
0.0
 11
1185.6855484025
 21
6607.4579896578
 31
0.0
  0
LINE
  5
196
330
1F
100
AcDbEntity
  8
1
100
AcDbLine
 10
1185.6855484025
 20
5752.8579896578
 30
0.0
 11
1172.1855484025
 21
5752.8579896578
 31
0.0
  0
LINE
  5
197
330
1F
100
AcDbEntity
  8
1
100
AcDbLine
 10
1185.6855484025
 20
6607.4579896578
 30
0.0
 11
1172.1855484025
 21
6607.4579896578
 31
0.0
  0
LINE
  5
198
330
1F
100
AcDbEntity
  8
1
100
AcDbLine
 10
1172.1855484025
 20
5752.8579896578
 30
0.0
 11
434.0855484025
 21
5752.8579896578
 31
0.0
  0
LINE
  5
199
330
1F
100
AcDbEntity
  8
1
100
AcDbLine
 10
434.0855484025
 20
5752.8579896578
 30
0.0
 11
434.0855484025
 21
6607.4579896578
 31
0.0
  0
LINE
  5
19A
330
1F
100
AcDbEntity
  8
1
100
AcDbLine
 10
1172.1855484025
 20
6607.4579896578
 30
0.0
 11
434.0855484025
 21
6607.4579896578
 31
0.0
  0
LINE
  5
19B
330
1F
100
AcDbEntity
  8
1
100
AcDbLine
 10
493.6855484025
 20
6705.8579896578
 30
0.0
 11
1713.6855484025
 21
6705.8579896578
 31
0.0
  0
LINE
  5
19C
330
1F
100
AcDbEntity
  8
1
100
AcDbLine
 10
493.6855484025
 20
6708.1579896578
 30
0.0
 11
1713.6855484025
 21
6708.1579896578
 31
0.0
  0
LINE
  5
19D
330
1F
100
AcDbEntity
  8
1
100
AcDbLine
 10
1713.6855484025
 20
6615.1579896578
 30
0.0
 11
493.6855484025
 21
6615.1579896578
 31
0.0
  0
LINE
  5
19E
330
1F
100
AcDbEntity
  8
1
100
AcDbLine
 10
347.6855484025
 20
6658.1579896578
 30
0.0
 11
343.6855484025
 21
6658.1579896578
 31
0.0
  0
LINE
  5
19F
330
1F
100
AcDbEntity
  8
1
100
AcDbLine
 10
347.6855484025
 20
5702.1579896578
 30
0.0
 11
347.6855484025
 21
6658.1579896578
 31
0.0
  0
LINE
  5
1A0
330
1F
100
AcDbEntity
  8
1
100
AcDbLine
 10
347.6855484025
 20
5702.1579896578
 30
0.0
 11
343.6855484025
 21
5702.1579896578
 31
0.0
  0
LINE
  5
1A1
330
1F
100
AcDbEntity
  8
1
100
AcDbLine
 10
343.6855484025
 20
5702.1579896578
 30
0.0
 11
343.6855484025
 21
6658.1579896578
 31
0.0
  0
LINE
  5
1A2
330
1F
100
AcDbEntity
  8
1
100
AcDbLine
 10
434.0855484025
 20
5752.8579896578
 30
0.0
 11
347.6855484025
 21
5752.8579896578
 31
0.0
  0
LINE
  5
1A3
330
1F
100
AcDbEntity
  8
1
100
AcDbLine
 10
434.0855484025
 20
6607.4579896578
 30
0.0
 11
347.6855484025
 21
6607.4579896578
 31
0.0
  0
LINE
  5
1A4
330
1F
100
AcDbEntity
  8
0
  6
HIDDEN
 62
     7
370
    18
100
AcDbLine
 10
2394.2494940146
 20
5627.1579896578
 30
0.0
 11
2408.9266438078
 21
5627.1579896578
 31
0.0
  0
LINE
  5
1A5
330
1F
100
AcDbEntity
  8
0
  6
HIDDEN
 62
     7
370
    18
100
AcDbLine
 10
2394.2494940146
 20
5627.1579896578
 30
0.0
 11
2394.2494940146
 21
5951.1579896578
 31
0.0
  0
LINE
  5
1A6
330
1F
100
AcDbEntity
  8
0
  6
HIDDEN
 62
     7
370
    18
100
AcDbLine
 10
2394.2494940146
 20
5951.1579896578
 30
0.0
 11
2408.9266438078
 21
5951.1579896578
 31
0.0
  0
LINE
  5
1A7
330
1F
100
AcDbEntity
  8
0
  6
HIDDEN
 62
     7
370
    18
100
AcDbLine
 10
2408.9266438078
 20
6102.6579896578
 30
0.0
 11
2408.9266438078
 21
5951.1579896578
 31
0.0
  0
LINE
  5
1A8
330
1F
100
AcDbEntity
  8
0
  6
HIDDEN
 62
     7
370
    18
100
AcDbLine
 10
2598.4444529973
 20
6102.6579896578
 30
0.0
 11
2598.4444529973
 21
5951.1579896578
 31
0.0
  0
LINE
  5
1A9
330
1F
100
AcDbEntity
  8
0
  6
HIDDEN
 62
     7
370
    18
100
AcDbLine
 10
2598.4444529973
 20
5951.1579896578
 30
0.0
 11
2613.1216027905
 21
5951.1579896578
 31
0.0
  0
LINE
  5
1AA
330
1F
100
AcDbEntity
  8
0
  6
HIDDEN
 62
     7
370
    18
100
AcDbLine
 10
2613.1216027905
 20
5951.1579896578
 30
0.0
 11
2613.1216027905
 21
5627.1579896578
 31
0.0
  0
LINE
  5
1AB
330
1F
100
AcDbEntity
  8
0
  6
HIDDEN
 62
     7
370
    18
100
AcDbLine
 10
2598.4444529973
 20
5627.1579896578
 30
0.0
 11
2613.1216027905
 21
5627.1579896578
 31
0.0
  0
LINE
  5
1AC
330
1F
100
AcDbEntity
  8
0
  6
HIDDEN
 62
     7
370
    18
100
AcDbLine
 10
2598.4444529973
 20
5627.1579896578
 30
0.0
 11
2598.4444529973
 21
5547.6579896578
 31
0.0
  0
LINE
  5
1AD
330
1F
100
AcDbEntity
  8
0
  6
HIDDEN
 62
     7
370
    18
100
AcDbLine
 10
2408.9266438078
 20
5627.1579896578
 30
0.0
 11
2408.9266438078
 21
5547.6579896578
 31
0.0
  0
LINE
  5
1AE
330
1F
100
AcDbEntity
  8
0
  6
HIDDEN
 62
     7
370
    18
100
AcDbLine
 10
2646.6855484025
 20
5627.1579896578
 30
0.0
 11
2613.1216027905
 21
5627.1579896578
 31
0.0
  0
LINE
  5
1AF
330
1F
100
AcDbEntity
  8
0
  6
HIDDEN
 62
     7
370
    18
100
AcDbLine
 10
2646.6855484025
 20
5951.1579896578
 30
0.0
 11
2613.1216027905
 21
5951.1579896578
 31
0.0
  0
LINE
  5
1B0
330
1F
100
AcDbEntity
  8
0
  6
HIDDEN
 62
     7
370
    18
100
AcDbLine
 10
2646.6855484025
 20
5627.1579896578
 30
0.0
 11
2646.6855484025
 21
5951.1579896578
 31
0.0
  0
LINE
  5
1B1
330
1F
100
AcDbEntity
  8
0
  6
HIDDEN
 62
     7
370
    18
100
AcDbLine
 10
2360.6855484025
 20
5627.1579896578
 30
0.0
 11
2360.6855484025
 21
5951.1579896578
 31
0.0
  0
LINE
  5
1B2
330
1F
100
AcDbEntity
  8
0
  6
HIDDEN
 62
     7
370
    18
100
AcDbLine
 10
2394.2494940146
 20
5951.1579896578
 30
0.0
 11
2360.6855484025
 21
5951.1579896578
 31
0.0
  0
LINE
  5
1B3
330
1F
100
AcDbEntity
  8
0
  6
HIDDEN
 62
     7
370
    18
100
AcDbLine
 10
2394.2494940146
 20
5627.1579896578
 30
0.0
 11
2360.6855484025
 21
5627.1579896578
 31
0.0
  0
LINE
  5
1B4
330
1F
100
AcDbEntity
  8
0
  6
HIDDEN
 62
     7
370
    18
100
AcDbLine
 10
2408.9266438078
 20
5951.1579896578
 30
0.0
 11
2598.4444529973
 21
5951.1579896578
 31
0.0
  0
LINE
  5
1B5
330
1F
100
AcDbEntity
  8
0
  6
HIDDEN
 62
     7
370
    18
100
AcDbLine
 10
2408.9266438078
 20
5627.1579896578
 30
0.0
 11
2598.4444529973
 21
5627.1579896578
 31
0.0
  0
LINE
  5
1B6
330
1F
100
AcDbEntity
  8
0
  6
HIDDEN
 62
     7
370
    18
100
AcDbLine
 10
2308.1855484025
 20
5994.1579896578
 30
0.0
 11
2699.1855484025
 21
5994.1579896578
 31
0.0
  0
LINE
  5
1B7
330
1F
100
AcDbEntity
  8
0
  6
HIDDEN
 62
     7
370
    18
100
AcDbLine
 10
2699.1855484025
 20
5584.1579896578
 30
0.0
 11
2308.1855484025
 21
5584.1579896578
 31
0.0
  0
LINE
  5
1B8
330
1F
100
AcDbEntity
  8
0
  6
HIDDEN
 62
     7
370
    18
100
AcDbLine
 10
2391.1855484025
 20
5362.6579896578
 30
0.0
 11
2616.1855484025
 21
5362.6579896578
 31
0.0
  0
LINE
  5
1B9
330
1F
100
AcDbEntity
  8
0
  6
HIDDEN
 62
     7
370
    18
100
AcDbLine
 10
2391.1855484025
 20
5437.6579896578
 30
0.0
 11
2616.1855484025
 21
5437.6579896578
 31
0.0
  0
LINE
  5
1BA
330
1F
100
AcDbEntity
  8
0
  6
HIDDEN
 62
     7
370
    18
100
AcDbLine
 10
1130.398699203
 20
5362.6579896578
 30
0.0
 11
1328.6855484025
 21
5362.6579896578
 31
0.0
  0
LINE
  5
1BB
330
1F
100
AcDbEntity
  8
0
  6
HIDDEN
 62
     7
370
    18
100
AcDbLine
 10
878.6855484025
 20
5362.6579896578
 30
0.0
 11
1130.398699203
 21
5362.6579896578
 31
0.0
  0
LINE
  5
1BC
330
1F
100
AcDbEntity
  8
0
  6
HIDDEN
 62
     7
370
    18
100
AcDbLine
 10
1130.398699203
 20
5437.6579896578
 30
0.0
 11
1328.6855484025
 21
5437.6579896578
 31
0.0
  0
LINE
  5
1BD
330
1F
100
AcDbEntity
  8
0
  6
HIDDEN
 62
     7
370
    18
100
AcDbLine
 10
878.6855484025
 20
5437.6579896578
 30
0.0
 11
1130.398699203
 21
5437.6579896578
 31
0.0
  0
LINE
  5
1BE
330
1F
100
AcDbEntity
  8
0
  6
HIDDEN
 62
     7
370
    18
100
AcDbLine
 10
2527.6855484025
 20
5493.1579896578
 30
0.0
 11
2479.6855484025
 21
5493.1579896578
 31
0.0
  0
LINE
  5
1BF
330
1F
100
AcDbEntity
  8
0
  6
HIDDEN
 62
     7
370
    18
100
AcDbLine
 10
541.3855484025
 20
6673.1579896578
 30
0.0
 11
1665.9855484025
 21
6673.1579896578
 31
0.0
  0
LINE
  5
1C0
330
1F
100
AcDbEntity
  8
0
  6
HIDDEN
 62
     7
370
    18
100
AcDbLine
 10
508.6855484025
 20
6608.1579896578
 30
0.0
 11
1713.6855484025
 21
6608.1579896578
 31
0.0
  0
LINE
  5
1C1
330
1F
100
AcDbEntity
  8
0
  6
HIDDEN
 62
     7
370
    18
100
AcDbLine
 10
508.6855484025
 20
5752.8579896578
 30
0.0
 11
508.6855484025
 21
6608.1579896578
 31
0.0
  0
LINE
  5
1C2
330
1F
100
AcDbEntity
  8
0
  6
HIDDEN
 62
     7
370
    18
100
AcDbLine
 10
2699.1855484025
 20
5558.1579896578
 30
0.0
 11
2308.1855484025
 21
5558.1579896578
 31
0.0
  0
LINE
  5
1C3
330
1F
100
AcDbEntity
  8
0
  6
HIDDEN
 62
     7
370
    18
100
AcDbLine
 10
443.6855484025
 20
5752.8579896578
 30
0.0
 11
443.6855484025
 21
6607.4579896578
 31
0.0
  0
LINE
  5
1C4
330
1F
100
AcDbEntity
  8
0
  6
HIDDEN
 62
     7
370
    18
100
AcDbLine
 10
502.6855484025
 20
6614.1579896578
 30
0.0
 11
2744.6855484025
 21
6614.1579896578
 31
0.0
  0
LINE
  5
1C5
330
1F
100
AcDbEntity
  8
0
  6
HIDDEN
 62
     7
370
    18
100
AcDbLine
 10
2744.6855484025
 20
6614.1579896578
 30
0.0
 11
2744.6855484025
 21
5552.1579896578
 31
0.0
  0
LINE
  5
1C6
330
1F
100
AcDbEntity
  8
0
  6
HIDDEN
 62
     7
370
    18
100
AcDbLine
 10
502.6855484025
 20
5552.1579896578
 30
0.0
 11
502.6855484025
 21
6614.1579896578
 31
0.0
  0
LINE
  5
1C7
330
1F
100
AcDbEntity
  8
0
  6
HIDDEN
 62
     7
370
    18
100
AcDbLine
 10
2744.6855484025
 20
5552.1579896578
 30
0.0
 11
502.6855484025
 21
5552.1579896578
 31
0.0
  0
CIRCLE
  5
1C8
330
1F
100
AcDbEntity
  8
0
  6
HIDDEN
 62
     7
370
    18
100
AcDbCircle
 10
2703.6855484025
 20
6643.1579896578
 30
0.0
 40
9.00000000000091
  0
CIRCLE
  5
1C9
330
1F
100
AcDbEntity
  8
0
  6
HIDDEN
 62
     7
370
    18
100
AcDbCircle
 10
1983.6855484025
 20
6643.1579896578
 30
0.0
 40
9.00000000000091
  0
CIRCLE
  5
1CA
330
1F
100
AcDbEntity
  8
0
  6
HIDDEN
 62
     7
370
    18
100
AcDbCircle
 10
1263.6855484025
 20
6643.1579896578
 30
0.0
 40
9.00000000000091
  0
CIRCLE
  5
1CB
330
1F
100
AcDbEntity
  8
0
  6
HIDDEN
 62
     7
370
    18
100
AcDbCircle
 10
543.6855484025
 20
6643.1579896578
 30
0.0
 40
9.00000000000091
  0
CIRCLE
  5
1CC
330
1F
100
AcDbEntity
  8
0
  6
HIDDEN
 62
     7
370
    18
100
AcDbCircle
 10
543.6855484025
 20
5523.1579896578
 30
0.0
 40
9.0
  0
CIRCLE
  5
1CD
330
1F
100
AcDbEntity
  8
0
  6
HIDDEN
 62
     7
370
    18
100
AcDbCircle
 10
1263.6855484025
 20
5523.1579896578
 30
0.0
 40
9.0
  0
CIRCLE
  5
1CE
330
1F
100
AcDbEntity
  8
0
  6
HIDDEN
 62
     7
370
    18
100
AcDbCircle
 10
1983.6855484025
 20
5523.1579896578
 30
0.0
 40
9.00000000000091
  0
CIRCLE
  5
1CF
330
1F
100
AcDbEntity
  8
0
  6
HIDDEN
 62
     7
370
    18
100
AcDbCircle
 10
2703.6855484025
 20
5523.1579896578
 30
0.0
 40
9.0
  0
LINE
  5
1D0
330
1F
100
AcDbEntity
  8
0
  6
HIDDEN
 62
     7
370
    18
100
AcDbLine
 10
2072.6855484025
 20
5755.1579896578
 30
0.0
 11
1185.6855484025
 21
5755.1579896578
 31
0.0
  0
LINE
  5
1D1
330
1F
100
AcDbEntity
  8
0
  6
HIDDEN
 62
     7
370
    18
100
AcDbLine
 10
2072.6855484025
 20
5755.1579896578
 30
0.0
 11
2072.6855484025
 21
6605.1579896578
 31
0.0
  0
LINE
  5
1D2
330
1F
100
AcDbEntity
  8
0
  6
HIDDEN
 62
     7
370
    18
100
AcDbLine
 10
2072.6855484025
 20
6605.1579896578
 30
0.0
 11
1185.6855484025
 21
6605.1579896578
 31
0.0
  0
LINE
  5
1D3
330
1F
100
AcDbEntity
  8
0
  6
HIDDEN
 62
     7
370
    18
100
AcDbLine
 10
1185.6855484025
 20
6605.1579896578
 30
0.0
 11
1172.1855484025
 21
6605.1579896578
 31
0.0
  0
LINE
  5
1D4
330
1F
100
AcDbEntity
  8
0
  6
HIDDEN
 62
     7
370
    18
100
AcDbLine
 10
435.6855484025
 20
5755.1579896578
 30
0.0
 11
435.6855484025
 21
6605.1579896578
 31
0.0
  0
LINE
  5
1D5
330
1F
100
AcDbEntity
  8
0
  6
HIDDEN
 62
     7
370
    18
100
AcDbLine
 10
1172.1855484025
 20
5755.1579896578
 30
0.0
 11
435.6855484025
 21
5755.1579896578
 31
0.0
  0
LINE
  5
1D6
330
1F
100
AcDbEntity
  8
0
  6
HIDDEN
 62
     7
370
    18
100
AcDbLine
 10
1172.1855484025
 20
6605.1579896578
 30
0.0
 11
435.6855484025
 21
6605.1579896578
 31
0.0
  0
LINE
  5
1D7
330
1F
100
AcDbEntity
  8
0
  6
HIDDEN
 62
     7
370
    18
100
AcDbLine
 10
1185.6855484025
 20
5755.1579896578
 30
0.0
 11
1172.1855484025
 21
5755.1579896578
 31
0.0
  0
LINE
  5
1D8
330
1F
100
AcDbEntity
  8
0
  6
HIDDEN
 62
     7
370
    18
100
AcDbLine
 10
435.6855484025
 20
5755.1579896578
 30
0.0
 11
343.6855484025
 21
5755.1579896578
 31
0.0
  0
LINE
  5
1D9
330
1F
100
AcDbEntity
  8
0
  6
HIDDEN
 62
     7
370
    18
100
AcDbLine
 10
435.6855484025
 20
6605.1579896578
 30
0.0
 11
343.6855484025
 21
6605.1579896578
 31
0.0
  0
LINE
  5
1DA
330
1F
100
AcDbEntity
  8
0
  6
HIDDEN
 62
     7
370
    18
100
AcDbLine
 10
2527.6855484025
 20
5437.6579896578
 30
0.0
 11
2527.6855484025
 21
5480.1579896578
 31
0.0
  0
LINE
  5
1DB
330
1F
100
AcDbEntity
  8
0
  6
HIDDEN
 62
     7
370
    18
100
AcDbLine
 10
2479.6855484025
 20
5480.1579896578
 30
0.0
 11
2479.6855484025
 21
5437.6579896578
 31
0.0
  0
LINE
  5
1DC
330
1F
100
AcDbEntity
  8
0
  6
HIDDEN
 62
     7
370
    18
100
AcDbLine
 10
2616.1855484025
 20
5362.6579896578
 30
0.0
 11
2616.1855484025
 21
5437.6579896578
 31
0.0
  0
LINE
  5
1DD
330
1F
100
AcDbEntity
  8
0
  6
HIDDEN
 62
     7
370
    18
100
AcDbLine
 10
2391.1855484025
 20
5437.6579896578
 30
0.0
 11
2391.1855484025
 21
5362.6579896578
 31
0.0
  0
LINE
  5
1DE
330
1F
100
AcDbEntity
  8
0
  6
HIDDEN
 62
     7
370
    18
100
AcDbLine
 10
1328.6855484025
 20
5362.6579896578
 30
0.0
 11
1328.6855484025
 21
5437.6579896578
 31
0.0
  0
LINE
  5
1DF
330
1F
100
AcDbEntity
  8
0
  6
HIDDEN
 62
     7
370
    18
100
AcDbLine
 10
878.6855484025
 20
5437.6579896578
 30
0.0
 11
878.6855484025
 21
5362.6579896578
 31
0.0
  0
LINE
  5
1E0
330
1F
100
AcDbEntity
  8
0
  6
HIDDEN
 62
     7
370
    18
100
AcDbLine
 10
1190.3729689389
 20
6708.1579896578
 30
0.0
 11
1190.3729689389
 21
6705.8579896578
 31
0.0
  0
LINE
  5
1E1
330
1F
100
AcDbEntity
  8
0
  6
HIDDEN
 62
     7
370
    18
100
AcDbLine
 10
1202.3729689389
 20
6705.8579896578
 30
0.0
 11
1202.3729689389
 21
6708.1579896578
 31
0.0
  0
LINE
  5
1E2
330
1F
100
AcDbEntity
  8
0
  6
HIDDEN
 62
     7
370
    18
100
AcDbLine
 10
1004.9981278662
 20
6708.1579896578
 30
0.0
 11
1004.9981278662
 21
6705.8579896578
 31
0.0
  0
LINE
  5
1E3
330
1F
100
AcDbEntity
  8
0
  6
HIDDEN
 62
     7
370
    18
100
AcDbLine
 10
1016.9981278662
 20
6705.8579896578
 30
0.0
 11
1016.9981278662
 21
6708.1579896578
 31
0.0
  0
LINE
  5
1E4
330
1F
100
AcDbEntity
  8
0
  6
HIDDEN
 62
     7
370
    18
100
AcDbLine
 10
1663.6855484025
 20
6605.1579896578
 30
0.0
 11
1663.6855484025
 21
6708.1579896578
 31
0.0
  0
LINE
  5
1E5
330
1F
100
AcDbEntity
  8
0
  6
HIDDEN
 62
     7
370
    18
100
AcDbLine
 10
543.6855484025
 20
6708.1579896578
 30
0.0
 11
543.6855484025
 21
6605.1579896578
 31
0.0
  0
LINE
  5
1E6
330
1F
100
AcDbEntity
  8
0
  6
HIDDEN
 62
     7
370
    18
100
AcDbLine
 10
828.6961773069
 20
6708.1579896578
 30
0.0
 11
828.6961773069
 21
6705.8579896578
 31
0.0
  0
LINE
  5
1E7
330
1F
100
AcDbEntity
  8
0
  6
HIDDEN
 62
     7
370
    18
100
AcDbLine
 10
840.6961773069
 20
6705.8579896578
 30
0.0
 11
840.6961773069
 21
6708.1579896578
 31
0.0
  0
LINE
  5
1E8
330
1F
100
AcDbEntity
  8
0
  6
HIDDEN
 62
     7
370
    18
100
AcDbLine
 10
1366.6749194982
 20
6708.1579896578
 30
0.0
 11
1366.6749194982
 21
6705.8579896578
 31
0.0
  0
LINE
  5
1E9
330
1F
100
AcDbEntity
  8
0
  6
HIDDEN
 62
     7
370
    18
100
AcDbLine
 10
1378.6749194982
 20
6705.8579896578
 30
0.0
 11
1378.6749194982
 21
6708.1579896578
 31
0.0
  0
LINE
  5
1EA
330
1F
100
AcDbEntity
  8
0
  6
HIDDEN
 62
     7
370
    18
100
AcDbLine
 10
1516.6463162556
 20
6708.1579896578
 30
0.0
 11
1516.6463162556
 21
6705.8579896578
 31
0.0
  0
LINE
  5
1EB
330
1F
100
AcDbEntity
  8
0
  6
HIDDEN
 62
     7
370
    18
100
AcDbLine
 10
1528.6463162556
 20
6705.8579896578
 30
0.0
 11
1528.6463162556
 21
6708.1579896578
 31
0.0
  0
LINE
  5
1EC
330
1F
100
AcDbEntity
  8
0
  6
HIDDEN
 62
     7
370
    18
100
AcDbLine
 10
678.7247805495
 20
6708.1579896578
 30
0.0
 11
678.7247805495
 21
6705.8579896578
 31
0.0
  0
LINE
  5
1ED
330
1F
100
AcDbEntity
  8
0
  6
HIDDEN
 62
     7
370
    18
100
AcDbLine
 10
690.7247805495
 20
6705.8579896578
 30
0.0
 11
690.7247805495
 21
6708.1579896578
 31
0.0
  0
LINE
  5
1EE
330
1F
100
AcDbEntity
  8
0
  6
HIDDEN
 62
     7
370
    18
100
AcDbLine
 10
569.7641828209
 20
6708.1579896578
 30
0.0
 11
569.7641828209
 21
6705.8579896578
 31
0.0
  0
LINE
  5
1EF
330
1F
100
AcDbEntity
  8
0
  6
HIDDEN
 62
     7
370
    18
100
AcDbLine
 10
581.7641828209
 20
6705.8579896578
 30
0.0
 11
581.7641828209
 21
6708.1579896578
 31
0.0
  0
LINE
  5
1F0
330
1F
100
AcDbEntity
  8
0
  6
HIDDEN
 62
     7
370
    18
100
AcDbLine
 10
1625.6069139841
 20
6708.1579896578
 30
0.0
 11
1625.6069139841
 21
6705.8579896578
 31
0.0
  0
LINE
  5
1F1
330
1F
100
AcDbEntity
  8
0
  6
HIDDEN
 62
     7
370
    18
100
AcDbLine
 10
1637.6069139841
 20
6705.8579896578
 30
0.0
 11
1637.6069139841
 21
6708.1579896578
 31
0.0
  0
LINE
  5
1F2
330
1F
100
AcDbEntity
  8
0
  6
HIDDEN
 62
     7
370
    18
100
AcDbLine
 10
512.4802065999
 20
6708.1579896578
 30
0.0
 11
512.4802065999
 21
6705.8579896578
 31
0.0
  0
LINE
  5
1F3
330
1F
100
AcDbEntity
  8
0
  6
HIDDEN
 62
     7
370
    18
100
AcDbLine
 10
524.4802065999
 20
6705.8579896578
 30
0.0
 11
524.4802065999
 21
6708.1579896578
 31
0.0
  0
LINE
  5
1F4
330
1F
100
AcDbEntity
  8
0
  6
HIDDEN
 62
     7
370
    18
100
AcDbLine
 10
1682.8908902052
 20
6708.1579896578
 30
0.0
 11
1682.8908902052
 21
6705.8579896578
 31
0.0
  0
LINE
  5
1F5
330
1F
100
AcDbEntity
  8
0
  6
HIDDEN
 62
     7
370
    18
100
AcDbLine
 10
1694.8908902052
 20
6705.8579896578
 30
0.0
 11
1694.8908902052
 21
6708.1579896578
 31
0.0
  0
LINE
  5
1F6
330
1F
100
AcDbEntity
  8
0
  6
HIDDEN
 62
     7
370
    18
100
AcDbLine
 10
343.6855484025
 20
6632.1579896578
 30
0.0
 11
347.6855484025
 21
6632.1579896578
 31
0.0
  0
LINE
  5
1F7
330
1F
100
AcDbEntity
  8
0
  6
HIDDEN
 62
     7
370
    18
100
AcDbLine
 10
347.6855484025
 20
6644.1579896578
 30
0.0
 11
343.6855484025
 21
6644.1579896578
 31
0.0
  0
LINE
  5
1F8
330
1F
100
AcDbEntity
  8
0
  6
HIDDEN
 62
     7
370
    18
100
AcDbLine
 10
343.6855484025
 20
6474.1579896578
 30
0.0
 11
347.6855484025
 21
6474.1579896578
 31
0.0
  0
LINE
  5
1F9
330
1F
100
AcDbEntity
  8
0
  6
HIDDEN
 62
     7
370
    18
100
AcDbLine
 10
347.6855484025
 20
6486.1579896578
 30
0.0
 11
343.6855484025
 21
6486.1579896578
 31
0.0
  0
LINE
  5
1FA
330
1F
100
AcDbEntity
  8
0
  6
HIDDEN
 62
     7
370
    18
100
AcDbLine
 10
343.6855484025
 20
6274.1579896578
 30
0.0
 11
347.6855484025
 21
6274.1579896578
 31
0.0
  0
LINE
  5
1FB
330
1F
100
AcDbEntity
  8
0
  6
HIDDEN
 62
     7
370
    18
100
AcDbLine
 10
347.6855484025
 20
6286.1579896578
 30
0.0
 11
343.6855484025
 21
6286.1579896578
 31
0.0
  0
LINE
  5
1FC
330
1F
100
AcDbEntity
  8
0
  6
HIDDEN
 62
     7
370
    18
100
AcDbLine
 10
343.6855484025
 20
6074.1579896578
 30
0.0
 11
347.6855484025
 21
6074.1579896578
 31
0.0
  0
LINE
  5
1FD
330
1F
100
AcDbEntity
  8
0
  6
HIDDEN
 62
     7
370
    18
100
AcDbLine
 10
347.6855484025
 20
6086.1579896578
 30
0.0
 11
343.6855484025
 21
6086.1579896578
 31
0.0
  0
LINE
  5
1FE
330
1F
100
AcDbEntity
  8
0
  6
HIDDEN
 62
     7
370
    18
100
AcDbLine
 10
343.6855484025
 20
5874.1579896578
 30
0.0
 11
347.6855484025
 21
5874.1579896578
 31
0.0
  0
LINE
  5
1FF
330
1F
100
AcDbEntity
  8
0
  6
HIDDEN
 62
     7
370
    18
100
AcDbLine
 10
347.6855484025
 20
5886.1579896578
 30
0.0
 11
343.6855484025
 21
5886.1579896578
 31
0.0
  0
LINE
  5
200
330
1F
100
AcDbEntity
  8
0
  6
HIDDEN
 62
     7
370
    18
100
AcDbLine
 10
343.6855484025
 20
5716.1579896578
 30
0.0
 11
347.6855484025
 21
5716.1579896578
 31
0.0
  0
LINE
  5
201
330
1F
100
AcDbEntity
  8
0
  6
HIDDEN
 62
     7
370
    18
100
AcDbLine
 10
347.6855484025
 20
5728.1579896578
 30
0.0
 11
343.6855484025
 21
5728.1579896578
 31
0.0
  0
CIRCLE
  5
202
330
1F
100
AcDbEntity
  8
基礎穴
100
AcDbCircle
 10
543.6855484025
 20
5523.1579896578
 30
0.0
 40
8.999999999999714
  0
CIRCLE
  5
203
330
1F
100
AcDbEntity
  8
基礎穴
100
AcDbCircle
 10
1263.6855484025
 20
5523.1579896578
 30
0.0
 40
8.999999999999872
  0
CIRCLE
  5
204
330
1F
100
AcDbEntity
  8
基礎穴
100
AcDbCircle
 10
1983.6855484025
 20
5523.1579896578
 30
0.0
 40
9.000000000000089
  0
CIRCLE
  5
205
330
1F
100
AcDbEntity
  8
基礎穴
100
AcDbCircle
 10
2703.6855484025
 20
5523.1579896578
 30
0.0
 40
8.999999999999437
  0
CIRCLE
  5
206
330
1F
100
AcDbEntity
  8
基礎穴
100
AcDbCircle
 10
2703.6855484025
 20
6643.1579896578
 30
0.0
 40
8.999999999999872
  0
CIRCLE
  5
207
330
1F
100
AcDbEntity
  8
基礎穴
100
AcDbCircle
 10
1983.6855484025
 20
6643.1579896578
 30
0.0
 40
9.000000000000089
  0
CIRCLE
  5
208
330
1F
100
AcDbEntity
  8
基礎穴
100
AcDbCircle
 10
1263.6855484025
 20
6643.1579896578
 30
0.0
 40
8.999999999999872
  0
CIRCLE
  5
209
330
1F
100
AcDbEntity
  8
基礎穴
100
AcDbCircle
 10
543.6855484025
 20
6643.1579896578
 30
0.0
 40
9.000000000000089
  0
LINE
  5
20A
330
1F
100
AcDbEntity
  8
2
100
AcDbLine
 10
1103.6855484025
 20
5636.7096699351
 30
0.0
 11
1103.6855484025
 21
6402.1247838104
 31
0.0
  0
LINE
  5
20B
330
1F
100
AcDbEntity
  8
2
100
AcDbLine
 10
1800.585936958
 20
6180.1579896578
 30
0.0
 11
892.6618892115
 21
6180.1579896578
 31
0.0
  0
ENDSEC
  0
SECTION
  2
OBJECTS
  0
DICTIONARY
  5
C
330
0
100
AcDbDictionary
281
     1
  3
ACAD_GROUP
350
D
  3
ACAD_LAYOUT
350
1A
  3
ACAD_MLINESTYLE
350
17
  3
ACAD_PLOTSETTINGS
350
19
  3
ACAD_PLOTSTYLENAME
350
E
  3
ACAD_SCALELIST
350
47
  3
DWGPROPS
350
20C
  0
DICTIONARY
  5
D
102
{ACAD_REACTORS
330
C
102
}
330
C
100
AcDbDictionary
281
     1
  0
DICTIONARY
  5
1A
102
{ACAD_REACTORS
330
C
102
}
330
C
100
AcDbDictionary
281
     1
  3
Layout1
350
1E
  3
Layout2
350
26
  3
Model
350
22
  0
DICTIONARY
  5
17
102
{ACAD_REACTORS
330
C
102
}
330
C
100
AcDbDictionary
281
     1
  3
Standard
350
18
  0
DICTIONARY
  5
19
102
{ACAD_REACTORS
330
C
102
}
330
C
100
AcDbDictionary
281
     1
  0
ACDBDICTIONARYWDFLT
  5
E
102
{ACAD_REACTORS
330
C
102
}
330
C
100
AcDbDictionary
281
     1
  3
Normal
350
F
100
AcDbDictionaryWithDefault
340
F
  0
DICTIONARY
  5
47
102
{ACAD_REACTORS
330
C
102
}
330
C
100
AcDbDictionary
281
     1
  3
A0
350
48
  3
A1
350
49
  3
A2
350
4A
  3
A3
350
4B
  3
A4
350
4C
  3
A5
350
4D
  3
A6
350
4E
  3
A7
350
4F
  3
A8
350
50
  3
A9
350
51
  3
B0
350
52
  3
B1
350
53
  3
B2
350
54
  3
B3
350
55
  3
B4
350
56
  3
B5
350
57
  3
B6
350
58
  0
XRECORD
  5
20C
102
{ACAD_REACTORS
330
C
102
}
330
C
100
AcDbXrecord
280
     1
  1
DWGPROPS COOKIE
  2

  3

  4

  6

  7

  8
yuta.kunimatsu
  9

300
=
301
=
302
=
303
=
304
=
305
=
306
=
307
=
308
=
309
=
 40
0.0
 41
2460151.200114144
 42
2460151.200114583
  1

 90
        0
  0
LAYOUT
  5
1E
102
{ACAD_REACTORS
330
1A
102
}
330
1A
100
AcDbPlotSettings
  1

  2
none_device
  4

  6

 40
0.0
 41
0.0
 42
0.0
 43
0.0
 44
0.0
 45
0.0
 46
0.0
 47
0.0
 48
0.0
 49
0.0
140
0.0
141
0.0
142
1.0
143
1.0
 70
   688
 72
     1
 73
     0
 74
     5
  7

 75
    16
147
1.0
148
0.0
149
0.0
100
AcDbLayout
  1
Layout1
 70
     1
 71
     1
 10
0.0
 20
0.0
 11
420.0
 21
297.0
 12
0.0
 22
0.0
 32
0.0
 14
1.0000000000E+20
 24
1.0000000000E+20
 34
1.0000000000E+20
 15
-1.0000000000E+20
 25
-1.0000000000E+20
 35
-1.0000000000E+20
146
0.0
 13
0.0
 23
0.0
 33
0.0
 16
1.0
 26
0.0
 36
0.0
 17
0.0
 27
1.0
 37
0.0
 76
     0
330
1B
  0
LAYOUT
  5
26
102
{ACAD_REACTORS
330
1A
102
}
330
1A
100
AcDbPlotSettings
  1

  2
none_device
  4

  6

 40
0.0
 41
0.0
 42
0.0
 43
0.0
 44
0.0
 45
0.0
 46
0.0
 47
0.0
 48
0.0
 49
0.0
140
0.0
141
0.0
142
1.0
143
1.0
 70
   688
 72
     1
 73
     0
 74
     5
  7

 75
    16
147
1.0
148
0.0
149
0.0
100
AcDbLayout
  1
Layout2
 70
     1
 71
     2
 10
0.0
 20
0.0
 11
0.0
 21
0.0
 12
0.0
 22
0.0
 32
0.0
 14
0.0
 24
0.0
 34
0.0
 15
0.0
 25
0.0
 35
0.0
146
0.0
 13
0.0
 23
0.0
 33
0.0
 16
1.0
 26
0.0
 36
0.0
 17
0.0
 27
1.0
 37
0.0
 76
     0
330
23
  0
LAYOUT
  5
22
102
{ACAD_REACTORS
330
1A
102
}
330
1A
100
AcDbPlotSettings
  1

  2
none_device
  4
Letter_(8.50_x_11.00_Inches)
  6

 40
6.35
 41
6.35
 42
6.35000508
 43
6.35000508
 44
215.9
 45
279.4
 46
0.0
 47
0.0
 48
0.0
 49
0.0
140
0.0
141
0.0
142
1.0
143
1.0
 70
  1712
 72
     1
 73
     0
 74
     0
  7

 75
     0
147
1.0
148
0.0
149
0.0
100
AcDbLayout
  1
Model
 70
     1
 71
     0
 10
0.0
 20
0.0
 11
5250.0
 21
7425.0
 12
0.0
 22
0.0
 32
0.0
 14
0.0
 24
0.0
 34
0.0
 15
5250.0
 25
7425.0
 35
0.0
146
0.0
 13
0.0
 23
0.0
 33
0.0
 16
1.0
 26
0.0
 36
0.0
 17
0.0
 27
1.0
 37
0.0
 76
     0
330
1F
331
29
  0
MLINESTYLE
  5
18
102
{ACAD_REACTORS
330
17
102
}
330
17
100
AcDbMlineStyle
  2
Standard
 70
     0
  3

 62
   256
 51
90.0
 52
90.0
 71
     2
 49
0.5
 62
   256
  6
BYLAYER
 49
-0.5
 62
   256
  6
BYLAYER
  0
ACDBPLACEHOLDER
  5
F
102
{ACAD_REACTORS
330
E
102
}
330
E
  0
SCALE
  5
48
102
{ACAD_REACTORS
330
47
102
}
330
47
100
AcDbScale
 70
     0
300
1:1
140
1.0
141
1.0
290
     1
  0
SCALE
  5
49
102
{ACAD_REACTORS
330
47
102
}
330
47
100
AcDbScale
 70
     0
300
1:2
140
1.0
141
2.0
290
     0
  0
SCALE
  5
4A
102
{ACAD_REACTORS
330
47
102
}
330
47
100
AcDbScale
 70
     0
300
1:4
140
1.0
141
4.0
290
     0
  0
SCALE
  5
4B
102
{ACAD_REACTORS
330
47
102
}
330
47
100
AcDbScale
 70
     0
300
1:5
140
1.0
141
5.0
290
     0
  0
SCALE
  5
4C
102
{ACAD_REACTORS
330
47
102
}
330
47
100
AcDbScale
 70
     0
300
1:8
140
1.0
141
8.0
290
     0
  0
SCALE
  5
4D
102
{ACAD_REACTORS
330
47
102
}
330
47
100
AcDbScale
 70
     0
300
1:10
140
1.0
141
10.0
290
     0
  0
SCALE
  5
4E
102
{ACAD_REACTORS
330
47
102
}
330
47
100
AcDbScale
 70
     0
300
1:16
140
1.0
141
16.0
290
     0
  0
SCALE
  5
4F
102
{ACAD_REACTORS
330
47
102
}
330
47
100
AcDbScale
 70
     0
300
1:20
140
1.0
141
20.0
290
     0
  0
SCALE
  5
50
102
{ACAD_REACTORS
330
47
102
}
330
47
100
AcDbScale
 70
     0
300
1:30
140
1.0
141
30.0
290
     0
  0
SCALE
  5
51
102
{ACAD_REACTORS
330
47
102
}
330
47
100
AcDbScale
 70
     0
300
1:40
140
1.0
141
40.0
290
     0
  0
SCALE
  5
52
102
{ACAD_REACTORS
330
47
102
}
330
47
100
AcDbScale
 70
     0
300
1:50
140
1.0
141
50.0
290
     0
  0
SCALE
  5
53
102
{ACAD_REACTORS
330
47
102
}
330
47
100
AcDbScale
 70
     0
300
1:100
140
1.0
141
100.0
290
     0
  0
SCALE
  5
54
102
{ACAD_REACTORS
330
47
102
}
330
47
100
AcDbScale
 70
     0
300
2:1
140
2.0
141
1.0
290
     0
  0
SCALE
  5
55
102
{ACAD_REACTORS
330
47
102
}
330
47
100
AcDbScale
 70
     0
300
4:1
140
4.0
141
1.0
290
     0
  0
SCALE
  5
56
102
{ACAD_REACTORS
330
47
102
}
330
47
100
AcDbScale
 70
     0
300
8:1
140
8.0
141
1.0
290
     0
  0
SCALE
  5
57
102
{ACAD_REACTORS
330
47
102
}
330
47
100
AcDbScale
 70
     0
300
10:1
140
10.0
141
1.0
290
     0
  0
SCALE
  5
58
102
{ACAD_REACTORS
330
47
102
}
330
47
100
AcDbScale
 70
     0
300
100:1
140
100.0
141
1.0
290
     0
  0
ENDSEC
  0
EOF
