  0
SECTION
  2
HEADER
  9
$ACADVER
  1
AC1015
  9
$ACADMAINTVER
 70
     6
  9
$DWGCODEPAGE
  3
DOS932
  9
$INSBASE
 10
0.0
 20
0.0
 30
0.0
  9
$EXTMIN
 10
0.0
 20
0.0
 30
0.0
  9
$EXTMAX
 10
4200.0
 20
5940.0
 30
0.0
  9
$LIMMIN
 10
0.0
 20
0.0
  9
$LIMMAX
 10
4200.0
 20
5940.0
  9
$ORTHOMODE
 70
     0
  9
$REGENMODE
 70
     1
  9
$FILLMODE
 70
     1
  9
$QTEXTMODE
 70
     0
  9
$MIRRTEXT
 70
     1
  9
$LTSCALE
 40
20.0
  9
$ATTMODE
 70
     1
  9
$TEXTSIZE
 40
70.5555555556
  9
$TRACEWID
 40
1.0
  9
$TEXTSTYLE
  7
Standard
  9
$CLAYER
  8
0
  9
$CELTYPE
  6
ByLayer
  9
$CECOLOR
 62
   256
  9
$CELTSCALE
 40
1.0
  9
$DISPSILH
 70
     0
  9
$DIMSCALE
 40
1.0
  9
$DIMASZ
 40
30.0
  9
$DIMEXO
 40
20.0
  9
$DIMDLI
 40
3.75
  9
$DIMRND
 40
0.0
  9
$DIMDLE
 40
0.0
  9
$DIMEXE
 40
20.0
  9
$DIMTP
 40
0.0
  9
$DIMTM
 40
0.0
  9
$DIMTXT
 40
70.5555555556
  9
$DIMCEN
 40
2.5
  9
$DIMTSZ
 40
0.0
  9
$DIMTOL
 70
     0
  9
$DIMLIM
 70
     0
  9
$DIMTIH
 70
     1
  9
$DIMTOH
 70
     1
  9
$DIMSE1
 70
     0
  9
$DIMSE2
 70
     0
  9
$DIMTAD
 70
     1
  9
$DIMZIN
 70
     0
  9
$DIMBLK
  1

  9
$DIMASO
 70
     1
  9
$DIMSHO
 70
     1
  9
$DIMPOST
  1

  9
$DIMAPOST
  1

  9
$DIMALT
 70
     0
  9
$DIMALTD
 70
     3
  9
$DIMALTF
 40
0.0393700787
  9
$DIMLFAC
 40
1.0
  9
$DIMTOFL
 70
     1
  9
$DIMTVP
 40
0.0
  9
$DIMTIX
 70
     0
  9
$DIMSOXD
 70
     0
  9
$DIMSAH
 70
     0
  9
$DIMBLK1
  1

  9
$DIMBLK2
  1

  9
$DIMSTYLE
  2
ISO-25
  9
$DIMCLRD
 70
     0
  9
$DIMCLRE
 70
     0
  9
$DIMCLRT
 70
     0
  9
$DIMTFAC
 40
1.0
  9
$DIMGAP
 40
30.48
  9
$DIMJUST
 70
     0
  9
$DIMSD1
 70
     0
  9
$DIMSD2
 70
     0
  9
$DIMTOLJ
 70
     0
  9
$DIMTZIN
 70
     0
  9
$DIMALTZ
 70
     0
  9
$DIMALTTZ
 70
     0
  9
$DIMUPT
 70
     0
  9
$DIMDEC
 70
     0
  9
$DIMTDEC
 70
     0
  9
$DIMALTU
 70
     2
  9
$DIMALTTD
 70
     3
  9
$DIMTXSTY
  7
Standard
  9
$DIMAUNIT
 70
     0
  9
$DIMADEC
 70
     2
  9
$DIMALTRND
 40
0.0
  9
$DIMAZIN
 70
     0
  9
$DIMDSEP
 70
    44
  9
$DIMATFIT
 70
     3
  9
$DIMFRAC
 70
     0
  9
$DIMLDRBLK
  1

  9
$DIMLUNIT
 70
     2
  9
$DIMLWD
 70
    -2
  9
$DIMLWE
 70
    -2
  9
$DIMTMOVE
 70
     0
  9
$LUNITS
 70
     2
  9
$LUPREC
 70
     2
  9
$SKETCHINC
 40
1.0
  9
$FILLETRAD
 40
0.0
  9
$AUNITS
 70
     0
  9
$AUPREC
 70
     2
  9
$MENU
  1
.
  9
$ELEVATION
 40
0.0
  9
$PELEVATION
 40
0.0
  9
$THICKNESS
 40
0.0
  9
$LIMCHECK
 70
     0
  9
$CHAMFERA
 40
0.0
  9
$CHAMFERB
 40
0.0
  9
$CHAMFERC
 40
0.0
  9
$CHAMFERD
 40
0.0
  9
$SKPOLY
 70
     0
  9
$TDCREATE
 40
2460174.790719711
  9
$TDUCREATE
 40
2460174.415719711
  9
$TDUPDATE
 40
2460174.790722685
  9
$TDUUPDATE
 40
2460174.415722685
  9
$TDINDWG
 40
0.0000000116
  9
$TDUSRTIMER
 40
0.0000000116
  9
$USRTIMER
 70
     1
  9
$ANGBASE
 50
0.0
  9
$ANGDIR
 70
     0
  9
$PDMODE
 70
     0
  9
$PDSIZE
 40
-1.0
  9
$PLINEWID
 40
0.0
  9
$SPLFRAME
 70
     0
  9
$SPLINETYPE
 70
     6
  9
$SPLINESEGS
 70
     8
  9
$HANDSEED
  5
23B
  9
$SURFTAB1
 70
     6
  9
$SURFTAB2
 70
     6
  9
$SURFTYPE
 70
     6
  9
$SURFU
 70
     6
  9
$SURFV
 70
     6
  9
$UCSBASE
  2

  9
$UCSNAME
  2

  9
$UCSORG
 10
0.0
 20
0.0
 30
0.0
  9
$UCSXDIR
 10
1.0
 20
0.0
 30
0.0
  9
$UCSYDIR
 10
0.0
 20
1.0
 30
0.0
  9
$UCSORTHOREF
  2

  9
$UCSORTHOVIEW
 70
     0
  9
$UCSORGTOP
 10
0.0
 20
0.0
 30
0.0
  9
$UCSORGBOTTOM
 10
0.0
 20
0.0
 30
0.0
  9
$UCSORGLEFT
 10
0.0
 20
0.0
 30
0.0
  9
$UCSORGRIGHT
 10
0.0
 20
0.0
 30
0.0
  9
$UCSORGFRONT
 10
0.0
 20
0.0
 30
0.0
  9
$UCSORGBACK
 10
0.0
 20
0.0
 30
0.0
  9
$PUCSBASE
  2

  9
$PUCSNAME
  2

  9
$PUCSORG
 10
0.0
 20
0.0
 30
0.0
  9
$PUCSXDIR
 10
1.0
 20
0.0
 30
0.0
  9
$PUCSYDIR
 10
0.0
 20
1.0
 30
0.0
  9
$PUCSORTHOREF
  2

  9
$PUCSORTHOVIEW
 70
     0
  9
$PUCSORGTOP
 10
0.0
 20
0.0
 30
0.0
  9
$PUCSORGBOTTOM
 10
0.0
 20
0.0
 30
0.0
  9
$PUCSORGLEFT
 10
0.0
 20
0.0
 30
0.0
  9
$PUCSORGRIGHT
 10
0.0
 20
0.0
 30
0.0
  9
$PUCSORGFRONT
 10
0.0
 20
0.0
 30
0.0
  9
$PUCSORGBACK
 10
0.0
 20
0.0
 30
0.0
  9
$USERI1
 70
     0
  9
$USERI2
 70
     0
  9
$USERI3
 70
     0
  9
$USERI4
 70
     0
  9
$USERI5
 70
     0
  9
$USERR1
 40
0.0
  9
$USERR2
 40
0.0
  9
$USERR3
 40
0.0
  9
$USERR4
 40
0.0
  9
$USERR5
 40
0.0
  9
$WORLDVIEW
 70
     1
  9
$SHADEDGE
 70
     3
  9
$SHADEDIF
 70
    70
  9
$TILEMODE
 70
     1
  9
$MAXACTVP
 70
    64
  9
$PINSBASE
 10
0.0
 20
0.0
 30
0.0
  9
$PLIMCHECK
 70
     0
  9
$PEXTMIN
 10
1.0000000000E+20
 20
1.0000000000E+20
 30
1.0000000000E+20
  9
$PEXTMAX
 10
-1.0000000000E+20
 20
-1.0000000000E+20
 30
-1.0000000000E+20
  9
$PLIMMIN
 10
0.0
 20
0.0
  9
$PLIMMAX
 10
420.0
 20
297.0
  9
$UNITMODE
 70
     0
  9
$VISRETAIN
 70
     1
  9
$PLINEGEN
 70
     0
  9
$PSLTSCALE
 70
     1
  9
$TREEDEPTH
 70
  3020
  9
$CMLSTYLE
  2
Standard
  9
$CMLJUST
 70
     0
  9
$CMLSCALE
 40
20.0
  9
$PROXYGRAPHICS
 70
     1
  9
$MEASUREMENT
 70
     1
  9
$CELWEIGHT
370
    -1
  9
$ENDCAPS
280
     0
  9
$JOINSTYLE
280
     0
  9
$LWDISPLAY
290
     1
  9
$INSUNITS
 70
     4
  9
$HYPERLINKBASE
  1

  9
$STYLESHEET
  1

  9
$XEDIT
290
     1
  9
$CEPSNTYPE
380
     0
  9
$PSTYLEMODE
290
     1
  9
$FINGERPRINTGUID
  2
{27e54f69-3b58-40eb-a1f2-dabef56f3ee5}
  9
$VERSIONGUID
  2
{FAEB1C32-E019-11D5-929B-00C0DF256EC4}
  9
$EXTNAMES
290
     1
  9
$PSVPSCALE
 40
0.0
  9
$OLESTARTUP
290
     0
  0
ENDSEC
  0
SECTION
  2
CLASSES
  0
CLASS
  1
ACDBDICTIONARYWDFLT
  2
AcDbDictionaryWithDefault
  3
ObjectDBX Classes
 90
        0
280
     0
281
     0
  0
CLASS
  1
VISUALSTYLE
  2
AcDbVisualStyle
  3
ObjectDBX Classes
 90
     4095
280
     0
281
     0
  0
CLASS
  1
MATERIAL
  2
AcDbMaterial
  3
ObjectDBX Classes
 90
     1153
280
     0
281
     0
  0
CLASS
  1
SCALE
  2
AcDbScale
  3
ObjectDBX Classes
 90
     1153
280
     0
281
     0
  0
CLASS
  1
TABLESTYLE
  2
AcDbTableStyle
  3
ObjectDBX Classes
 90
     4095
280
     0
281
     0
  0
CLASS
  1
MLEADERSTYLE
  2
AcDbMLeaderStyle
  3
ACDB_MLEADERSTYLE_CLASS
 90
     4095
280
     0
281
     0
  0
CLASS
  1
SUN
  2
AcDbSun
  3
SCENEOE
 90
     1153
280
     0
281
     0
  0
CLASS
  1
ACDBPLACEHOLDER
  2
AcDbPlaceHolder
  3
ObjectDBX Classes
 90
        0
280
     0
281
     0
  0
CLASS
  1
LAYOUT
  2
AcDbLayout
  3
ObjectDBX Classes
 90
        0
280
     0
281
     0
  0
ENDSEC
  0
SECTION
  2
TABLES
  0
TABLE
  2
VPORT
  5
8
330
0
100
AcDbSymbolTable
 70
     1
  0
VPORT
  5
29
330
8
100
AcDbSymbolTableRecord
100
AcDbViewportTableRecord
  2
*Active
 70
     0
 10
0.0
 20
0.0
 11
1.0
 21
1.0
 12
2100.0
 22
2970.0
 13
0.0
 23
0.0
 14
10.0
 24
10.0
 15
10.0
 25
10.0
 16
0.0
 26
0.0
 36
1.0
 17
0.0
 27
0.0
 37
0.0
 40
5940.0
 41
0.7070707071
 42
50.0
 43
0.0
 44
0.0
 50
0.0
 51
0.0
 71
     0
 72
  2000
 73
     1
 74
     3
 75
     0
 76
     0
 77
     0
 78
     0
281
     0
 65
     1
110
0.0
120
0.0
130
0.0
111
1.0
121
0.0
131
0.0
112
0.0
122
1.0
132
0.0
 79
     0
146
0.0
  0
ENDTAB
  0
TABLE
  2
LTYPE
  5
5
330
0
100
AcDbSymbolTable
 70
     6
  0
LTYPE
  5
14
330
5
100
AcDbSymbolTableRecord
100
AcDbLinetypeTableRecord
  2
ByBlock
 70
     0
  3

 72
    65
 73
     0
 40
0.0
  0
LTYPE
  5
15
330
5
100
AcDbSymbolTableRecord
100
AcDbLinetypeTableRecord
  2
ByLayer
 70
     0
  3

 72
    65
 73
     0
 40
0.0
  0
LTYPE
  5
16
330
5
100
AcDbSymbolTableRecord
100
AcDbLinetypeTableRecord
  2
Continuous
 70
     0
  3
Solid line
 72
    65
 73
     0
 40
0.0
  0
LTYPE
  5
5E
330
5
100
AcDbSymbolTableRecord
100
AcDbLinetypeTableRecord
  2
HIDDEN
 70
     0
  3
Hidden __ __ __ __ __ __ __ __ __ __ __ __ __ __
 72
    65
 73
     2
 40
1.905
 49
1.27
 74
     0
 49
-0.635
 74
     0
  0
LTYPE
  5
5F
330
5
100
AcDbSymbolTableRecord
100
AcDbLinetypeTableRecord
  2
PHANTOM
 70
     0
  3
Phantom ______  __  __  ______  __  __  ______
 72
    65
 73
     6
 40
12.7
 49
6.35
 74
     0
 49
-1.27
 74
     0
 49
1.27
 74
     0
 49
-1.27
 74
     0
 49
1.27
 74
     0
 49
-1.27
 74
     0
  0
LTYPE
  5
60
330
5
100
AcDbSymbolTableRecord
100
AcDbLinetypeTableRecord
  2
CENTER
 70
     0
  3
Center ____ _ ____ _ ____ _ ____ _ ____ _ ____
 72
    65
 73
     4
 40
10.16
 49
6.35
 74
     0
 49
-1.27
 74
     0
 49
1.27
 74
     0
 49
-1.27
 74
     0
  0
LTYPE
  5
61
330
5
100
AcDbSymbolTableRecord
100
AcDbLinetypeTableRecord
  2
CENTERX2
 70
     0
  3
Center (2x) ________  __  ________  __  _____
 72
    65
 73
     4
 40
20.32
 49
12.7
 74
     0
 49
-2.54
 74
     0
 49
2.54
 74
     0
 49
-2.54
 74
     0
  0
LTYPE
  5
62
330
5
100
AcDbSymbolTableRecord
100
AcDbLinetypeTableRecord
  2
DOT2
 70
     0
  3
Dot (.5x) ........................................
 72
    65
 73
     2
 40
0.635
 49
0.0
 74
     0
 49
-0.635
 74
     0
  0
ENDTAB
  0
TABLE
  2
LAYER
  5
2
330
0
100
AcDbSymbolTable
 70
     6
  0
LAYER
  5
10
330
2
100
AcDbSymbolTableRecord
100
AcDbLayerTableRecord
  2
0
 70
     0
 62
     7
  6
Continuous
370
    -3
390
F
  0
LAYER
  5
63
330
2
100
AcDbSymbolTableRecord
100
AcDbLayerTableRecord
  2
1
 70
     0
 62
     4
  6
Continuous
370
    25
390
F
  0
LAYER
  5
64
330
2
100
AcDbSymbolTableRecord
100
AcDbLayerTableRecord
  2
2
 70
     0
 62
     3
  6
CENTERX2
370
    -3
390
F
  0
LAYER
  5
65
330
2
100
AcDbSymbolTableRecord
100
AcDbLayerTableRecord
  2
3
 70
     0
 62
     2
  6
Continuous
370
    -3
390
F
  0
LAYER
  5
66
330
2
100
AcDbSymbolTableRecord
100
AcDbLayerTableRecord
  2
4
 70
     0
 62
     7
  6
Continuous
370
    -3
390
F
  0
LAYER
  5
67
330
2
100
AcDbSymbolTableRecord
100
AcDbLayerTableRecord
  2
基礎穴
 70
     0
 62
     1
  6
PHANTOM
370
    35
390
F
  0
ENDTAB
  0
TABLE
  2
STYLE
  5
3
330
0
100
AcDbSymbolTable
 70
     2
  0
STYLE
  5
11
330
3
100
AcDbSymbolTableRecord
100
AcDbTextStyleTableRecord
  2
Standard
 70
     0
 40
0.0
 41
1.0
 50
0.0
 71
     0
 42
70.5555555556
  3
txt
  4
bigfont
  0
STYLE
  5
68
330
3
100
AcDbSymbolTableRecord
100
AcDbTextStyleTableRecord
  2
SLDTEXTSTYLE0
 70
     0
 40
0.0
 41
0.7
 50
0.0
 71
     0
 42
70.5555555556
  3
TXT
  4
bigfont
  0
ENDTAB
  0
TABLE
  2
VIEW
  5
6
330
0
100
AcDbSymbolTable
 70
     0
  0
ENDTAB
  0
TABLE
  2
UCS
  5
7
330
0
100
AcDbSymbolTable
 70
     0
  0
ENDTAB
  0
TABLE
  2
APPID
  5
9
330
0
100
AcDbSymbolTable
 70
     1
  0
APPID
  5
12
330
9
100
AcDbSymbolTableRecord
100
AcDbRegAppTableRecord
  2
ACAD
 70
     0
  0
ENDTAB
  0
TABLE
  2
DIMSTYLE
  5
A
330
0
100
AcDbSymbolTable
 70
     1
100
AcDbDimStyleTable
  0
DIMSTYLE
105
27
330
A
100
AcDbSymbolTableRecord
100
AcDbDimStyleTableRecord
  2
ISO-25
 70
     0
 41
2.5
 42
0.625
 43
3.75
 44
1.25
 73
     0
 74
     0
 77
     1
 78
     8
140
2.5
141
2.5
143
0.0393700787
147
0.625
171
     3
172
     1
178
     0
271
     2
272
     2
274
     3
278
    44
283
     0
284
     8
340
11
  0
ENDTAB
  0
TABLE
  2
BLOCK_RECORD
  5
1
330
0
100
AcDbSymbolTable
 70
     2
  0
BLOCK_RECORD
  5
1F
330
1
100
AcDbSymbolTableRecord
100
AcDbBlockTableRecord
  2
*Model_Space
340
22
  0
BLOCK_RECORD
  5
1B
330
1
100
AcDbSymbolTableRecord
100
AcDbBlockTableRecord
  2
*Paper_Space
340
1E
  0
BLOCK_RECORD
  5
23
330
1
100
AcDbSymbolTableRecord
100
AcDbBlockTableRecord
  2
*Paper_Space0
340
26
  0
BLOCK_RECORD
  5
E4
330
1
100
AcDbSymbolTableRecord
100
AcDbBlockTableRecord
  2
SW_CENTERMARKSYMBOL_0
340
0
102
{BLKREFS
331
EF
102
}
  0
ENDTAB
  0
ENDSEC
  0
SECTION
  2
BLOCKS
  0
BLOCK
  5
20
330
1F
100
AcDbEntity
  8
0
100
AcDbBlockBegin
  2
*Model_Space
 70
     0
 10
0.0
 20
0.0
 30
0.0
  3
*Model_Space
  1

  0
ENDBLK
  5
21
330
1F
100
AcDbEntity
  8
0
100
AcDbBlockEnd
  0
BLOCK
  5
1C
330
1B
100
AcDbEntity
 67
     1
  8
0
100
AcDbBlockBegin
  2
*Paper_Space
 70
     0
 10
0.0
 20
0.0
 30
0.0
  3
*Paper_Space
  1

  0
ENDBLK
  5
1D
330
1B
100
AcDbEntity
 67
     1
  8
0
100
AcDbBlockEnd
  0
BLOCK
  5
24
330
23
100
AcDbEntity
  8
0
100
AcDbBlockBegin
  2
*Paper_Space0
 70
     0
 10
0.0
 20
0.0
 30
0.0
  3
*Paper_Space0
  1

  0
ENDBLK
  5
25
330
23
100
AcDbEntity
  8
0
100
AcDbBlockEnd
  0
BLOCK
  5
E5
330
E4
100
AcDbEntity
  8
0
100
AcDbBlockBegin
  2
SW_CENTERMARKSYMBOL_0
 70
     0
 10
0.0
 20
0.0
 30
0.0
  3
SW_CENTERMARKSYMBOL_0
  1

  0
LINE
  5
E7
330
E4
100
AcDbEntity
  8
2
 62
     0
100
AcDbLine
 10
0.0
 20
0.0
 30
0.0
 11
0.0
 21
2.5
 31
0.0
  0
LINE
  5
E8
330
E4
100
AcDbEntity
  8
2
 62
     0
100
AcDbLine
 10
0.0
 20
0.0
 30
0.0
 11
-2.5
 21
0.0
 31
0.0
  0
LINE
  5
E9
330
E4
100
AcDbEntity
  8
2
 62
     0
100
AcDbLine
 10
0.0
 20
0.0
 30
0.0
 11
0.0
 21
-2.5
 31
0.0
  0
LINE
  5
EA
330
E4
100
AcDbEntity
  8
2
 62
     0
100
AcDbLine
 10
0.0
 20
0.0
 30
0.0
 11
2.5
 21
0.0
 31
0.0
  0
LINE
  5
EB
330
E4
100
AcDbEntity
  8
2
 62
     0
100
AcDbLine
 10
0.0
 20
5.0
 30
0.0
 11
0.0
 21
552.5
 31
0.0
  0
LINE
  5
EC
330
E4
100
AcDbEntity
  8
2
 62
     0
100
AcDbLine
 10
-5.0
 20
0.0
 30
0.0
 11
-552.5
 21
0.0
 31
0.0
  0
LINE
  5
ED
330
E4
100
AcDbEntity
  8
2
 62
     0
100
AcDbLine
 10
0.0
 20
-5.0
 30
0.0
 11
0.0
 21
-552.5
 31
0.0
  0
LINE
  5
EE
330
E4
100
AcDbEntity
  8
2
 62
     0
100
AcDbLine
 10
5.0
 20
0.0
 30
0.0
 11
552.5
 21
0.0
 31
0.0
  0
ENDBLK
  5
E6
330
E4
100
AcDbEntity
  8
0
100
AcDbBlockEnd
  0
ENDSEC
  0
SECTION
  2
ENTITIES
  0
MTEXT
  5
69
330
1F
100
AcDbEntity
  8
0
  6
Continuous
 62
     7
370
     0
100
AcDbMText
 10
3185.2943193105
 20
898.5643975978
 30
0.0
 40
52.9166666667
 41
0.0
 71
     1
 72
     1
  1
LL06040YS01K-R1
  7
SLDTEXTSTYLE0
 73
     1
 44
1.0
  0
LINE
  5
6A
330
1F
100
AcDbEntity
  8
1
100
AcDbLine
 10
2204.1698986101
 20
1385.6949531928
 30
0.0
 11
2204.1698986101
 21
1280.6949531928
 31
0.0
  0
LINE
  5
6B
330
1F
100
AcDbEntity
  8
1
100
AcDbLine
 10
2239.1698986101
 20
1280.6949531928
 30
0.0
 11
2239.1698986101
 21
1385.6949531928
 31
0.0
  0
LINE
  5
6C
330
1F
100
AcDbEntity
  8
1
100
AcDbLine
 10
214.1698986101
 20
1385.6949531928
 30
0.0
 11
214.1698986101
 21
1280.6949531928
 31
0.0
  0
LINE
  5
6D
330
1F
100
AcDbEntity
  8
1
100
AcDbLine
 10
249.1698986101
 20
1280.6949531928
 30
0.0
 11
249.1698986101
 21
1385.6949531928
 31
0.0
  0
ARC
  5
6E
330
1F
100
AcDbEntity
  8
1
100
AcDbCircle
 10
411.6698986101
 20
1745.6949531928
 30
0.0
 40
195.5
100
AcDbArc
 50
157.030998229
 51
202.969001771
  0
LINE
  5
6F
330
1F
100
AcDbEntity
  8
1
100
AcDbLine
 10
636.6698986101
 20
1510.6949531928
 30
0.0
 11
636.6698986101
 21
1515.1949531928
 31
0.0
  0
LINE
  5
70
330
1F
100
AcDbEntity
  8
1
100
AcDbLine
 10
186.6698986101
 20
1515.1949531928
 30
0.0
 11
186.6698986101
 21
1565.6949531928
 31
0.0
  0
LINE
  5
71
330
1F
100
AcDbEntity
  8
1
100
AcDbLine
 10
231.6698986101
 20
1565.6949531928
 30
0.0
 11
186.6698986101
 21
1565.6949531928
 31
0.0
  0
LINE
  5
72
330
1F
100
AcDbEntity
  8
1
100
AcDbLine
 10
231.6698986101
 20
1515.1949531928
 30
0.0
 11
1981.6698986101
 21
1515.1949531928
 31
0.0
  0
LINE
  5
73
330
1F
100
AcDbEntity
  8
1
100
AcDbLine
 10
231.6698986101
 20
1890.1949531928
 30
0.0
 11
231.6698986101
 21
1515.1949531928
 31
0.0
  0
LINE
  5
74
330
1F
100
AcDbEntity
  8
1
100
AcDbLine
 10
1606.6698986101
 20
2575.1949531928
 30
0.0
 11
231.6698986101
 21
1890.1949531928
 31
0.0
  0
LINE
  5
75
330
1F
100
AcDbEntity
  8
1
100
AcDbLine
 10
1981.6698986101
 20
2575.1949531928
 30
0.0
 11
1606.6698986101
 21
2575.1949531928
 31
0.0
  0
LINE
  5
76
330
1F
100
AcDbEntity
  8
1
100
AcDbLine
 10
1981.6698986101
 20
1515.1949531928
 30
0.0
 11
1981.6698986101
 21
2575.1949531928
 31
0.0
  0
LINE
  5
77
330
1F
100
AcDbEntity
  8
1
100
AcDbLine
 10
2286.6698986101
 20
1215.6949531928
 30
0.0
 11
166.6698986101
 21
1215.6949531928
 31
0.0
  0
LINE
  5
78
330
1F
100
AcDbEntity
  8
1
100
AcDbLine
 10
166.6698986101
 20
1215.6949531928
 30
0.0
 11
166.6698986101
 21
1221.6949531928
 31
0.0
  0
LINE
  5
79
330
1F
100
AcDbEntity
  8
1
100
AcDbLine
 10
2286.6698986101
 20
1221.6949531928
 30
0.0
 11
166.6698986101
 21
1221.6949531928
 31
0.0
  0
LINE
  5
7A
330
1F
100
AcDbEntity
  8
1
100
AcDbLine
 10
2286.6698986101
 20
1215.6949531928
 30
0.0
 11
2286.6698986101
 21
1221.6949531928
 31
0.0
  0
LINE
  5
7B
330
1F
100
AcDbEntity
  8
1
100
AcDbLine
 10
166.6698986101
 20
1280.6949531928
 30
0.0
 11
2286.6698986101
 21
1280.6949531928
 31
0.0
  0
LINE
  5
7C
330
1F
100
AcDbEntity
  8
1
100
AcDbLine
 10
2286.6698986101
 20
1274.6949531928
 30
0.0
 11
2286.6698986101
 21
1280.6949531928
 31
0.0
  0
LINE
  5
7D
330
1F
100
AcDbEntity
  8
1
100
AcDbLine
 10
166.6698986101
 20
1274.6949531928
 30
0.0
 11
2286.6698986101
 21
1274.6949531928
 31
0.0
  0
LINE
  5
7E
330
1F
100
AcDbEntity
  8
1
100
AcDbLine
 10
166.6698986101
 20
1274.6949531928
 30
0.0
 11
166.6698986101
 21
1280.6949531928
 31
0.0
  0
LINE
  5
7F
330
1F
100
AcDbEntity
  8
1
100
AcDbLine
 10
225.6698986101
 20
1221.6949531928
 30
0.0
 11
225.6698986101
 21
1274.6949531928
 31
0.0
  0
LINE
  5
80
330
1F
100
AcDbEntity
  8
1
100
AcDbLine
 10
2227.6698986101
 20
1221.6949531928
 30
0.0
 11
2227.6698986101
 21
1274.6949531928
 31
0.0
  0
LINE
  5
81
330
1F
100
AcDbEntity
  8
1
100
AcDbLine
 10
1916.6698986101
 20
1515.1949531928
 30
0.0
 11
1916.6698986101
 21
1510.6949531928
 31
0.0
  0
LINE
  5
82
330
1F
100
AcDbEntity
  8
1
100
AcDbLine
 10
1981.6698986101
 20
1515.1949531928
 30
0.0
 11
2066.6698986101
 21
1515.1949531928
 31
0.0
  0
LINE
  5
83
330
1F
100
AcDbEntity
  8
1
100
AcDbLine
 10
2066.6698986101
 20
1515.1949531928
 30
0.0
 11
2066.6698986101
 21
1510.6949531928
 31
0.0
  0
LINE
  5
84
330
1F
100
AcDbEntity
  8
1
100
AcDbLine
 10
1916.6698986101
 20
1510.6949531928
 30
0.0
 11
2066.6698986101
 21
1510.6949531928
 31
0.0
  0
LINE
  5
85
330
1F
100
AcDbEntity
  8
1
100
AcDbLine
 10
146.6698986101
 20
1510.6949531928
 30
0.0
 11
296.6698986101
 21
1510.6949531928
 31
0.0
  0
LINE
  5
86
330
1F
100
AcDbEntity
  8
1
100
AcDbLine
 10
146.6698986101
 20
1515.1949531928
 30
0.0
 11
231.6698986101
 21
1515.1949531928
 31
0.0
  0
LINE
  5
87
330
1F
100
AcDbEntity
  8
1
100
AcDbLine
 10
146.6698986101
 20
1515.1949531928
 30
0.0
 11
146.6698986101
 21
1510.6949531928
 31
0.0
  0
LINE
  5
88
330
1F
100
AcDbEntity
  8
1
100
AcDbLine
 10
296.6698986101
 20
1515.1949531928
 30
0.0
 11
296.6698986101
 21
1510.6949531928
 31
0.0
  0
LINE
  5
89
330
1F
100
AcDbEntity
  8
1
100
AcDbLine
 10
2286.6698986101
 20
1391.6949531928
 30
0.0
 11
2286.6698986101
 21
1385.6949531928
 31
0.0
  0
LINE
  5
8A
330
1F
100
AcDbEntity
  8
1
100
AcDbLine
 10
166.6698986101
 20
1385.6949531928
 30
0.0
 11
2286.6698986101
 21
1385.6949531928
 31
0.0
  0
LINE
  5
8B
330
1F
100
AcDbEntity
  8
1
100
AcDbLine
 10
166.6698986101
 20
1391.6949531928
 30
0.0
 11
166.6698986101
 21
1385.6949531928
 31
0.0
  0
LINE
  5
8C
330
1F
100
AcDbEntity
  8
1
100
AcDbLine
 10
166.6698986101
 20
1391.6949531928
 30
0.0
 11
2286.6698986101
 21
1391.6949531928
 31
0.0
  0
LINE
  5
8D
330
1F
100
AcDbEntity
  8
1
100
AcDbLine
 10
166.6698986101
 20
1510.6949531928
 30
0.0
 11
166.6698986101
 21
1504.6949531928
 31
0.0
  0
LINE
  5
8E
330
1F
100
AcDbEntity
  8
1
100
AcDbLine
 10
166.6698986101
 20
1504.6949531928
 30
0.0
 11
2286.6698986101
 21
1504.6949531928
 31
0.0
  0
LINE
  5
8F
330
1F
100
AcDbEntity
  8
1
100
AcDbLine
 10
2286.6698986101
 20
1510.6949531928
 30
0.0
 11
2286.6698986101
 21
1504.6949531928
 31
0.0
  0
LINE
  5
90
330
1F
100
AcDbEntity
  8
1
100
AcDbLine
 10
2066.6698986101
 20
1510.6949531928
 30
0.0
 11
2286.6698986101
 21
1510.6949531928
 31
0.0
  0
LINE
  5
91
330
1F
100
AcDbEntity
  8
1
100
AcDbLine
 10
296.6698986101
 20
1510.6949531928
 30
0.0
 11
1916.6698986101
 21
1510.6949531928
 31
0.0
  0
LINE
  5
92
330
1F
100
AcDbEntity
  8
1
100
AcDbLine
 10
2227.6698986101
 20
1504.6949531928
 30
0.0
 11
2227.6698986101
 21
1391.6949531928
 31
0.0
  0
LINE
  5
93
330
1F
100
AcDbEntity
  8
1
100
AcDbLine
 10
225.6698986101
 20
1504.6949531928
 30
0.0
 11
225.6698986101
 21
1391.6949531928
 31
0.0
  0
LINE
  5
94
330
1F
100
AcDbEntity
  8
1
100
AcDbLine
 10
2337.6698986101
 20
2126.6949531928
 30
0.0
 11
2341.6698986101
 21
2126.6949531928
 31
0.0
  0
LINE
  5
95
330
1F
100
AcDbEntity
  8
1
100
AcDbLine
 10
2337.6698986101
 20
3262.6949531928
 30
0.0
 11
2337.6698986101
 21
2126.6949531928
 31
0.0
  0
LINE
  5
96
330
1F
100
AcDbEntity
  8
1
100
AcDbLine
 10
2341.6698986101
 20
3262.6949531928
 30
0.0
 11
2341.6698986101
 21
2126.6949531928
 31
0.0
  0
LINE
  5
97
330
1F
100
AcDbEntity
  8
1
100
AcDbLine
 10
2337.6698986101
 20
3262.6949531928
 30
0.0
 11
2341.6698986101
 21
3262.6949531928
 31
0.0
  0
ARC
  5
98
330
1F
100
AcDbEntity
  8
1
100
AcDbCircle
 10
1587.6698986101
 20
2209.6949531928
 30
0.0
 40
795.6
100
AcDbArc
 50
180.0
 51
182.8690201199
  0
LWPOLYLINE
  5
99
330
1F
100
AcDbEntity
  8
1
100
AcDbPolyline
 90
        3
 70
   128
 43
0.0
 10
1199.5344712139
 20
1515.1949531928
 10
1199.6598013119
 20
1515.1249247618
 10
1207.6983733611
 20
1510.6949531928
  0
ARC
  5
9A
330
1F
100
AcDbEntity
  8
1
100
AcDbCircle
 10
1735.6698986101
 20
2209.6949531928
 30
0.0
 40
943.6
100
AcDbArc
 50
95.1141559003
 51
180.0
  0
ARC
  5
9B
330
1F
100
AcDbEntity
  8
1
100
AcDbCircle
 10
1601.1698986101
 20
2075.1949531928
 30
0.0
 40
661.0999999999999
100
AcDbArc
 50
305.1385709302
 51
0.0
  0
LINE
  5
9C
330
1F
100
AcDbEntity
  8
1
100
AcDbLine
 10
2337.6698986101
 20
3210.9433614838
 30
0.0
 11
1651.5570331189
 21
3149.5385496805
 31
0.0
  0
LINE
  5
9D
330
1F
100
AcDbEntity
  8
1
100
AcDbLine
 10
2262.2698986101
 20
2178.0949531928
 30
0.0
 11
2337.6698986101
 21
2178.0949531928
 31
0.0
  0
LINE
  5
9E
330
1F
100
AcDbEntity
  8
1
100
AcDbLine
 10
2262.2698986101
 20
2075.1949531928
 30
0.0
 11
2262.2698986101
 21
2178.0949531928
 31
0.0
  0
CIRCLE
  5
9F
330
1F
100
AcDbEntity
  8
0
  6
HIDDEN
 62
     7
370
    18
100
AcDbCircle
 10
411.6698986101
 20
1745.6949531928
 30
0.0
 40
24.00000000000011
  0
ARC
  5
A0
330
1F
100
AcDbEntity
  8
0
  6
HIDDEN
 62
     7
370
    18
100
AcDbCircle
 10
411.6698986101
 20
1745.6949531928
 30
0.0
 40
195.5000000000002
100
AcDbArc
 50
202.969001771
 51
241.0071626104
  0
ARC
  5
A1
330
1F
100
AcDbEntity
  8
0
  6
HIDDEN
 62
     7
370
    18
100
AcDbCircle
 10
411.6698986101
 20
1745.6949531928
 30
0.0
 40
195.5
100
AcDbArc
 50
298.9928373896
 51
157.030998229
  0
LINE
  5
A2
330
1F
100
AcDbEntity
  8
0
  6
HIDDEN
 62
     7
370
    18
100
AcDbLine
 10
506.4288032048
 20
1574.6949531928
 30
0.0
 11
316.9109940153
 21
1574.6949531928
 31
0.0
  0
LINE
  5
A3
330
1F
100
AcDbEntity
  8
0
  6
HIDDEN
 62
     7
370
    18
100
AcDbLine
 10
636.6698986101
 20
1515.1949531928
 30
0.0
 11
636.6698986101
 21
1565.6949531928
 31
0.0
  0
LINE
  5
A4
330
1F
100
AcDbEntity
  8
0
  6
HIDDEN
 62
     7
370
    18
100
AcDbLine
 10
186.6698986101
 20
1510.6949531928
 30
0.0
 11
186.6698986101
 21
1515.1949531928
 31
0.0
  0
LINE
  5
A5
330
1F
100
AcDbEntity
  8
0
  6
HIDDEN
 62
     7
370
    18
100
AcDbLine
 10
636.6698986101
 20
1565.6949531928
 30
0.0
 11
231.6698986101
 21
1565.6949531928
 31
0.0
  0
LINE
  5
A6
330
1F
100
AcDbEntity
  8
0
  6
HIDDEN
 62
     7
370
    18
100
AcDbLine
 10
554.6698986101
 20
1583.6949531928
 30
0.0
 11
521.105952998
 21
1583.6949531928
 31
0.0
  0
LINE
  5
A7
330
1F
100
AcDbEntity
  8
0
  6
HIDDEN
 62
     7
370
    18
100
AcDbLine
 10
554.6698986101
 20
1565.6949531928
 30
0.0
 11
554.6698986101
 21
1583.6949531928
 31
0.0
  0
LINE
  5
A8
330
1F
100
AcDbEntity
  8
0
  6
HIDDEN
 62
     7
370
    18
100
AcDbLine
 10
302.2338442221
 20
1583.6949531928
 30
0.0
 11
268.6698986101
 21
1583.6949531928
 31
0.0
  0
LINE
  5
A9
330
1F
100
AcDbEntity
  8
0
  6
HIDDEN
 62
     7
370
    18
100
AcDbLine
 10
268.6698986101
 20
1583.6949531928
 30
0.0
 11
268.6698986101
 21
1565.6949531928
 31
0.0
  0
CIRCLE
  5
AA
330
1F
100
AcDbEntity
  8
0
  6
HIDDEN
 62
     7
370
    18
100
AcDbCircle
 10
411.6698986101
 20
1745.6949531928
 30
0.0
 40
75.00000000000023
  0
CIRCLE
  5
AB
330
1F
100
AcDbEntity
  8
0
  6
HIDDEN
 62
     7
370
    18
100
AcDbCircle
 10
1661.6698986101
 20
2135.6949531928
 30
0.0
 40
150.0000000000003
  0
LINE
  5
AC
330
1F
100
AcDbEntity
  8
0
  6
HIDDEN
 62
     7
370
    18
100
AcDbLine
 10
2221.6698986101
 20
1215.6949531928
 30
0.0
 11
2221.6698986101
 21
1280.6949531928
 31
0.0
  0
LINE
  5
AD
330
1F
100
AcDbEntity
  8
0
  6
HIDDEN
 62
     7
370
    18
100
AcDbLine
 10
231.6698986101
 20
1215.6949531928
 30
0.0
 11
231.6698986101
 21
1280.6949531928
 31
0.0
  0
LINE
  5
AE
330
1F
100
AcDbEntity
  8
0
  6
HIDDEN
 62
     7
370
    18
100
AcDbLine
 10
2221.6698986101
 20
1510.6949531928
 30
0.0
 11
2221.6698986101
 21
1385.6949531928
 31
0.0
  0
LINE
  5
AF
330
1F
100
AcDbEntity
  8
0
  6
HIDDEN
 62
     7
370
    18
100
AcDbLine
 10
231.6698986101
 20
1510.6949531928
 30
0.0
 11
231.6698986101
 21
1385.6949531928
 31
0.0
  0
ARC
  5
B0
330
1F
100
AcDbEntity
  8
0
  6
HIDDEN
 62
     7
370
    18
100
AcDbCircle
 10
1587.6698986101
 20
2209.6949531928
 30
0.0
 40
795.6
100
AcDbArc
 50
182.8690201199
 51
240.8004716839
  0
ARC
  5
B1
330
1F
100
AcDbEntity
  8
0
  6
HIDDEN
 62
     7
370
    18
100
AcDbCircle
 10
1587.6698986101
 20
2209.6949531928
 30
0.0
 40
795.6
100
AcDbArc
 50
241.4718054276
 51
270.0
  0
ARC
  5
B2
330
1F
100
AcDbEntity
  8
0
  6
HIDDEN
 62
     7
370
    18
100
AcDbCircle
 10
1601.1698986101
 20
2075.1949531928
 30
0.0
 40
661.0999999999999
100
AcDbArc
 50
270.0
 51
305.1385709302
  0
LINE
  5
B3
330
1F
100
AcDbEntity
  8
0
  6
HIDDEN
 62
     7
370
    18
100
AcDbLine
 10
1587.6698986101
 20
1414.0949531928
 30
0.0
 11
1601.1698986101
 21
1414.0949531928
 31
0.0
  0
ARC
  5
B4
330
1F
100
AcDbEntity
  8
0
  6
HIDDEN
 62
     7
370
    18
100
AcDbCircle
 10
1587.6698986101
 20
2209.6949531928
 30
0.0
 40
794.0
100
AcDbArc
 50
180.0
 51
270.0
  0
LINE
  5
B5
330
1F
100
AcDbEntity
  8
0
  6
HIDDEN
 62
     7
370
    18
100
AcDbLine
 10
1587.6698986101
 20
1415.6949531928
 30
0.0
 11
1601.1698986101
 21
1415.6949531928
 31
0.0
  0
LINE
  5
B6
330
1F
100
AcDbEntity
  8
0
  6
HIDDEN
 62
     7
370
    18
100
AcDbLine
 10
2341.6698986101
 20
3209.6949531928
 30
0.0
 11
1651.6996577318
 21
3147.944919165
 31
0.0
  0
LINE
  5
B7
330
1F
100
AcDbEntity
  8
0
  6
HIDDEN
 62
     7
370
    18
100
AcDbLine
 10
2260.6698986101
 20
2179.6949531928
 30
0.0
 11
2341.6698986101
 21
2179.6949531928
 31
0.0
  0
ARC
  5
B8
330
1F
100
AcDbEntity
  8
0
  6
HIDDEN
 62
     7
370
    18
100
AcDbCircle
 10
1735.6698986101
 20
2209.6949531928
 30
0.0
 40
941.9999999999998
100
AcDbArc
 50
95.1141559003
 51
180.0
  0
ARC
  5
B9
330
1F
100
AcDbEntity
  8
0
  6
HIDDEN
 62
     7
370
    18
100
AcDbCircle
 10
1601.1698986101
 20
2075.1949531928
 30
0.0
 40
659.5
100
AcDbArc
 50
270.0
 51
0.0
  0
LINE
  5
BA
330
1F
100
AcDbEntity
  8
0
  6
HIDDEN
 62
     7
370
    18
100
AcDbLine
 10
2260.6698986101
 20
2075.1949531928
 30
0.0
 11
2260.6698986101
 21
2179.6949531928
 31
0.0
  0
CIRCLE
  5
BB
330
1F
100
AcDbEntity
  8
0
  6
HIDDEN
 62
     7
370
    18
100
AcDbCircle
 10
1661.6698986101
 20
2135.6949531928
 30
0.0
 40
500.0
  0
CIRCLE
  5
BC
330
1F
100
AcDbEntity
  8
0
  6
HIDDEN
 62
     7
370
    18
100
AcDbCircle
 10
1661.6698986101
 20
2135.6949531928
 30
0.0
 40
550.0
  0
CIRCLE
  5
BD
330
1F
100
AcDbEntity
  8
0
  6
HIDDEN
 62
     7
370
    18
100
AcDbCircle
 10
1661.6698986101
 20
2135.6949531928
 30
0.0
 40
502.3
  0
CIRCLE
  5
BE
330
1F
100
AcDbEntity
  8
0
  6
HIDDEN
 62
     7
370
    18
100
AcDbCircle
 10
1954.7331965279
 20
2574.2951736824
 30
0.0
 40
6.0
  0
CIRCLE
  5
BF
330
1F
100
AcDbEntity
  8
0
  6
HIDDEN
 62
     7
370
    18
100
AcDbCircle
 10
2100.2701190997
 20
2428.7582511107
 30
0.0
 40
6.0
  0
CIRCLE
  5
C0
330
1F
100
AcDbEntity
  8
0
  6
HIDDEN
 62
     7
370
    18
100
AcDbCircle
 10
2179.0341340228
 20
2238.6050980563
 30
0.0
 40
6.0
  0
CIRCLE
  5
C1
330
1F
100
AcDbEntity
  8
0
  6
HIDDEN
 62
     7
370
    18
100
AcDbCircle
 10
2179.0341340228
 20
2032.7848083293
 30
0.0
 40
6.0
  0
CIRCLE
  5
C2
330
1F
100
AcDbEntity
  8
0
  6
HIDDEN
 62
     7
370
    18
100
AcDbCircle
 10
2100.2701190997
 20
1842.631655275
 30
0.0
 40
6.0
  0
CIRCLE
  5
C3
330
1F
100
AcDbEntity
  8
0
  6
HIDDEN
 62
     7
370
    18
100
AcDbCircle
 10
1954.7331965279
 20
1697.0947327032
 30
0.0
 40
6.000000000000227
  0
CIRCLE
  5
C4
330
1F
100
AcDbEntity
  8
0
  6
HIDDEN
 62
     7
370
    18
100
AcDbCircle
 10
1764.5800434736
 20
1618.3307177801
 30
0.0
 40
6.0
  0
CIRCLE
  5
C5
330
1F
100
AcDbEntity
  8
0
  6
HIDDEN
 62
     7
370
    18
100
AcDbCircle
 10
1558.7597537466
 20
1618.3307177801
 30
0.0
 40
6.0
  0
CIRCLE
  5
C6
330
1F
100
AcDbEntity
  8
0
  6
HIDDEN
 62
     7
370
    18
100
AcDbCircle
 10
1368.6066006922
 20
1697.0947327032
 30
0.0
 40
6.0
  0
CIRCLE
  5
C7
330
1F
100
AcDbEntity
  8
0
  6
HIDDEN
 62
     7
370
    18
100
AcDbCircle
 10
1223.0696781205
 20
1842.631655275
 30
0.0
 40
6.0
  0
CIRCLE
  5
C8
330
1F
100
AcDbEntity
  8
0
  6
HIDDEN
 62
     7
370
    18
100
AcDbCircle
 10
1144.3056631974
 20
2238.6050980563
 30
0.0
 40
6.0
  0
CIRCLE
  5
C9
330
1F
100
AcDbEntity
  8
0
  6
HIDDEN
 62
     7
370
    18
100
AcDbCircle
 10
1223.0696781205
 20
2428.7582511107
 30
0.0
 40
6.0
  0
CIRCLE
  5
CA
330
1F
100
AcDbEntity
  8
0
  6
HIDDEN
 62
     7
370
    18
100
AcDbCircle
 10
1368.6066006922
 20
2574.2951736824
 30
0.0
 40
6.0
  0
CIRCLE
  5
CB
330
1F
100
AcDbEntity
  8
0
  6
HIDDEN
 62
     7
370
    18
100
AcDbCircle
 10
1558.7597537466
 20
2653.0591886055
 30
0.0
 40
6.000000000000227
  0
CIRCLE
  5
CC
330
1F
100
AcDbEntity
  8
0
  6
HIDDEN
 62
     7
370
    18
100
AcDbCircle
 10
1764.5800434736
 20
2653.0591886055
 30
0.0
 40
6.0
  0
CIRCLE
  5
CD
330
1F
100
AcDbEntity
  8
0
  6
HIDDEN
 62
     7
370
    18
100
AcDbCircle
 10
1144.3056631974
 20
2032.7848083293
 30
0.0
 40
6.0
  0
LINE
  5
CE
330
1F
100
AcDbEntity
  8
0
  6
HIDDEN
 62
     7
370
    18
100
AcDbLine
 10
275.6698986101
 20
1215.6949531928
 30
0.0
 11
275.6698986101
 21
1221.6949531928
 31
0.0
  0
LINE
  5
CF
330
1F
100
AcDbEntity
  8
0
  6
HIDDEN
 62
     7
370
    18
100
AcDbLine
 10
257.6698986101
 20
1221.6949531928
 30
0.0
 11
257.6698986101
 21
1215.6949531928
 31
0.0
  0
LINE
  5
D0
330
1F
100
AcDbEntity
  8
0
  6
HIDDEN
 62
     7
370
    18
100
AcDbLine
 10
2195.6698986101
 20
1215.6949531928
 30
0.0
 11
2195.6698986101
 21
1221.6949531928
 31
0.0
  0
LINE
  5
D1
330
1F
100
AcDbEntity
  8
0
  6
HIDDEN
 62
     7
370
    18
100
AcDbLine
 10
2177.6698986101
 20
1221.6949531928
 30
0.0
 11
2177.6698986101
 21
1215.6949531928
 31
0.0
  0
LINE
  5
D2
330
1F
100
AcDbEntity
  8
0
  6
HIDDEN
 62
     7
370
    18
100
AcDbLine
 10
1555.6698986101
 20
1215.6949531928
 30
0.0
 11
1555.6698986101
 21
1221.6949531928
 31
0.0
  0
LINE
  5
D3
330
1F
100
AcDbEntity
  8
0
  6
HIDDEN
 62
     7
370
    18
100
AcDbLine
 10
1537.6698986101
 20
1221.6949531928
 30
0.0
 11
1537.6698986101
 21
1215.6949531928
 31
0.0
  0
LINE
  5
D4
330
1F
100
AcDbEntity
  8
0
  6
HIDDEN
 62
     7
370
    18
100
AcDbLine
 10
915.6698986101
 20
1215.6949531928
 30
0.0
 11
915.6698986101
 21
1221.6949531928
 31
0.0
  0
LINE
  5
D5
330
1F
100
AcDbEntity
  8
0
  6
HIDDEN
 62
     7
370
    18
100
AcDbLine
 10
897.6698986101
 20
1221.6949531928
 30
0.0
 11
897.6698986101
 21
1215.6949531928
 31
0.0
  0
LINE
  5
D6
330
1F
100
AcDbEntity
  8
0
  6
HIDDEN
 62
     7
370
    18
100
AcDbLine
 10
2341.6698986101
 20
3100.6949531928
 30
0.0
 11
2337.6698986101
 21
3100.6949531928
 31
0.0
  0
LINE
  5
D7
330
1F
100
AcDbEntity
  8
0
  6
HIDDEN
 62
     7
370
    18
100
AcDbLine
 10
2337.6698986101
 20
3088.6949531928
 30
0.0
 11
2341.6698986101
 21
3088.6949531928
 31
0.0
  0
LINE
  5
D8
330
1F
100
AcDbEntity
  8
0
  6
HIDDEN
 62
     7
370
    18
100
AcDbLine
 10
2341.6698986101
 20
2152.6949531928
 30
0.0
 11
2337.6698986101
 21
2152.6949531928
 31
0.0
  0
LINE
  5
D9
330
1F
100
AcDbEntity
  8
0
  6
HIDDEN
 62
     7
370
    18
100
AcDbLine
 10
2337.6698986101
 20
2140.6949531928
 30
0.0
 11
2341.6698986101
 21
2140.6949531928
 31
0.0
  0
LINE
  5
DA
330
1F
100
AcDbEntity
  8
0
  6
HIDDEN
 62
     7
370
    18
100
AcDbLine
 10
2341.6698986101
 20
2300.6949531928
 30
0.0
 11
2337.6698986101
 21
2300.6949531928
 31
0.0
  0
LINE
  5
DB
330
1F
100
AcDbEntity
  8
0
  6
HIDDEN
 62
     7
370
    18
100
AcDbLine
 10
2337.6698986101
 20
2288.6949531928
 30
0.0
 11
2341.6698986101
 21
2288.6949531928
 31
0.0
  0
LINE
  5
DC
330
1F
100
AcDbEntity
  8
0
  6
HIDDEN
 62
     7
370
    18
100
AcDbLine
 10
2341.6698986101
 20
3248.6949531928
 30
0.0
 11
2337.6698986101
 21
3248.6949531928
 31
0.0
  0
LINE
  5
DD
330
1F
100
AcDbEntity
  8
0
  6
HIDDEN
 62
     7
370
    18
100
AcDbLine
 10
2337.6698986101
 20
3236.6949531928
 30
0.0
 11
2341.6698986101
 21
3236.6949531928
 31
0.0
  0
LINE
  5
DE
330
1F
100
AcDbEntity
  8
0
  6
HIDDEN
 62
     7
370
    18
100
AcDbLine
 10
2341.6698986101
 20
2500.6949531928
 30
0.0
 11
2337.6698986101
 21
2500.6949531928
 31
0.0
  0
LINE
  5
DF
330
1F
100
AcDbEntity
  8
0
  6
HIDDEN
 62
     7
370
    18
100
AcDbLine
 10
2337.6698986101
 20
2488.6949531928
 30
0.0
 11
2341.6698986101
 21
2488.6949531928
 31
0.0
  0
LINE
  5
E0
330
1F
100
AcDbEntity
  8
0
  6
HIDDEN
 62
     7
370
    18
100
AcDbLine
 10
2341.6698986101
 20
2900.6949531928
 30
0.0
 11
2337.6698986101
 21
2900.6949531928
 31
0.0
  0
LINE
  5
E1
330
1F
100
AcDbEntity
  8
0
  6
HIDDEN
 62
     7
370
    18
100
AcDbLine
 10
2337.6698986101
 20
2888.6949531928
 30
0.0
 11
2341.6698986101
 21
2888.6949531928
 31
0.0
  0
LINE
  5
E2
330
1F
100
AcDbEntity
  8
0
  6
HIDDEN
 62
     7
370
    18
100
AcDbLine
 10
2341.6698986101
 20
2700.6949531928
 30
0.0
 11
2337.6698986101
 21
2700.6949531928
 31
0.0
  0
LINE
  5
E3
330
1F
100
AcDbEntity
  8
0
  6
HIDDEN
 62
     7
370
    18
100
AcDbLine
 10
2337.6698986101
 20
2688.6949531928
 30
0.0
 11
2341.6698986101
 21
2688.6949531928
 31
0.0
  0
INSERT
  5
EF
330
1F
100
AcDbEntity
  8
2
100
AcDbBlockReference
  2
SW_CENTERMARKSYMBOL_0
 10
1661.6698986101
 20
2135.6949531928
 30
0.0
  0
LINE
  5
F0
330
1F
100
AcDbEntity
  8
1
100
AcDbLine
 10
3032.5173014052
 20
1941.1949531928
 30
0.0
 11
2827.3173014052
 21
1941.1949531928
 31
0.0
  0
LINE
  5
F1
330
1F
100
AcDbEntity
  8
1
100
AcDbLine
 10
2759.8173014052
 20
1721.6949531928
 30
0.0
 11
2827.3173014052
 21
1721.6949531928
 31
0.0
  0
LINE
  5
F2
330
1F
100
AcDbEntity
  8
1
100
AcDbLine
 10
2827.3173014052
 20
1769.6949531928
 30
0.0
 11
2759.8173014052
 21
1769.6949531928
 31
0.0
  0
LINE
  5
F3
330
1F
100
AcDbEntity
  8
1
100
AcDbLine
 10
3802.8173014052
 20
1385.6949531928
 30
0.0
 11
3802.8173014052
 21
1280.6949531928
 31
0.0
  0
LINE
  5
F4
330
1F
100
AcDbEntity
  8
1
100
AcDbLine
 10
3837.8173014052
 20
1280.6949531928
 30
0.0
 11
3837.8173014052
 21
1385.6949531928
 31
0.0
  0
LINE
  5
F5
330
1F
100
AcDbEntity
  8
1
100
AcDbLine
 10
2807.8173014052
 20
1385.6949531928
 30
0.0
 11
2807.8173014052
 21
1280.6949531928
 31
0.0
  0
LINE
  5
F6
330
1F
100
AcDbEntity
  8
1
100
AcDbLine
 10
2842.8173014052
 20
1280.6949531928
 30
0.0
 11
2842.8173014052
 21
1385.6949531928
 31
0.0
  0
LINE
  5
F7
330
1F
100
AcDbEntity
  8
1
100
AcDbLine
 10
3887.8173014052
 20
2685.6949531928
 30
0.0
 11
3885.5173014052
 21
2685.6949531928
 31
0.0
  0
LINE
  5
F8
330
1F
100
AcDbEntity
  8
1
100
AcDbLine
 10
3885.5173014052
 20
1585.6949531928
 30
0.0
 11
3887.8173014052
 21
1585.6949531928
 31
0.0
  0
LINE
  5
F9
330
1F
100
AcDbEntity
  8
1
100
AcDbLine
 10
3787.1173014052
 20
1585.6949531928
 30
0.0
 11
3787.8173014052
 21
1585.6949531928
 31
0.0
  0
LINE
  5
FA
330
1F
100
AcDbEntity
  8
1
100
AcDbLine
 10
3885.5173014052
 20
2637.9949531928
 30
0.0
 11
3837.8173014052
 21
2637.9949531928
 31
0.0
  0
LINE
  5
FB
330
1F
100
AcDbEntity
  8
1
100
AcDbLine
 10
3787.8173014052
 20
1633.3949531928
 30
0.0
 11
3885.5173014052
 21
1633.3949531928
 31
0.0
  0
LINE
  5
FC
330
1F
100
AcDbEntity
  8
1
100
AcDbLine
 10
2863.8173014052
 20
1510.6949531928
 30
0.0
 11
2863.8173014052
 21
1565.6949531928
 31
0.0
  0
LINE
  5
FD
330
1F
100
AcDbEntity
  8
1
100
AcDbLine
 10
3032.5173014052
 20
1565.6949531928
 30
0.0
 11
2863.8173014052
 21
1565.6949531928
 31
0.0
  0
LINE
  5
FE
330
1F
100
AcDbEntity
  8
1
100
AcDbLine
 10
2906.8173014052
 20
1574.6949531928
 30
0.0
 11
2827.3173014052
 21
1574.6949531928
 31
0.0
  0
LINE
  5
FF
330
1F
100
AcDbEntity
  8
1
100
AcDbLine
 10
2827.3173014052
 20
1941.1949531928
 30
0.0
 11
2827.3173014052
 21
1574.6949531928
 31
0.0
  0
LINE
  5
100
330
1F
100
AcDbEntity
  8
1
100
AcDbLine
 10
2906.8173014052
 20
1565.6949531928
 30
0.0
 11
2906.8173014052
 21
1583.6949531928
 31
0.0
  0
LINE
  5
101
330
1F
100
AcDbEntity
  8
1
100
AcDbLine
 10
2906.8173014052
 20
1583.6949531928
 30
0.0
 11
3032.5173014052
 21
1583.6949531928
 31
0.0
  0
LINE
  5
102
330
1F
100
AcDbEntity
  8
1
100
AcDbLine
 10
2599.8173014052
 20
1515.1949531928
 30
0.0
 11
2599.8173014052
 21
2575.1949531928
 31
0.0
  0
LINE
  5
103
330
1F
100
AcDbEntity
  8
1
100
AcDbLine
 10
2599.8173014052
 20
2575.1949531928
 30
0.0
 11
2759.8173014052
 21
2575.1949531928
 31
0.0
  0
LINE
  5
104
330
1F
100
AcDbEntity
  8
1
100
AcDbLine
 10
2759.8173014052
 20
1515.1949531928
 30
0.0
 11
2759.8173014052
 21
2575.1949531928
 31
0.0
  0
LINE
  5
105
330
1F
100
AcDbEntity
  8
1
100
AcDbLine
 10
2599.8173014052
 20
1515.1949531928
 30
0.0
 11
2704.8173014052
 21
1515.1949531928
 31
0.0
  0
LINE
  5
106
330
1F
100
AcDbEntity
  8
1
100
AcDbLine
 10
2792.8173014052
 20
1215.6949531928
 30
0.0
 11
2792.8173014052
 21
1221.6949531928
 31
0.0
  0
LINE
  5
107
330
1F
100
AcDbEntity
  8
1
100
AcDbLine
 10
3852.8173014052
 20
1221.6949531928
 30
0.0
 11
2792.8173014052
 21
1221.6949531928
 31
0.0
  0
LINE
  5
108
330
1F
100
AcDbEntity
  8
1
100
AcDbLine
 10
3852.8173014052
 20
1215.6949531928
 30
0.0
 11
3852.8173014052
 21
1221.6949531928
 31
0.0
  0
LINE
  5
109
330
1F
100
AcDbEntity
  8
1
100
AcDbLine
 10
3852.8173014052
 20
1215.6949531928
 30
0.0
 11
2792.8173014052
 21
1215.6949531928
 31
0.0
  0
LINE
  5
10A
330
1F
100
AcDbEntity
  8
1
100
AcDbLine
 10
3852.8173014052
 20
1274.6949531928
 30
0.0
 11
3852.8173014052
 21
1280.6949531928
 31
0.0
  0
LINE
  5
10B
330
1F
100
AcDbEntity
  8
1
100
AcDbLine
 10
2792.8173014052
 20
1274.6949531928
 30
0.0
 11
2792.8173014052
 21
1280.6949531928
 31
0.0
  0
LINE
  5
10C
330
1F
100
AcDbEntity
  8
1
100
AcDbLine
 10
2792.8173014052
 20
1280.6949531928
 30
0.0
 11
3852.8173014052
 21
1280.6949531928
 31
0.0
  0
LINE
  5
10D
330
1F
100
AcDbEntity
  8
1
100
AcDbLine
 10
2792.8173014052
 20
1274.6949531928
 30
0.0
 11
3852.8173014052
 21
1274.6949531928
 31
0.0
  0
LINE
  5
10E
330
1F
100
AcDbEntity
  8
1
100
AcDbLine
 10
2851.8173014052
 20
1221.6949531928
 30
0.0
 11
2851.8173014052
 21
1274.6949531928
 31
0.0
  0
LINE
  5
10F
330
1F
100
AcDbEntity
  8
1
100
AcDbLine
 10
3793.8173014052
 20
1221.6949531928
 30
0.0
 11
3793.8173014052
 21
1274.6949531928
 31
0.0
  0
LINE
  5
110
330
1F
100
AcDbEntity
  8
1
100
AcDbLine
 10
3852.8173014052
 20
1391.6949531928
 30
0.0
 11
3852.8173014052
 21
1385.6949531928
 31
0.0
  0
LINE
  5
111
330
1F
100
AcDbEntity
  8
1
100
AcDbLine
 10
2792.8173014052
 20
1385.6949531928
 30
0.0
 11
3852.8173014052
 21
1385.6949531928
 31
0.0
  0
LINE
  5
112
330
1F
100
AcDbEntity
  8
1
100
AcDbLine
 10
2792.8173014052
 20
1391.6949531928
 30
0.0
 11
2792.8173014052
 21
1385.6949531928
 31
0.0
  0
LINE
  5
113
330
1F
100
AcDbEntity
  8
1
100
AcDbLine
 10
2792.8173014052
 20
1391.6949531928
 30
0.0
 11
3852.8173014052
 21
1391.6949531928
 31
0.0
  0
LINE
  5
114
330
1F
100
AcDbEntity
  8
1
100
AcDbLine
 10
3852.8173014052
 20
1510.6949531928
 30
0.0
 11
3852.8173014052
 21
1504.6949531928
 31
0.0
  0
LINE
  5
115
330
1F
100
AcDbEntity
  8
1
100
AcDbLine
 10
2792.8173014052
 20
1504.6949531928
 30
0.0
 11
3852.8173014052
 21
1504.6949531928
 31
0.0
  0
LINE
  5
116
330
1F
100
AcDbEntity
  8
1
100
AcDbLine
 10
2792.8173014052
 20
1510.6949531928
 30
0.0
 11
2792.8173014052
 21
1504.6949531928
 31
0.0
  0
LINE
  5
117
330
1F
100
AcDbEntity
  8
1
100
AcDbLine
 10
2792.8173014052
 20
1510.6949531928
 30
0.0
 11
3852.8173014052
 21
1510.6949531928
 31
0.0
  0
LINE
  5
118
330
1F
100
AcDbEntity
  8
1
100
AcDbLine
 10
2851.8173014052
 20
1504.6949531928
 30
0.0
 11
2851.8173014052
 21
1391.6949531928
 31
0.0
  0
LINE
  5
119
330
1F
100
AcDbEntity
  8
1
100
AcDbLine
 10
3793.8173014052
 20
1504.6949531928
 30
0.0
 11
3793.8173014052
 21
1391.6949531928
 31
0.0
  0
LINE
  5
11A
330
1F
100
AcDbEntity
  8
1
100
AcDbLine
 10
2704.8173014052
 20
1515.1949531928
 30
0.0
 11
2704.8173014052
 21
1510.6949531928
 31
0.0
  0
LINE
  5
11B
330
1F
100
AcDbEntity
  8
1
100
AcDbLine
 10
2704.8173014052
 20
1515.1949531928
 30
0.0
 11
2834.8173014052
 21
1515.1949531928
 31
0.0
  0
LINE
  5
11C
330
1F
100
AcDbEntity
  8
1
100
AcDbLine
 10
2834.8173014052
 20
1515.1949531928
 30
0.0
 11
2834.8173014052
 21
1510.6949531928
 31
0.0
  0
LINE
  5
11D
330
1F
100
AcDbEntity
  8
1
100
AcDbLine
 10
2704.8173014052
 20
1510.6949531928
 30
0.0
 11
2792.8173014052
 21
1510.6949531928
 31
0.0
  0
CIRCLE
  5
11E
330
1F
100
AcDbEntity
  8
1
100
AcDbCircle
 10
3001.8173014052
 20
3242.6949531928
 30
0.0
 40
6.000000000000455
  0
CIRCLE
  5
11F
330
1F
100
AcDbEntity
  8
1
100
AcDbCircle
 10
3109.8173014052
 20
3242.6949531928
 30
0.0
 40
5.999999999999545
  0
CIRCLE
  5
120
330
1F
100
AcDbEntity
  8
1
100
AcDbCircle
 10
3509.8173014052
 20
3242.6949531928
 30
0.0
 40
6.0
  0
CIRCLE
  5
121
330
1F
100
AcDbEntity
  8
1
100
AcDbCircle
 10
3001.8173014052
 20
3094.6949531928
 30
0.0
 40
6.000000000000455
  0
CIRCLE
  5
122
330
1F
100
AcDbEntity
  8
1
100
AcDbCircle
 10
3001.8173014052
 20
2894.6949531928
 30
0.0
 40
6.000000000000455
  0
CIRCLE
  5
123
330
1F
100
AcDbEntity
  8
1
100
AcDbCircle
 10
3817.8173014052
 20
2894.6949531928
 30
0.0
 40
6.0
  0
CIRCLE
  5
124
330
1F
100
AcDbEntity
  8
1
100
AcDbCircle
 10
3817.8173014052
 20
3094.6949531928
 30
0.0
 40
6.0
  0
CIRCLE
  5
125
330
1F
100
AcDbEntity
  8
1
100
AcDbCircle
 10
3309.8173014052
 20
3242.6949531928
 30
0.0
 40
6.0
  0
CIRCLE
  5
126
330
1F
100
AcDbEntity
  8
1
100
AcDbCircle
 10
3709.8173014052
 20
3242.6949531928
 30
0.0
 40
5.999999999999545
  0
CIRCLE
  5
127
330
1F
100
AcDbEntity
  8
1
100
AcDbCircle
 10
3817.8173014052
 20
3242.6949531928
 30
0.0
 40
6.0
  0
CIRCLE
  5
128
330
1F
100
AcDbEntity
  8
1
100
AcDbCircle
 10
3709.8173014052
 20
2146.6949531928
 30
0.0
 40
5.999999999999545
  0
CIRCLE
  5
129
330
1F
100
AcDbEntity
  8
1
100
AcDbCircle
 10
3309.8173014052
 20
2146.6949531928
 30
0.0
 40
6.0
  0
CIRCLE
  5
12A
330
1F
100
AcDbEntity
  8
1
100
AcDbCircle
 10
3817.8173014052
 20
2494.6949531928
 30
0.0
 40
6.0
  0
CIRCLE
  5
12B
330
1F
100
AcDbEntity
  8
1
100
AcDbCircle
 10
3817.8173014052
 20
2694.6949531928
 30
0.0
 40
6.0
  0
CIRCLE
  5
12C
330
1F
100
AcDbEntity
  8
1
100
AcDbCircle
 10
3001.8173014052
 20
2694.6949531928
 30
0.0
 40
6.000000000000455
  0
CIRCLE
  5
12D
330
1F
100
AcDbEntity
  8
1
100
AcDbCircle
 10
3001.8173014052
 20
2494.6949531928
 30
0.0
 40
6.000000000000455
  0
CIRCLE
  5
12E
330
1F
100
AcDbEntity
  8
1
100
AcDbCircle
 10
3001.8173014052
 20
2294.6949531928
 30
0.0
 40
6.000000000000455
  0
CIRCLE
  5
12F
330
1F
100
AcDbEntity
  8
1
100
AcDbCircle
 10
3509.8173014052
 20
2146.6949531928
 30
0.0
 40
6.0
  0
CIRCLE
  5
130
330
1F
100
AcDbEntity
  8
1
100
AcDbCircle
 10
3109.8173014052
 20
2146.6949531928
 30
0.0
 40
5.999999999999545
  0
LINE
  5
131
330
1F
100
AcDbEntity
  8
1
100
AcDbLine
 10
2981.8173014052
 20
3262.6949531928
 30
0.0
 11
2981.8173014052
 21
2126.6949531928
 31
0.0
  0
LINE
  5
132
330
1F
100
AcDbEntity
  8
1
100
AcDbLine
 10
3034.8173014052
 20
3209.6949531928
 30
0.0
 11
3784.8173014052
 21
3209.6949531928
 31
0.0
  0
LINE
  5
133
330
1F
100
AcDbEntity
  8
1
100
AcDbLine
 10
3034.8173014052
 20
2179.6949531928
 30
0.0
 11
3034.8173014052
 21
3209.6949531928
 31
0.0
  0
LINE
  5
134
330
1F
100
AcDbEntity
  8
1
100
AcDbLine
 10
3034.8173014052
 20
2179.6949531928
 30
0.0
 11
3784.8173014052
 21
2179.6949531928
 31
0.0
  0
LINE
  5
135
330
1F
100
AcDbEntity
  8
1
100
AcDbLine
 10
3784.8173014052
 20
2179.6949531928
 30
0.0
 11
3784.8173014052
 21
3209.6949531928
 31
0.0
  0
CIRCLE
  5
136
330
1F
100
AcDbEntity
  8
1
100
AcDbCircle
 10
3001.8173014052
 20
2146.6949531928
 30
0.0
 40
6.000000000000455
  0
LINE
  5
137
330
1F
100
AcDbEntity
  8
1
100
AcDbLine
 10
3837.8173014052
 20
2126.6949531928
 30
0.0
 11
3837.8173014052
 21
3262.6949531928
 31
0.0
  0
LINE
  5
138
330
1F
100
AcDbEntity
  8
1
100
AcDbLine
 10
3837.8173014052
 20
3262.6949531928
 30
0.0
 11
2981.8173014052
 21
3262.6949531928
 31
0.0
  0
CIRCLE
  5
139
330
1F
100
AcDbEntity
  8
1
100
AcDbCircle
 10
3817.8173014052
 20
2294.6949531928
 30
0.0
 40
6.0
  0
LINE
  5
13A
330
1F
100
AcDbEntity
  8
1
100
AcDbLine
 10
2981.8173014052
 20
2126.6949531928
 30
0.0
 11
3837.8173014052
 21
2126.6949531928
 31
0.0
  0
CIRCLE
  5
13B
330
1F
100
AcDbEntity
  8
1
100
AcDbCircle
 10
3817.8173014052
 20
2146.6949531928
 30
0.0
 40
6.0
  0
LINE
  5
13C
330
1F
100
AcDbEntity
  8
1
100
AcDbLine
 10
3034.8173014052
 20
3147.944919165
 30
0.0
 11
3784.8173014052
 21
3147.944919165
 31
0.0
  0
LINE
  5
13D
330
1F
100
AcDbEntity
  8
1
100
AcDbLine
 10
3032.5173014052
 20
2075.1949531928
 30
0.0
 11
3787.1173014052
 21
2075.1949531928
 31
0.0
  0
LINE
  5
13E
330
1F
100
AcDbEntity
  8
1
100
AcDbLine
 10
3032.5173014052
 20
1510.6949531928
 30
0.0
 11
3032.5173014052
 21
2075.1949531928
 31
0.0
  0
LINE
  5
13F
330
1F
100
AcDbEntity
  8
1
100
AcDbLine
 10
3787.1173014052
 20
1510.6949531928
 30
0.0
 11
3787.1173014052
 21
2075.1949531928
 31
0.0
  0
LINE
  5
140
330
1F
100
AcDbEntity
  8
1
100
AcDbLine
 10
3032.5173014052
 20
2075.1949531928
 30
0.0
 11
3032.5173014052
 21
2126.6949531928
 31
0.0
  0
LINE
  5
141
330
1F
100
AcDbEntity
  8
1
100
AcDbLine
 10
3787.1173014052
 20
2075.1949531928
 30
0.0
 11
3787.1173014052
 21
2126.6949531928
 31
0.0
  0
LINE
  5
142
330
1F
100
AcDbEntity
  8
1
100
AcDbLine
 10
3885.5173014052
 20
2685.6949531928
 30
0.0
 11
3885.5173014052
 21
1585.6949531928
 31
0.0
  0
LINE
  5
143
330
1F
100
AcDbEntity
  8
1
100
AcDbLine
 10
3887.8173014052
 20
2685.6949531928
 30
0.0
 11
3887.8173014052
 21
1585.6949531928
 31
0.0
  0
LINE
  5
144
330
1F
100
AcDbEntity
  8
1
100
AcDbLine
 10
3787.8173014052
 20
1585.6949531928
 30
0.0
 11
3787.8173014052
 21
2126.6949531928
 31
0.0
  0
LINE
  5
145
330
1F
100
AcDbEntity
  8
1
100
AcDbLine
 10
3034.8173014052
 20
2209.6949531928
 30
0.0
 11
3784.8173014052
 21
2209.6949531928
 31
0.0
  0
LINE
  5
146
330
1F
100
AcDbEntity
  8
0
  6
HIDDEN
 62
     7
370
    18
100
AcDbLine
 10
3273.8173014052
 20
1565.6949531928
 30
0.0
 11
3032.5173014052
 21
1565.6949531928
 31
0.0
  0
LINE
  5
147
330
1F
100
AcDbEntity
  8
0
  6
HIDDEN
 62
     7
370
    18
100
AcDbLine
 10
3273.8173014052
 20
1510.6949531928
 30
0.0
 11
3273.8173014052
 21
1565.6949531928
 31
0.0
  0
LINE
  5
148
330
1F
100
AcDbEntity
  8
0
  6
HIDDEN
 62
     7
370
    18
100
AcDbLine
 10
3382.3173014052
 20
1574.6949531928
 30
0.0
 11
3230.8173014052
 21
1574.6949531928
 31
0.0
  0
LINE
  5
149
330
1F
100
AcDbEntity
  8
0
  6
HIDDEN
 62
     7
370
    18
100
AcDbLine
 10
3382.3173014052
 20
1574.6949531928
 30
0.0
 11
3382.3173014052
 21
1941.1949531928
 31
0.0
  0
LINE
  5
14A
330
1F
100
AcDbEntity
  8
0
  6
HIDDEN
 62
     7
370
    18
100
AcDbLine
 10
3032.5173014052
 20
1583.6949531928
 30
0.0
 11
3230.8173014052
 21
1583.6949531928
 31
0.0
  0
LINE
  5
14B
330
1F
100
AcDbEntity
  8
0
  6
HIDDEN
 62
     7
370
    18
100
AcDbLine
 10
3230.8173014052
 20
1565.6949531928
 30
0.0
 11
3230.8173014052
 21
1583.6949531928
 31
0.0
  0
LINE
  5
14C
330
1F
100
AcDbEntity
  8
0
  6
HIDDEN
 62
     7
370
    18
100
AcDbLine
 10
2642.3173014052
 20
1670.9343251903
 30
0.0
 11
2642.3173014052
 21
1670.6949531928
 31
0.0
  0
LINE
  5
14D
330
1F
100
AcDbEntity
  8
0
  6
HIDDEN
 62
     7
370
    18
100
AcDbLine
 10
2642.3173014052
 20
1820.6949531928
 30
0.0
 11
2642.3173014052
 21
1670.9343251903
 31
0.0
  0
LINE
  5
14E
330
1F
100
AcDbEntity
  8
0
  6
HIDDEN
 62
     7
370
    18
100
AcDbLine
 10
2717.3173014052
 20
1670.9343251903
 30
0.0
 11
2717.3173014052
 21
1670.6949531928
 31
0.0
  0
LINE
  5
14F
330
1F
100
AcDbEntity
  8
0
  6
HIDDEN
 62
     7
370
    18
100
AcDbLine
 10
2717.3173014052
 20
1820.6949531928
 30
0.0
 11
2717.3173014052
 21
1670.9343251903
 31
0.0
  0
LINE
  5
150
330
1F
100
AcDbEntity
  8
0
  6
HIDDEN
 62
     7
370
    18
100
AcDbLine
 10
2642.3173014052
 20
2285.6949531928
 30
0.0
 11
2642.3173014052
 21
1985.6949531928
 31
0.0
  0
LINE
  5
151
330
1F
100
AcDbEntity
  8
0
  6
HIDDEN
 62
     7
370
    18
100
AcDbLine
 10
2717.3173014052
 20
2285.6949531928
 30
0.0
 11
2717.3173014052
 21
1985.6949531928
 31
0.0
  0
LINE
  5
152
330
1F
100
AcDbEntity
  8
0
  6
HIDDEN
 62
     7
370
    18
100
AcDbLine
 10
2599.8173014052
 20
1890.1949531928
 30
0.0
 11
2759.8173014052
 21
1890.1949531928
 31
0.0
  0
LINE
  5
153
330
1F
100
AcDbEntity
  8
0
  6
HIDDEN
 62
     7
370
    18
100
AcDbLine
 10
3787.8173014052
 20
1215.6949531928
 30
0.0
 11
3787.8173014052
 21
1280.6949531928
 31
0.0
  0
LINE
  5
154
330
1F
100
AcDbEntity
  8
0
  6
HIDDEN
 62
     7
370
    18
100
AcDbLine
 10
2857.8173014052
 20
1215.6949531928
 30
0.0
 11
2857.8173014052
 21
1280.6949531928
 31
0.0
  0
LINE
  5
155
330
1F
100
AcDbEntity
  8
0
  6
HIDDEN
 62
     7
370
    18
100
AcDbLine
 10
3787.8173014052
 20
1510.6949531928
 30
0.0
 11
3787.8173014052
 21
1385.6949531928
 31
0.0
  0
LINE
  5
156
330
1F
100
AcDbEntity
  8
0
  6
HIDDEN
 62
     7
370
    18
100
AcDbLine
 10
2857.8173014052
 20
1510.6949531928
 30
0.0
 11
2857.8173014052
 21
1385.6949531928
 31
0.0
  0
LINE
  5
157
330
1F
100
AcDbEntity
  8
0
  6
HIDDEN
 62
     7
370
    18
100
AcDbLine
 10
3787.1173014052
 20
3210.9433614838
 30
0.0
 11
3787.1173014052
 21
2178.0949531928
 31
0.0
  0
LINE
  5
158
330
1F
100
AcDbEntity
  8
0
  6
HIDDEN
 62
     7
370
    18
100
AcDbLine
 10
3787.1173014052
 20
3210.9433614838
 30
0.0
 11
3032.5173014052
 21
3210.9433614838
 31
0.0
  0
LINE
  5
159
330
1F
100
AcDbEntity
  8
0
  6
HIDDEN
 62
     7
370
    18
100
AcDbLine
 10
3032.5173014052
 20
2178.0949531928
 30
0.0
 11
3787.1173014052
 21
2178.0949531928
 31
0.0
  0
LINE
  5
15A
330
1F
100
AcDbEntity
  8
0
  6
HIDDEN
 62
     7
370
    18
100
AcDbLine
 10
3032.5173014052
 20
3210.9433614838
 30
0.0
 11
3032.5173014052
 21
2178.0949531928
 31
0.0
  0
LINE
  5
15B
330
1F
100
AcDbEntity
  8
0
  6
HIDDEN
 62
     7
370
    18
100
AcDbLine
 10
3032.5173014052
 20
1414.0949531928
 30
0.0
 11
3787.1173014052
 21
1414.0949531928
 31
0.0
  0
LINE
  5
15C
330
1F
100
AcDbEntity
  8
0
  6
HIDDEN
 62
     7
370
    18
100
AcDbLine
 10
3032.5173014052
 20
1414.0949531928
 30
0.0
 11
3032.5173014052
 21
1510.6949531928
 31
0.0
  0
LINE
  5
15D
330
1F
100
AcDbEntity
  8
0
  6
HIDDEN
 62
     7
370
    18
100
AcDbLine
 10
3787.1173014052
 20
1414.0949531928
 30
0.0
 11
3787.1173014052
 21
1510.6949531928
 31
0.0
  0
LINE
  5
15E
330
1F
100
AcDbEntity
  8
0
  6
HIDDEN
 62
     7
370
    18
100
AcDbLine
 10
3032.5173014052
 20
2126.6949531928
 30
0.0
 11
3032.5173014052
 21
2178.0949531928
 31
0.0
  0
LINE
  5
15F
330
1F
100
AcDbEntity
  8
0
  6
HIDDEN
 62
     7
370
    18
100
AcDbLine
 10
3787.1173014052
 20
2126.6949531928
 30
0.0
 11
3787.1173014052
 21
2178.0949531928
 31
0.0
  0
LINE
  5
160
330
1F
100
AcDbEntity
  8
0
  6
HIDDEN
 62
     7
370
    18
100
AcDbLine
 10
3034.8173014052
 20
2075.1949531928
 30
0.0
 11
3784.8173014052
 21
2075.1949531928
 31
0.0
  0
LINE
  5
161
330
1F
100
AcDbEntity
  8
0
  6
HIDDEN
 62
     7
370
    18
100
AcDbLine
 10
3034.8173014052
 20
1415.6949531928
 30
0.0
 11
3784.8173014052
 21
1415.6949531928
 31
0.0
  0
LINE
  5
162
330
1F
100
AcDbEntity
  8
0
  6
HIDDEN
 62
     7
370
    18
100
AcDbLine
 10
3034.8173014052
 20
1415.6949531928
 30
0.0
 11
3034.8173014052
 21
2075.1949531928
 31
0.0
  0
LINE
  5
163
330
1F
100
AcDbEntity
  8
0
  6
HIDDEN
 62
     7
370
    18
100
AcDbLine
 10
3784.8173014052
 20
1415.6949531928
 30
0.0
 11
3784.8173014052
 21
2075.1949531928
 31
0.0
  0
LINE
  5
164
330
1F
100
AcDbEntity
  8
0
  6
HIDDEN
 62
     7
370
    18
100
AcDbLine
 10
3034.8173014052
 20
2075.1949531928
 30
0.0
 11
3034.8173014052
 21
2179.6949531928
 31
0.0
  0
LINE
  5
165
330
1F
100
AcDbEntity
  8
0
  6
HIDDEN
 62
     7
370
    18
100
AcDbLine
 10
3784.8173014052
 20
2075.1949531928
 30
0.0
 11
3784.8173014052
 21
2179.6949531928
 31
0.0
  0
LINE
  5
166
330
1F
100
AcDbEntity
  8
0
  6
HIDDEN
 62
     7
370
    18
100
AcDbLine
 10
3787.8173014052
 20
2126.6949531928
 30
0.0
 11
3787.8173014052
 21
2685.6949531928
 31
0.0
  0
LINE
  5
167
330
1F
100
AcDbEntity
  8
0
  6
HIDDEN
 62
     7
370
    18
100
AcDbLine
 10
3032.5173014052
 20
3149.5385496805
 30
0.0
 11
3787.1173014052
 21
3149.5385496805
 31
0.0
  0
LINE
  5
168
330
1F
100
AcDbEntity
  8
0
  6
HIDDEN
 62
     7
370
    18
100
AcDbLine
 10
3032.5173014052
 20
2209.6949531928
 30
0.0
 11
3787.1173014052
 21
2209.6949531928
 31
0.0
  0
LINE
  5
169
330
1F
100
AcDbEntity
  8
0
  6
HIDDEN
 62
     7
370
    18
100
AcDbLine
 10
3382.3173014052
 20
1941.1949531928
 30
0.0
 11
3032.5173014052
 21
1941.1949531928
 31
0.0
  0
LINE
  5
16A
330
1F
100
AcDbEntity
  8
0
  6
HIDDEN
 62
     7
370
    18
100
AcDbLine
 10
2717.3173014052
 20
1721.6949531928
 30
0.0
 11
2759.8173014052
 21
1721.6949531928
 31
0.0
  0
LINE
  5
16B
330
1F
100
AcDbEntity
  8
0
  6
HIDDEN
 62
     7
370
    18
100
AcDbLine
 10
2759.8173014052
 20
1769.6949531928
 30
0.0
 11
2717.3173014052
 21
1769.6949531928
 31
0.0
  0
LINE
  5
16C
330
1F
100
AcDbEntity
  8
0
  6
HIDDEN
 62
     7
370
    18
100
AcDbLine
 10
2642.3173014052
 20
1670.6949531928
 30
0.0
 11
2717.3173014052
 21
1670.6949531928
 31
0.0
  0
LINE
  5
16D
330
1F
100
AcDbEntity
  8
0
  6
HIDDEN
 62
     7
370
    18
100
AcDbLine
 10
2717.3173014052
 20
1820.6949531928
 30
0.0
 11
2642.3173014052
 21
1820.6949531928
 31
0.0
  0
LINE
  5
16E
330
1F
100
AcDbEntity
  8
0
  6
HIDDEN
 62
     7
370
    18
100
AcDbLine
 10
2642.3173014052
 20
1985.6949531928
 30
0.0
 11
2717.3173014052
 21
1985.6949531928
 31
0.0
  0
LINE
  5
16F
330
1F
100
AcDbEntity
  8
0
  6
HIDDEN
 62
     7
370
    18
100
AcDbLine
 10
2717.3173014052
 20
2285.6949531928
 30
0.0
 11
2642.3173014052
 21
2285.6949531928
 31
0.0
  0
LINE
  5
170
330
1F
100
AcDbEntity
  8
0
  6
HIDDEN
 62
     7
370
    18
100
AcDbLine
 10
3831.8173014052
 20
1215.6949531928
 30
0.0
 11
3831.8173014052
 21
1221.6949531928
 31
0.0
  0
LINE
  5
171
330
1F
100
AcDbEntity
  8
0
  6
HIDDEN
 62
     7
370
    18
100
AcDbLine
 10
3813.8173014052
 20
1221.6949531928
 30
0.0
 11
3813.8173014052
 21
1215.6949531928
 31
0.0
  0
LINE
  5
172
330
1F
100
AcDbEntity
  8
0
  6
HIDDEN
 62
     7
370
    18
100
AcDbLine
 10
2831.8173014052
 20
1215.6949531928
 30
0.0
 11
2831.8173014052
 21
1221.6949531928
 31
0.0
  0
LINE
  5
173
330
1F
100
AcDbEntity
  8
0
  6
HIDDEN
 62
     7
370
    18
100
AcDbLine
 10
2813.8173014052
 20
1221.6949531928
 30
0.0
 11
2813.8173014052
 21
1215.6949531928
 31
0.0
  0
LINE
  5
174
330
1F
100
AcDbEntity
  8
0
  6
HIDDEN
 62
     7
370
    18
100
AcDbLine
 10
3787.8173014052
 20
2685.6949531928
 30
0.0
 11
3787.1173014052
 21
2685.6949531928
 31
0.0
  0
LINE
  5
175
330
1F
100
AcDbEntity
  8
0
  6
HIDDEN
 62
     7
370
    18
100
AcDbLine
 10
3887.8173014052
 20
2038.7848083293
 30
0.0
 11
3885.5173014052
 21
2038.7848083293
 31
0.0
  0
LINE
  5
176
330
1F
100
AcDbEntity
  8
0
  6
HIDDEN
 62
     7
370
    18
100
AcDbLine
 10
3885.5173014052
 20
2026.7848083293
 30
0.0
 11
3887.8173014052
 21
2026.7848083293
 31
0.0
  0
LINE
  5
177
330
1F
100
AcDbEntity
  8
0
  6
HIDDEN
 62
     7
370
    18
100
AcDbLine
 10
3887.8173014052
 20
2244.6050980563
 30
0.0
 11
3885.5173014052
 21
2244.6050980563
 31
0.0
  0
LINE
  5
178
330
1F
100
AcDbEntity
  8
0
  6
HIDDEN
 62
     7
370
    18
100
AcDbLine
 10
3885.5173014052
 20
2232.6050980563
 30
0.0
 11
3887.8173014052
 21
2232.6050980563
 31
0.0
  0
LINE
  5
179
330
1F
100
AcDbEntity
  8
0
  6
HIDDEN
 62
     7
370
    18
100
AcDbLine
 10
3837.8173014052
 20
2637.9949531928
 30
0.0
 11
3787.8173014052
 21
2637.9949531928
 31
0.0
  0
LINE
  5
17A
330
1F
100
AcDbEntity
  8
0
  6
HIDDEN
 62
     7
370
    18
100
AcDbLine
 10
3784.8173014052
 20
1635.6949531928
 30
0.0
 11
3887.8173014052
 21
1635.6949531928
 31
0.0
  0
LINE
  5
17B
330
1F
100
AcDbEntity
  8
0
  6
HIDDEN
 62
     7
370
    18
100
AcDbLine
 10
3887.8173014052
 20
2635.6949531928
 30
0.0
 11
3784.8173014052
 21
2635.6949531928
 31
0.0
  0
LINE
  5
17C
330
1F
100
AcDbEntity
  8
0
  6
HIDDEN
 62
     7
370
    18
100
AcDbLine
 10
3887.8173014052
 20
2434.7582511107
 30
0.0
 11
3885.5173014052
 21
2434.7582511107
 31
0.0
  0
LINE
  5
17D
330
1F
100
AcDbEntity
  8
0
  6
HIDDEN
 62
     7
370
    18
100
AcDbLine
 10
3885.5173014052
 20
2422.7582511107
 30
0.0
 11
3887.8173014052
 21
2422.7582511107
 31
0.0
  0
LINE
  5
17E
330
1F
100
AcDbEntity
  8
0
  6
HIDDEN
 62
     7
370
    18
100
AcDbLine
 10
3887.8173014052
 20
1848.631655275
 30
0.0
 11
3885.5173014052
 21
1848.631655275
 31
0.0
  0
LINE
  5
17F
330
1F
100
AcDbEntity
  8
0
  6
HIDDEN
 62
     7
370
    18
100
AcDbLine
 10
3885.5173014052
 20
1836.631655275
 30
0.0
 11
3887.8173014052
 21
1836.631655275
 31
0.0
  0
LINE
  5
180
330
1F
100
AcDbEntity
  8
0
  6
HIDDEN
 62
     7
370
    18
100
AcDbLine
 10
3887.8173014052
 20
1703.0947327032
 30
0.0
 11
3885.5173014052
 21
1703.0947327032
 31
0.0
  0
LINE
  5
181
330
1F
100
AcDbEntity
  8
0
  6
HIDDEN
 62
     7
370
    18
100
AcDbLine
 10
3885.5173014052
 20
1691.0947327032
 30
0.0
 11
3887.8173014052
 21
1691.0947327032
 31
0.0
  0
LINE
  5
182
330
1F
100
AcDbEntity
  8
0
  6
HIDDEN
 62
     7
370
    18
100
AcDbLine
 10
3887.8173014052
 20
2580.2951736824
 30
0.0
 11
3885.5173014052
 21
2580.2951736824
 31
0.0
  0
LINE
  5
183
330
1F
100
AcDbEntity
  8
0
  6
HIDDEN
 62
     7
370
    18
100
AcDbLine
 10
3885.5173014052
 20
2568.2951736824
 30
0.0
 11
3887.8173014052
 21
2568.2951736824
 31
0.0
  0
LINE
  5
184
330
1F
100
AcDbEntity
  8
0
  6
HIDDEN
 62
     7
370
    18
100
AcDbLine
 10
3887.8173014052
 20
1624.3307177801
 30
0.0
 11
3885.5173014052
 21
1624.3307177801
 31
0.0
  0
LINE
  5
185
330
1F
100
AcDbEntity
  8
0
  6
HIDDEN
 62
     7
370
    18
100
AcDbLine
 10
3885.5173014052
 20
1612.3307177801
 30
0.0
 11
3887.8173014052
 21
1612.3307177801
 31
0.0
  0
LINE
  5
186
330
1F
100
AcDbEntity
  8
0
  6
HIDDEN
 62
     7
370
    18
100
AcDbLine
 10
3887.8173014052
 20
2659.0591886055
 30
0.0
 11
3885.5173014052
 21
2659.0591886055
 31
0.0
  0
LINE
  5
187
330
1F
100
AcDbEntity
  8
0
  6
HIDDEN
 62
     7
370
    18
100
AcDbLine
 10
3885.5173014052
 20
2647.0591886055
 30
0.0
 11
3887.8173014052
 21
2647.0591886055
 31
0.0
  0
LINE
  5
188
330
1F
100
AcDbEntity
  8
2
100
AcDbLine
 10
2856.4580250616
 20
2135.6949531928
 30
0.0
 11
3629.4907578789
 21
2135.6949531928
 31
0.0
  0
LINE
  5
189
330
1F
100
AcDbEntity
  8
2
100
AcDbLine
 10
3409.8173014052
 20
1793.1029243081
 30
0.0
 11
3409.8173014052
 21
2856.3707687056
 31
0.0
  0
LINE
  5
18A
330
1F
100
AcDbEntity
  8
2
100
AcDbLine
 10
3603.0338776753
 20
2694.6949531928
 30
0.0
 11
3136.4269519476
 21
2694.6949531928
 31
0.0
  0
LINE
  5
18B
330
1F
100
AcDbEntity
  8
1
100
AcDbLine
 10
607.1698986101
 20
4173.3983953458
 30
0.0
 11
607.1698986101
 21
4728.3983953458
 31
0.0
  0
LINE
  5
18C
330
1F
100
AcDbEntity
  8
1
100
AcDbLine
 10
216.1698986101
 20
4728.3983953458
 30
0.0
 11
216.1698986101
 21
4173.3983953458
 31
0.0
  0
LINE
  5
18D
330
1F
100
AcDbEntity
  8
1
100
AcDbLine
 10
435.6698986101
 20
4105.8983953458
 30
0.0
 11
435.6698986101
 21
4173.3983953458
 31
0.0
  0
LINE
  5
18E
330
1F
100
AcDbEntity
  8
1
100
AcDbLine
 10
387.6698986101
 20
4173.3983953458
 30
0.0
 11
387.6698986101
 21
4105.8983953458
 31
0.0
  0
LINE
  5
18F
330
1F
100
AcDbEntity
  8
1
100
AcDbLine
 10
1111.6698986101
 20
5233.8983953458
 30
0.0
 11
1111.6698986101
 21
5231.5983953458
 31
0.0
  0
LINE
  5
190
330
1F
100
AcDbEntity
  8
1
100
AcDbLine
 10
2211.6698986101
 20
5231.5983953458
 30
0.0
 11
2211.6698986101
 21
5233.8983953458
 31
0.0
  0
LINE
  5
191
330
1F
100
AcDbEntity
  8
1
100
AcDbLine
 10
2211.6698986101
 20
5133.1983953458
 30
0.0
 11
2211.6698986101
 21
5133.8983953458
 31
0.0
  0
LINE
  5
192
330
1F
100
AcDbEntity
  8
1
100
AcDbLine
 10
1111.6698986101
 20
5133.8983953458
 30
0.0
 11
1111.6698986101
 21
5133.1983953458
 31
0.0
  0
LINE
  5
193
330
1F
100
AcDbEntity
  8
1
100
AcDbLine
 10
1159.3698986101
 20
5231.5983953458
 30
0.0
 11
1159.3698986101
 21
5133.8983953458
 31
0.0
  0
LINE
  5
194
330
1F
100
AcDbEntity
  8
1
100
AcDbLine
 10
2163.9698986101
 20
5133.8983953458
 30
0.0
 11
2163.9698986101
 21
5231.5983953458
 31
0.0
  0
LINE
  5
195
330
1F
100
AcDbEntity
  8
1
100
AcDbLine
 10
216.1698986101
 20
4173.3983953458
 30
0.0
 11
607.1698986101
 21
4173.3983953458
 31
0.0
  0
LINE
  5
196
330
1F
100
AcDbEntity
  8
1
100
AcDbLine
 10
607.1698986101
 20
4728.3983953458
 30
0.0
 11
216.1698986101
 21
4728.3983953458
 31
0.0
  0
LINE
  5
197
330
1F
100
AcDbEntity
  8
1
100
AcDbLine
 10
186.6698986101
 20
4619.8983953458
 30
0.0
 11
216.1698986101
 21
4619.8983953458
 31
0.0
  0
LINE
  5
198
330
1F
100
AcDbEntity
  8
1
100
AcDbLine
 10
607.1698986101
 20
4619.8983953458
 30
0.0
 11
636.6698986101
 21
4619.8983953458
 31
0.0
  0
LINE
  5
199
330
1F
100
AcDbEntity
  8
1
100
AcDbLine
 10
636.6698986101
 20
4619.8983953458
 30
0.0
 11
636.6698986101
 21
4209.8983953458
 31
0.0
  0
LINE
  5
19A
330
1F
100
AcDbEntity
  8
1
100
AcDbLine
 10
636.6698986101
 20
4209.8983953458
 30
0.0
 11
607.1698986101
 21
4209.8983953458
 31
0.0
  0
LINE
  5
19B
330
1F
100
AcDbEntity
  8
1
100
AcDbLine
 10
216.1698986101
 20
4209.8983953458
 30
0.0
 11
186.6698986101
 21
4209.8983953458
 31
0.0
  0
LINE
  5
19C
330
1F
100
AcDbEntity
  8
1
100
AcDbLine
 10
186.6698986101
 20
4209.8983953458
 30
0.0
 11
186.6698986101
 21
4619.8983953458
 31
0.0
  0
LINE
  5
19D
330
1F
100
AcDbEntity
  8
1
100
AcDbLine
 10
1606.6698986101
 20
3945.8983953458
 30
0.0
 11
1606.6698986101
 21
4105.8983953458
 31
0.0
  0
LINE
  5
19E
330
1F
100
AcDbEntity
  8
1
100
AcDbLine
 10
1606.6698986101
 20
3945.8983953458
 30
0.0
 11
231.6698986101
 21
3945.8983953458
 31
0.0
  0
LINE
  5
19F
330
1F
100
AcDbEntity
  8
1
100
AcDbLine
 10
231.6698986101
 20
3945.8983953458
 30
0.0
 11
231.6698986101
 21
4105.8983953458
 31
0.0
  0
LINE
  5
1A0
330
1F
100
AcDbEntity
  8
1
100
AcDbLine
 10
1606.6698986101
 20
4105.8983953458
 30
0.0
 11
231.6698986101
 21
4105.8983953458
 31
0.0
  0
LINE
  5
1A1
330
1F
100
AcDbEntity
  8
1
100
AcDbLine
 10
1981.6698986101
 20
3945.8983953458
 30
0.0
 11
1981.6698986101
 21
4105.8983953458
 31
0.0
  0
LINE
  5
1A2
330
1F
100
AcDbEntity
  8
1
100
AcDbLine
 10
1981.6698986101
 20
3945.8983953458
 30
0.0
 11
1606.6698986101
 21
3945.8983953458
 31
0.0
  0
LINE
  5
1A3
330
1F
100
AcDbEntity
  8
1
100
AcDbLine
 10
1981.6698986101
 20
4105.8983953458
 30
0.0
 11
1606.6698986101
 21
4105.8983953458
 31
0.0
  0
LINE
  5
1A4
330
1F
100
AcDbEntity
  8
1
100
AcDbLine
 10
216.1698986101
 20
4180.8983953458
 30
0.0
 11
146.6698986101
 21
4180.8983953458
 31
0.0
  0
LINE
  5
1A5
330
1F
100
AcDbEntity
  8
1
100
AcDbLine
 10
296.6698986101
 20
4105.8983953458
 30
0.0
 11
296.6698986101
 21
4173.3983953458
 31
0.0
  0
LINE
  5
1A6
330
1F
100
AcDbEntity
  8
1
100
AcDbLine
 10
146.6698986101
 20
4050.8983953458
 30
0.0
 11
231.6698986101
 21
4050.8983953458
 31
0.0
  0
LINE
  5
1A7
330
1F
100
AcDbEntity
  8
1
100
AcDbLine
 10
146.6698986101
 20
4180.8983953458
 30
0.0
 11
146.6698986101
 21
4050.8983953458
 31
0.0
  0
LINE
  5
1A8
330
1F
100
AcDbEntity
  8
1
100
AcDbLine
 10
2066.6698986101
 20
4050.8983953458
 30
0.0
 11
2066.6698986101
 21
4180.8983953458
 31
0.0
  0
LINE
  5
1A9
330
1F
100
AcDbEntity
  8
1
100
AcDbLine
 10
1981.6698986101
 20
4050.8983953458
 30
0.0
 11
2066.6698986101
 21
4050.8983953458
 31
0.0
  0
LINE
  5
1AA
330
1F
100
AcDbEntity
  8
1
100
AcDbLine
 10
2066.6698986101
 20
4180.8983953458
 30
0.0
 11
1916.6698986101
 21
4180.8983953458
 31
0.0
  0
LINE
  5
1AB
330
1F
100
AcDbEntity
  8
1
100
AcDbLine
 10
1916.6698986101
 20
4180.8983953458
 30
0.0
 11
1916.6698986101
 21
4105.8983953458
 31
0.0
  0
LINE
  5
1AC
330
1F
100
AcDbEntity
  8
1
100
AcDbLine
 10
2286.6698986101
 20
4138.8983953458
 30
0.0
 11
2286.6698986101
 21
4378.5983953458
 31
0.0
  0
LINE
  5
1AD
330
1F
100
AcDbEntity
  8
1
100
AcDbLine
 10
2286.6698986101
 20
5133.1983953458
 30
0.0
 11
2286.6698986101
 21
5198.8983953458
 31
0.0
  0
LINE
  5
1AE
330
1F
100
AcDbEntity
  8
1
100
AcDbLine
 10
2066.6698986101
 20
4138.8983953458
 30
0.0
 11
2286.6698986101
 21
4138.8983953458
 31
0.0
  0
LINE
  5
1AF
330
1F
100
AcDbEntity
  8
1
100
AcDbLine
 10
296.6698986101
 20
4138.8983953458
 30
0.0
 11
387.6698986101
 21
4138.8983953458
 31
0.0
  0
LINE
  5
1B0
330
1F
100
AcDbEntity
  8
1
100
AcDbLine
 10
435.6698986101
 20
4138.8983953458
 30
0.0
 11
1916.6698986101
 21
4138.8983953458
 31
0.0
  0
LINE
  5
1B1
330
1F
100
AcDbEntity
  8
1
100
AcDbLine
 10
607.1698986101
 20
4203.8983953458
 30
0.0
 11
2221.6698986101
 21
4203.8983953458
 31
0.0
  0
LINE
  5
1B2
330
1F
100
AcDbEntity
  8
1
100
AcDbLine
 10
2221.6698986101
 20
4203.8983953458
 30
0.0
 11
2221.6698986101
 21
4378.5983953458
 31
0.0
  0
LINE
  5
1B3
330
1F
100
AcDbEntity
  8
1
100
AcDbLine
 10
2221.6698986101
 20
5133.1983953458
 30
0.0
 11
2221.6698986101
 21
5133.8983953458
 31
0.0
  0
LINE
  5
1B4
330
1F
100
AcDbEntity
  8
1
100
AcDbLine
 10
2221.6698986101
 20
5133.8983953458
 30
0.0
 11
2211.6698986101
 21
5133.8983953458
 31
0.0
  0
LINE
  5
1B5
330
1F
100
AcDbEntity
  8
1
100
AcDbLine
 10
1111.6698986101
 20
5133.8983953458
 30
0.0
 11
231.6698986101
 21
5133.8983953458
 31
0.0
  0
LINE
  5
1B6
330
1F
100
AcDbEntity
  8
1
100
AcDbLine
 10
231.6698986101
 20
5133.8983953458
 30
0.0
 11
231.6698986101
 21
4728.3983953458
 31
0.0
  0
LINE
  5
1B7
330
1F
100
AcDbEntity
  8
1
100
AcDbLine
 10
2286.6698986101
 20
5198.8983953458
 30
0.0
 11
2163.9698986101
 21
5198.8983953458
 31
0.0
  0
LINE
  5
1B8
330
1F
100
AcDbEntity
  8
1
100
AcDbLine
 10
1159.3698986101
 20
5198.8983953458
 30
0.0
 11
166.6698986101
 21
5198.8983953458
 31
0.0
  0
LINE
  5
1B9
330
1F
100
AcDbEntity
  8
1
100
AcDbLine
 10
166.6698986101
 20
5198.8983953458
 30
0.0
 11
166.6698986101
 21
4180.8983953458
 31
0.0
  0
LINE
  5
1BA
330
1F
100
AcDbEntity
  8
1
100
AcDbLine
 10
2337.6698986101
 20
4327.8983953458
 30
0.0
 11
2341.6698986101
 21
4327.8983953458
 31
0.0
  0
LINE
  5
1BB
330
1F
100
AcDbEntity
  8
1
100
AcDbLine
 10
2337.6698986101
 20
5183.8983953458
 30
0.0
 11
2341.6698986101
 21
5183.8983953458
 31
0.0
  0
LINE
  5
1BC
330
1F
100
AcDbEntity
  8
1
100
AcDbLine
 10
2337.6698986101
 20
5183.8983953458
 30
0.0
 11
2337.6698986101
 21
4327.8983953458
 31
0.0
  0
LINE
  5
1BD
330
1F
100
AcDbEntity
  8
1
100
AcDbLine
 10
2341.6698986101
 20
5183.8983953458
 30
0.0
 11
2341.6698986101
 21
4327.8983953458
 31
0.0
  0
LINE
  5
1BE
330
1F
100
AcDbEntity
  8
1
100
AcDbLine
 10
2337.6698986101
 20
4378.5983953458
 30
0.0
 11
1651.5570331189
 21
4378.5983953458
 31
0.0
  0
LINE
  5
1BF
330
1F
100
AcDbEntity
  8
1
100
AcDbLine
 10
1651.5570331189
 20
4378.5983953458
 30
0.0
 11
1651.5570331189
 21
5133.1983953458
 31
0.0
  0
LINE
  5
1C0
330
1F
100
AcDbEntity
  8
1
100
AcDbLine
 10
2337.6698986101
 20
5133.1983953458
 30
0.0
 11
1651.5570331189
 21
5133.1983953458
 31
0.0
  0
LINE
  5
1C1
330
1F
100
AcDbEntity
  8
1
100
AcDbLine
 10
792.0698986101
 20
4378.5983953458
 30
0.0
 11
792.0698986101
 21
5133.1983953458
 31
0.0
  0
LINE
  5
1C2
330
1F
100
AcDbEntity
  8
1
100
AcDbLine
 10
1651.5570331189
 20
4378.5983953458
 30
0.0
 11
792.0698986101
 21
4378.5983953458
 31
0.0
  0
LINE
  5
1C3
330
1F
100
AcDbEntity
  8
1
100
AcDbLine
 10
1651.5570331189
 20
5133.1983953458
 30
0.0
 11
792.0698986101
 21
5133.1983953458
 31
0.0
  0
LINE
  5
1C4
330
1F
100
AcDbEntity
  8
1
100
AcDbLine
 10
1111.6698986101
 20
5231.5983953458
 30
0.0
 11
2211.6698986101
 21
5231.5983953458
 31
0.0
  0
LINE
  5
1C5
330
1F
100
AcDbEntity
  8
1
100
AcDbLine
 10
1111.6698986101
 20
5233.8983953458
 30
0.0
 11
2211.6698986101
 21
5233.8983953458
 31
0.0
  0
LINE
  5
1C6
330
1F
100
AcDbEntity
  8
1
100
AcDbLine
 10
2211.6698986101
 20
5133.8983953458
 30
0.0
 11
1111.6698986101
 21
5133.8983953458
 31
0.0
  0
LINE
  5
1C7
330
1F
100
AcDbEntity
  8
0
  6
HIDDEN
 62
     7
370
    18
100
AcDbLine
 10
302.2338442221
 20
4252.8983953458
 30
0.0
 11
316.9109940153
 21
4252.8983953458
 31
0.0
  0
LINE
  5
1C8
330
1F
100
AcDbEntity
  8
0
  6
HIDDEN
 62
     7
370
    18
100
AcDbLine
 10
302.2338442221
 20
4252.8983953458
 30
0.0
 11
302.2338442221
 21
4576.8983953458
 31
0.0
  0
LINE
  5
1C9
330
1F
100
AcDbEntity
  8
0
  6
HIDDEN
 62
     7
370
    18
100
AcDbLine
 10
302.2338442221
 20
4576.8983953458
 30
0.0
 11
316.9109940153
 21
4576.8983953458
 31
0.0
  0
LINE
  5
1CA
330
1F
100
AcDbEntity
  8
0
  6
HIDDEN
 62
     7
370
    18
100
AcDbLine
 10
316.9109940153
 20
4728.3983953458
 30
0.0
 11
316.9109940153
 21
4576.8983953458
 31
0.0
  0
LINE
  5
1CB
330
1F
100
AcDbEntity
  8
0
  6
HIDDEN
 62
     7
370
    18
100
AcDbLine
 10
506.4288032048
 20
4728.3983953458
 30
0.0
 11
506.4288032048
 21
4576.8983953458
 31
0.0
  0
LINE
  5
1CC
330
1F
100
AcDbEntity
  8
0
  6
HIDDEN
 62
     7
370
    18
100
AcDbLine
 10
506.4288032048
 20
4576.8983953458
 30
0.0
 11
521.105952998
 21
4576.8983953458
 31
0.0
  0
LINE
  5
1CD
330
1F
100
AcDbEntity
  8
0
  6
HIDDEN
 62
     7
370
    18
100
AcDbLine
 10
521.105952998
 20
4576.8983953458
 30
0.0
 11
521.105952998
 21
4252.8983953458
 31
0.0
  0
LINE
  5
1CE
330
1F
100
AcDbEntity
  8
0
  6
HIDDEN
 62
     7
370
    18
100
AcDbLine
 10
506.4288032048
 20
4252.8983953458
 30
0.0
 11
521.105952998
 21
4252.8983953458
 31
0.0
  0
LINE
  5
1CF
330
1F
100
AcDbEntity
  8
0
  6
HIDDEN
 62
     7
370
    18
100
AcDbLine
 10
506.4288032048
 20
4252.8983953458
 30
0.0
 11
506.4288032048
 21
4173.3983953458
 31
0.0
  0
LINE
  5
1D0
330
1F
100
AcDbEntity
  8
0
  6
HIDDEN
 62
     7
370
    18
100
AcDbLine
 10
316.9109940153
 20
4252.8983953458
 30
0.0
 11
316.9109940153
 21
4173.3983953458
 31
0.0
  0
LINE
  5
1D1
330
1F
100
AcDbEntity
  8
0
  6
HIDDEN
 62
     7
370
    18
100
AcDbLine
 10
554.6698986101
 20
4252.8983953458
 30
0.0
 11
521.105952998
 21
4252.8983953458
 31
0.0
  0
LINE
  5
1D2
330
1F
100
AcDbEntity
  8
0
  6
HIDDEN
 62
     7
370
    18
100
AcDbLine
 10
554.6698986101
 20
4576.8983953458
 30
0.0
 11
521.105952998
 21
4576.8983953458
 31
0.0
  0
LINE
  5
1D3
330
1F
100
AcDbEntity
  8
0
  6
HIDDEN
 62
     7
370
    18
100
AcDbLine
 10
554.6698986101
 20
4252.8983953458
 30
0.0
 11
554.6698986101
 21
4576.8983953458
 31
0.0
  0
LINE
  5
1D4
330
1F
100
AcDbEntity
  8
0
  6
HIDDEN
 62
     7
370
    18
100
AcDbLine
 10
302.2338442221
 20
4576.8983953458
 30
0.0
 11
268.6698986101
 21
4576.8983953458
 31
0.0
  0
LINE
  5
1D5
330
1F
100
AcDbEntity
  8
0
  6
HIDDEN
 62
     7
370
    18
100
AcDbLine
 10
302.2338442221
 20
4252.8983953458
 30
0.0
 11
268.6698986101
 21
4252.8983953458
 31
0.0
  0
LINE
  5
1D6
330
1F
100
AcDbEntity
  8
0
  6
HIDDEN
 62
     7
370
    18
100
AcDbLine
 10
268.6698986101
 20
4252.8983953458
 30
0.0
 11
268.6698986101
 21
4576.8983953458
 31
0.0
  0
LINE
  5
1D7
330
1F
100
AcDbEntity
  8
0
  6
HIDDEN
 62
     7
370
    18
100
AcDbLine
 10
316.9109940153
 20
4576.8983953458
 30
0.0
 11
506.4288032048
 21
4576.8983953458
 31
0.0
  0
LINE
  5
1D8
330
1F
100
AcDbEntity
  8
0
  6
HIDDEN
 62
     7
370
    18
100
AcDbLine
 10
316.9109940153
 20
4252.8983953458
 30
0.0
 11
506.4288032048
 21
4252.8983953458
 31
0.0
  0
LINE
  5
1D9
330
1F
100
AcDbEntity
  8
0
  6
HIDDEN
 62
     7
370
    18
100
AcDbLine
 10
216.1698986101
 20
4619.8983953458
 30
0.0
 11
607.1698986101
 21
4619.8983953458
 31
0.0
  0
LINE
  5
1DA
330
1F
100
AcDbEntity
  8
0
  6
HIDDEN
 62
     7
370
    18
100
AcDbLine
 10
607.1698986101
 20
4209.8983953458
 30
0.0
 11
216.1698986101
 21
4209.8983953458
 31
0.0
  0
LINE
  5
1DB
330
1F
100
AcDbEntity
  8
0
  6
HIDDEN
 62
     7
370
    18
100
AcDbLine
 10
336.6698986101
 20
3988.3983953458
 30
0.0
 11
486.6698986101
 21
3988.3983953458
 31
0.0
  0
LINE
  5
1DC
330
1F
100
AcDbEntity
  8
0
  6
HIDDEN
 62
     7
370
    18
100
AcDbLine
 10
336.6698986101
 20
4063.3983953458
 30
0.0
 11
486.6698986101
 21
4063.3983953458
 31
0.0
  0
LINE
  5
1DD
330
1F
100
AcDbEntity
  8
0
  6
HIDDEN
 62
     7
370
    18
100
AcDbLine
 10
1662.4304923429
 20
3988.3983953458
 30
0.0
 11
1811.6698986101
 21
3988.3983953458
 31
0.0
  0
LINE
  5
1DE
330
1F
100
AcDbEntity
  8
0
  6
HIDDEN
 62
     7
370
    18
100
AcDbLine
 10
1511.6698986101
 20
3988.3983953458
 30
0.0
 11
1662.4304923429
 21
3988.3983953458
 31
0.0
  0
LINE
  5
1DF
330
1F
100
AcDbEntity
  8
0
  6
HIDDEN
 62
     7
370
    18
100
AcDbLine
 10
1662.4304923429
 20
4063.3983953458
 30
0.0
 11
1811.6698986101
 21
4063.3983953458
 31
0.0
  0
LINE
  5
1E0
330
1F
100
AcDbEntity
  8
0
  6
HIDDEN
 62
     7
370
    18
100
AcDbLine
 10
1511.6698986101
 20
4063.3983953458
 30
0.0
 11
1662.4304923429
 21
4063.3983953458
 31
0.0
  0
CIRCLE
  5
1E1
330
1F
100
AcDbEntity
  8
0
  6
HIDDEN
 62
     7
370
    18
100
AcDbCircle
 10
266.6698986101
 20
5168.8983953458
 30
0.0
 40
9.0
  0
CIRCLE
  5
1E2
330
1F
100
AcDbEntity
  8
0
  6
HIDDEN
 62
     7
370
    18
100
AcDbCircle
 10
906.6698986101
 20
5168.8983953458
 30
0.0
 40
9.0
  0
CIRCLE
  5
1E3
330
1F
100
AcDbEntity
  8
0
  6
HIDDEN
 62
     7
370
    18
100
AcDbCircle
 10
1546.6698986101
 20
5168.8983953458
 30
0.0
 40
9.0
  0
CIRCLE
  5
1E4
330
1F
100
AcDbEntity
  8
0
  6
HIDDEN
 62
     7
370
    18
100
AcDbCircle
 10
2186.6698986101
 20
5168.8983953458
 30
0.0
 40
9.0
  0
CIRCLE
  5
1E5
330
1F
100
AcDbEntity
  8
0
  6
HIDDEN
 62
     7
370
    18
100
AcDbCircle
 10
2186.6698986101
 20
4168.8983953458
 30
0.0
 40
9.0
  0
CIRCLE
  5
1E6
330
1F
100
AcDbEntity
  8
0
  6
HIDDEN
 62
     7
370
    18
100
AcDbCircle
 10
1546.6698986101
 20
4168.8983953458
 30
0.0
 40
9.0
  0
CIRCLE
  5
1E7
330
1F
100
AcDbEntity
  8
0
  6
HIDDEN
 62
     7
370
    18
100
AcDbCircle
 10
906.6698986101
 20
4168.8983953458
 30
0.0
 40
9.0
  0
CIRCLE
  5
1E8
330
1F
100
AcDbEntity
  8
0
  6
HIDDEN
 62
     7
370
    18
100
AcDbCircle
 10
266.6698986101
 20
4168.8983953458
 30
0.0
 40
9.0
  0
LINE
  5
1E9
330
1F
100
AcDbEntity
  8
0
  6
HIDDEN
 62
     7
370
    18
100
AcDbLine
 10
296.6698986101
 20
4180.8983953458
 30
0.0
 11
216.1698986101
 21
4180.8983953458
 31
0.0
  0
LINE
  5
1EA
330
1F
100
AcDbEntity
  8
0
  6
HIDDEN
 62
     7
370
    18
100
AcDbLine
 10
296.6698986101
 20
4050.8983953458
 30
0.0
 11
296.6698986101
 21
4105.8983953458
 31
0.0
  0
LINE
  5
1EB
330
1F
100
AcDbEntity
  8
0
  6
HIDDEN
 62
     7
370
    18
100
AcDbLine
 10
296.6698986101
 20
4173.3983953458
 30
0.0
 11
296.6698986101
 21
4180.8983953458
 31
0.0
  0
LINE
  5
1EC
330
1F
100
AcDbEntity
  8
0
  6
HIDDEN
 62
     7
370
    18
100
AcDbLine
 10
231.6698986101
 20
4050.8983953458
 30
0.0
 11
296.6698986101
 21
4050.8983953458
 31
0.0
  0
LINE
  5
1ED
330
1F
100
AcDbEntity
  8
0
  6
HIDDEN
 62
     7
370
    18
100
AcDbLine
 10
1916.6698986101
 20
4050.8983953458
 30
0.0
 11
1981.6698986101
 21
4050.8983953458
 31
0.0
  0
LINE
  5
1EE
330
1F
100
AcDbEntity
  8
0
  6
HIDDEN
 62
     7
370
    18
100
AcDbLine
 10
1916.6698986101
 20
4105.8983953458
 30
0.0
 11
1916.6698986101
 21
4050.8983953458
 31
0.0
  0
LINE
  5
1EF
330
1F
100
AcDbEntity
  8
0
  6
HIDDEN
 62
     7
370
    18
100
AcDbLine
 10
2286.6698986101
 20
4378.5983953458
 30
0.0
 11
2286.6698986101
 21
5133.1983953458
 31
0.0
  0
LINE
  5
1F0
330
1F
100
AcDbEntity
  8
0
  6
HIDDEN
 62
     7
370
    18
100
AcDbLine
 10
387.6698986101
 20
4138.8983953458
 30
0.0
 11
435.6698986101
 21
4138.8983953458
 31
0.0
  0
LINE
  5
1F1
330
1F
100
AcDbEntity
  8
0
  6
HIDDEN
 62
     7
370
    18
100
AcDbLine
 10
231.6698986101
 20
4203.8983953458
 30
0.0
 11
607.1698986101
 21
4203.8983953458
 31
0.0
  0
LINE
  5
1F2
330
1F
100
AcDbEntity
  8
0
  6
HIDDEN
 62
     7
370
    18
100
AcDbLine
 10
2221.6698986101
 20
4378.5983953458
 30
0.0
 11
2221.6698986101
 21
5133.1983953458
 31
0.0
  0
LINE
  5
1F3
330
1F
100
AcDbEntity
  8
0
  6
HIDDEN
 62
     7
370
    18
100
AcDbLine
 10
231.6698986101
 20
4728.3983953458
 30
0.0
 11
231.6698986101
 21
4203.8983953458
 31
0.0
  0
LINE
  5
1F4
330
1F
100
AcDbEntity
  8
0
  6
HIDDEN
 62
     7
370
    18
100
AcDbLine
 10
2163.9698986101
 20
5198.8983953458
 30
0.0
 11
1159.3698986101
 21
5198.8983953458
 31
0.0
  0
LINE
  5
1F5
330
1F
100
AcDbEntity
  8
0
  6
HIDDEN
 62
     7
370
    18
100
AcDbLine
 10
166.6698986101
 20
4180.8983953458
 30
0.0
 11
166.6698986101
 21
4138.8983953458
 31
0.0
  0
LINE
  5
1F6
330
1F
100
AcDbEntity
  8
0
  6
HIDDEN
 62
     7
370
    18
100
AcDbLine
 10
1916.6698986101
 20
4138.8983953458
 30
0.0
 11
2066.6698986101
 21
4138.8983953458
 31
0.0
  0
LINE
  5
1F7
330
1F
100
AcDbEntity
  8
0
  6
HIDDEN
 62
     7
370
    18
100
AcDbLine
 10
166.6698986101
 20
4138.8983953458
 30
0.0
 11
296.6698986101
 21
4138.8983953458
 31
0.0
  0
LINE
  5
1F8
330
1F
100
AcDbEntity
  8
0
  6
HIDDEN
 62
     7
370
    18
100
AcDbLine
 10
2227.6698986101
 20
5139.8983953458
 30
0.0
 11
225.6698986101
 21
5139.8983953458
 31
0.0
  0
LINE
  5
1F9
330
1F
100
AcDbEntity
  8
0
  6
HIDDEN
 62
     7
370
    18
100
AcDbLine
 10
2227.6698986101
 20
4197.8983953458
 30
0.0
 11
2227.6698986101
 21
5139.8983953458
 31
0.0
  0
LINE
  5
1FA
330
1F
100
AcDbEntity
  8
0
  6
HIDDEN
 62
     7
370
    18
100
AcDbLine
 10
225.6698986101
 20
5139.8983953458
 30
0.0
 11
225.6698986101
 21
4197.8983953458
 31
0.0
  0
LINE
  5
1FB
330
1F
100
AcDbEntity
  8
0
  6
HIDDEN
 62
     7
370
    18
100
AcDbLine
 10
225.6698986101
 20
4197.8983953458
 30
0.0
 11
2227.6698986101
 21
4197.8983953458
 31
0.0
  0
CIRCLE
  5
1FC
330
1F
100
AcDbEntity
  8
0
  6
HIDDEN
 62
     7
370
    18
100
AcDbCircle
 10
2221.6698986101
 20
5166.3983953458
 30
0.0
 40
17.50000000000091
  0
CIRCLE
  5
1FD
330
1F
100
AcDbEntity
  8
0
  6
HIDDEN
 62
     7
370
    18
100
AcDbCircle
 10
231.6698986101
 20
5166.3983953458
 30
0.0
 40
17.50000000000091
  0
CIRCLE
  5
1FE
330
1F
100
AcDbEntity
  8
0
  6
HIDDEN
 62
     7
370
    18
100
AcDbCircle
 10
2221.6698986101
 20
4171.3983953458
 30
0.0
 40
17.5
  0
CIRCLE
  5
1FF
330
1F
100
AcDbEntity
  8
0
  6
HIDDEN
 62
     7
370
    18
100
AcDbCircle
 10
231.6698986101
 20
4171.3983953458
 30
0.0
 40
17.5
  0
LINE
  5
200
330
1F
100
AcDbEntity
  8
0
  6
HIDDEN
 62
     7
370
    18
100
AcDbLine
 10
2341.6698986101
 20
5130.8983953458
 30
0.0
 11
1651.6996577318
 21
5130.8983953458
 31
0.0
  0
LINE
  5
201
330
1F
100
AcDbEntity
  8
0
  6
HIDDEN
 62
     7
370
    18
100
AcDbLine
 10
2341.6698986101
 20
4380.8983953458
 30
0.0
 11
1651.6996577318
 21
4380.8983953458
 31
0.0
  0
LINE
  5
202
330
1F
100
AcDbEntity
  8
0
  6
HIDDEN
 62
     7
370
    18
100
AcDbLine
 10
793.6698986101
 20
4380.8983953458
 30
0.0
 11
793.6698986101
 21
5130.8983953458
 31
0.0
  0
LINE
  5
203
330
1F
100
AcDbEntity
  8
0
  6
HIDDEN
 62
     7
370
    18
100
AcDbLine
 10
1651.6996577318
 20
4380.8983953458
 30
0.0
 11
793.6698986101
 21
4380.8983953458
 31
0.0
  0
LINE
  5
204
330
1F
100
AcDbEntity
  8
0
  6
HIDDEN
 62
     7
370
    18
100
AcDbLine
 10
1651.6996577318
 20
4380.8983953458
 30
0.0
 11
1651.6996577318
 21
5130.8983953458
 31
0.0
  0
LINE
  5
205
330
1F
100
AcDbEntity
  8
0
  6
HIDDEN
 62
     7
370
    18
100
AcDbLine
 10
1651.6996577318
 20
5130.8983953458
 30
0.0
 11
793.6698986101
 21
5130.8983953458
 31
0.0
  0
LINE
  5
206
330
1F
100
AcDbEntity
  8
0
  6
HIDDEN
 62
     7
370
    18
100
AcDbLine
 10
1587.6698986101
 20
4378.5983953458
 30
0.0
 11
1587.6698986101
 21
5133.1983953458
 31
0.0
  0
LINE
  5
207
330
1F
100
AcDbEntity
  8
0
  6
HIDDEN
 62
     7
370
    18
100
AcDbLine
 10
1587.6698986101
 20
4380.8983953458
 30
0.0
 11
1587.6698986101
 21
5130.8983953458
 31
0.0
  0
LINE
  5
208
330
1F
100
AcDbEntity
  8
0
  6
HIDDEN
 62
     7
370
    18
100
AcDbLine
 10
2260.6698986101
 20
4380.8983953458
 30
0.0
 11
2260.6698986101
 21
5130.8983953458
 31
0.0
  0
LINE
  5
209
330
1F
100
AcDbEntity
  8
0
  6
HIDDEN
 62
     7
370
    18
100
AcDbLine
 10
2262.2698986101
 20
4378.5983953458
 30
0.0
 11
2262.2698986101
 21
5133.1983953458
 31
0.0
  0
LINE
  5
20A
330
1F
100
AcDbEntity
  8
0
  6
HIDDEN
 62
     7
370
    18
100
AcDbLine
 10
1601.1698986101
 20
4378.5983953458
 30
0.0
 11
1601.1698986101
 21
5133.1983953458
 31
0.0
  0
LINE
  5
20B
330
1F
100
AcDbEntity
  8
0
  6
HIDDEN
 62
     7
370
    18
100
AcDbLine
 10
1601.1698986101
 20
4380.8983953458
 30
0.0
 11
1601.1698986101
 21
5130.8983953458
 31
0.0
  0
LINE
  5
20C
330
1F
100
AcDbEntity
  8
0
  6
HIDDEN
 62
     7
370
    18
100
AcDbLine
 10
435.6698986101
 20
4063.3983953458
 30
0.0
 11
435.6698986101
 21
4105.8983953458
 31
0.0
  0
LINE
  5
20D
330
1F
100
AcDbEntity
  8
0
  6
HIDDEN
 62
     7
370
    18
100
AcDbLine
 10
387.6698986101
 20
4105.8983953458
 30
0.0
 11
387.6698986101
 21
4063.3983953458
 31
0.0
  0
LINE
  5
20E
330
1F
100
AcDbEntity
  8
0
  6
HIDDEN
 62
     7
370
    18
100
AcDbLine
 10
486.6698986101
 20
3988.3983953458
 30
0.0
 11
486.6698986101
 21
4063.3983953458
 31
0.0
  0
LINE
  5
20F
330
1F
100
AcDbEntity
  8
0
  6
HIDDEN
 62
     7
370
    18
100
AcDbLine
 10
336.6698986101
 20
4063.3983953458
 30
0.0
 11
336.6698986101
 21
3988.3983953458
 31
0.0
  0
LINE
  5
210
330
1F
100
AcDbEntity
  8
0
  6
HIDDEN
 62
     7
370
    18
100
AcDbLine
 10
1811.6698986101
 20
3988.3983953458
 30
0.0
 11
1811.6698986101
 21
4063.3983953458
 31
0.0
  0
LINE
  5
211
330
1F
100
AcDbEntity
  8
0
  6
HIDDEN
 62
     7
370
    18
100
AcDbLine
 10
1511.6698986101
 20
4063.3983953458
 30
0.0
 11
1511.6698986101
 21
3988.3983953458
 31
0.0
  0
LINE
  5
212
330
1F
100
AcDbEntity
  8
0
  6
HIDDEN
 62
     7
370
    18
100
AcDbLine
 10
2341.6698986101
 20
5169.8983953458
 30
0.0
 11
2337.6698986101
 21
5169.8983953458
 31
0.0
  0
LINE
  5
213
330
1F
100
AcDbEntity
  8
0
  6
HIDDEN
 62
     7
370
    18
100
AcDbLine
 10
2337.6698986101
 20
5157.8983953458
 30
0.0
 11
2341.6698986101
 21
5157.8983953458
 31
0.0
  0
LINE
  5
214
330
1F
100
AcDbEntity
  8
0
  6
HIDDEN
 62
     7
370
    18
100
AcDbLine
 10
2341.6698986101
 20
5061.8983953458
 30
0.0
 11
2337.6698986101
 21
5061.8983953458
 31
0.0
  0
LINE
  5
215
330
1F
100
AcDbEntity
  8
0
  6
HIDDEN
 62
     7
370
    18
100
AcDbLine
 10
2337.6698986101
 20
5049.8983953458
 30
0.0
 11
2341.6698986101
 21
5049.8983953458
 31
0.0
  0
LINE
  5
216
330
1F
100
AcDbEntity
  8
0
  6
HIDDEN
 62
     7
370
    18
100
AcDbLine
 10
2341.6698986101
 20
4861.8983953458
 30
0.0
 11
2337.6698986101
 21
4861.8983953458
 31
0.0
  0
LINE
  5
217
330
1F
100
AcDbEntity
  8
0
  6
HIDDEN
 62
     7
370
    18
100
AcDbLine
 10
2337.6698986101
 20
4849.8983953458
 30
0.0
 11
2341.6698986101
 21
4849.8983953458
 31
0.0
  0
LINE
  5
218
330
1F
100
AcDbEntity
  8
0
  6
HIDDEN
 62
     7
370
    18
100
AcDbLine
 10
2341.6698986101
 20
4661.8983953458
 30
0.0
 11
2337.6698986101
 21
4661.8983953458
 31
0.0
  0
LINE
  5
219
330
1F
100
AcDbEntity
  8
0
  6
HIDDEN
 62
     7
370
    18
100
AcDbLine
 10
2337.6698986101
 20
4649.8983953458
 30
0.0
 11
2341.6698986101
 21
4649.8983953458
 31
0.0
  0
LINE
  5
21A
330
1F
100
AcDbEntity
  8
0
  6
HIDDEN
 62
     7
370
    18
100
AcDbLine
 10
2341.6698986101
 20
4461.8983953458
 30
0.0
 11
2337.6698986101
 21
4461.8983953458
 31
0.0
  0
LINE
  5
21B
330
1F
100
AcDbEntity
  8
0
  6
HIDDEN
 62
     7
370
    18
100
AcDbLine
 10
2337.6698986101
 20
4449.8983953458
 30
0.0
 11
2341.6698986101
 21
4449.8983953458
 31
0.0
  0
LINE
  5
21C
330
1F
100
AcDbEntity
  8
0
  6
HIDDEN
 62
     7
370
    18
100
AcDbLine
 10
2341.6698986101
 20
4353.8983953458
 30
0.0
 11
2337.6698986101
 21
4353.8983953458
 31
0.0
  0
LINE
  5
21D
330
1F
100
AcDbEntity
  8
0
  6
HIDDEN
 62
     7
370
    18
100
AcDbLine
 10
2337.6698986101
 20
4341.8983953458
 30
0.0
 11
2341.6698986101
 21
4341.8983953458
 31
0.0
  0
LINE
  5
21E
330
1F
100
AcDbEntity
  8
0
  6
HIDDEN
 62
     7
370
    18
100
AcDbLine
 10
1552.7597537466
 20
5233.8983953458
 30
0.0
 11
1552.7597537466
 21
5231.5983953458
 31
0.0
  0
LINE
  5
21F
330
1F
100
AcDbEntity
  8
0
  6
HIDDEN
 62
     7
370
    18
100
AcDbLine
 10
1564.7597537466
 20
5231.5983953458
 30
0.0
 11
1564.7597537466
 21
5233.8983953458
 31
0.0
  0
LINE
  5
220
330
1F
100
AcDbEntity
  8
0
  6
HIDDEN
 62
     7
370
    18
100
AcDbLine
 10
1758.5800434736
 20
5233.8983953458
 30
0.0
 11
1758.5800434736
 21
5231.5983953458
 31
0.0
  0
LINE
  5
221
330
1F
100
AcDbEntity
  8
0
  6
HIDDEN
 62
     7
370
    18
100
AcDbLine
 10
1770.5800434736
 20
5231.5983953458
 30
0.0
 11
1770.5800434736
 21
5233.8983953458
 31
0.0
  0
LINE
  5
222
330
1F
100
AcDbEntity
  8
0
  6
HIDDEN
 62
     7
370
    18
100
AcDbLine
 10
2161.6698986101
 20
5130.8983953458
 30
0.0
 11
2161.6698986101
 21
5233.8983953458
 31
0.0
  0
LINE
  5
223
330
1F
100
AcDbEntity
  8
0
  6
HIDDEN
 62
     7
370
    18
100
AcDbLine
 10
1161.6698986101
 20
5233.8983953458
 30
0.0
 11
1161.6698986101
 21
5130.8983953458
 31
0.0
  0
LINE
  5
224
330
1F
100
AcDbEntity
  8
0
  6
HIDDEN
 62
     7
370
    18
100
AcDbLine
 10
1948.7331965279
 20
5233.8983953458
 30
0.0
 11
1948.7331965279
 21
5231.5983953458
 31
0.0
  0
LINE
  5
225
330
1F
100
AcDbEntity
  8
0
  6
HIDDEN
 62
     7
370
    18
100
AcDbLine
 10
1960.7331965279
 20
5231.5983953458
 30
0.0
 11
1960.7331965279
 21
5233.8983953458
 31
0.0
  0
LINE
  5
226
330
1F
100
AcDbEntity
  8
0
  6
HIDDEN
 62
     7
370
    18
100
AcDbLine
 10
1362.6066006922
 20
5233.8983953458
 30
0.0
 11
1362.6066006922
 21
5231.5983953458
 31
0.0
  0
LINE
  5
227
330
1F
100
AcDbEntity
  8
0
  6
HIDDEN
 62
     7
370
    18
100
AcDbLine
 10
1374.6066006922
 20
5231.5983953458
 30
0.0
 11
1374.6066006922
 21
5233.8983953458
 31
0.0
  0
LINE
  5
228
330
1F
100
AcDbEntity
  8
0
  6
HIDDEN
 62
     7
370
    18
100
AcDbLine
 10
2094.2701190997
 20
5233.8983953458
 30
0.0
 11
2094.2701190997
 21
5231.5983953458
 31
0.0
  0
LINE
  5
229
330
1F
100
AcDbEntity
  8
0
  6
HIDDEN
 62
     7
370
    18
100
AcDbLine
 10
2106.2701190997
 20
5231.5983953458
 30
0.0
 11
2106.2701190997
 21
5233.8983953458
 31
0.0
  0
LINE
  5
22A
330
1F
100
AcDbEntity
  8
0
  6
HIDDEN
 62
     7
370
    18
100
AcDbLine
 10
1217.0696781205
 20
5233.8983953458
 30
0.0
 11
1217.0696781205
 21
5231.5983953458
 31
0.0
  0
LINE
  5
22B
330
1F
100
AcDbEntity
  8
0
  6
HIDDEN
 62
     7
370
    18
100
AcDbLine
 10
1229.0696781205
 20
5231.5983953458
 30
0.0
 11
1229.0696781205
 21
5233.8983953458
 31
0.0
  0
LINE
  5
22C
330
1F
100
AcDbEntity
  8
0
  6
HIDDEN
 62
     7
370
    18
100
AcDbLine
 10
2173.0341340228
 20
5233.8983953458
 30
0.0
 11
2173.0341340228
 21
5231.5983953458
 31
0.0
  0
LINE
  5
22D
330
1F
100
AcDbEntity
  8
0
  6
HIDDEN
 62
     7
370
    18
100
AcDbLine
 10
2185.0341340228
 20
5231.5983953458
 30
0.0
 11
2185.0341340228
 21
5233.8983953458
 31
0.0
  0
LINE
  5
22E
330
1F
100
AcDbEntity
  8
0
  6
HIDDEN
 62
     7
370
    18
100
AcDbLine
 10
1138.3056631974
 20
5233.8983953458
 30
0.0
 11
1138.3056631974
 21
5231.5983953458
 31
0.0
  0
LINE
  5
22F
330
1F
100
AcDbEntity
  8
0
  6
HIDDEN
 62
     7
370
    18
100
AcDbLine
 10
1150.3056631974
 20
5231.5983953458
 30
0.0
 11
1150.3056631974
 21
5233.8983953458
 31
0.0
  0
CIRCLE
  5
230
330
1F
100
AcDbEntity
  8
基礎穴
100
AcDbCircle
 10
266.6698986101
 20
4168.8983953458
 30
0.0
 40
9.000000000000036
  0
CIRCLE
  5
231
330
1F
100
AcDbEntity
  8
基礎穴
100
AcDbCircle
 10
906.6698986101
 20
4168.8983953458
 30
0.0
 40
8.999999999999872
  0
CIRCLE
  5
232
330
1F
100
AcDbEntity
  8
基礎穴
100
AcDbCircle
 10
1546.6698986101
 20
4168.8983953458
 30
0.0
 40
9.000000000000089
  0
CIRCLE
  5
233
330
1F
100
AcDbEntity
  8
基礎穴
100
AcDbCircle
 10
2186.6698986101
 20
4168.8983953458
 30
0.0
 40
9.000000000000139
  0
CIRCLE
  5
234
330
1F
100
AcDbEntity
  8
基礎穴
100
AcDbCircle
 10
2186.6698986101
 20
5168.8983953458
 30
0.0
 40
8.999999999999872
  0
CIRCLE
  5
235
330
1F
100
AcDbEntity
  8
基礎穴
100
AcDbCircle
 10
1546.6698986101
 20
5168.8983953458
 30
0.0
 40
9.000000000000089
  0
CIRCLE
  5
236
330
1F
100
AcDbEntity
  8
基礎穴
100
AcDbCircle
 10
906.6698986101
 20
5168.8983953458
 30
0.0
 40
9.000000000000355
  0
CIRCLE
  5
237
330
1F
100
AcDbEntity
  8
基礎穴
100
AcDbCircle
 10
266.6698986101
 20
5168.8983953458
 30
0.0
 40
9.000000000000139
  0
LINE
  5
238
330
1F
100
AcDbEntity
  8
2
100
AcDbLine
 10
1661.6698986101
 20
4214.7955759903
 30
0.0
 11
1661.6698986101
 21
4984.5300457611
 31
0.0
  0
LINE
  5
239
330
1F
100
AcDbEntity
  8
2
100
AcDbLine
 10
1927.8373580591
 20
4755.8983953458
 30
0.0
 11
1020.5074916917
 21
4755.8983953458
 31
0.0
  0
ENDSEC
  0
SECTION
  2
OBJECTS
  0
DICTIONARY
  5
C
330
0
100
AcDbDictionary
281
     1
  3
ACAD_GROUP
350
D
  3
ACAD_LAYOUT
350
1A
  3
ACAD_MLINESTYLE
350
17
  3
ACAD_PLOTSETTINGS
350
19
  3
ACAD_PLOTSTYLENAME
350
E
  3
ACAD_SCALELIST
350
47
  3
DWGPROPS
350
23A
  0
DICTIONARY
  5
D
102
{ACAD_REACTORS
330
C
102
}
330
C
100
AcDbDictionary
281
     1
  0
DICTIONARY
  5
1A
102
{ACAD_REACTORS
330
C
102
}
330
C
100
AcDbDictionary
281
     1
  3
Layout1
350
1E
  3
Layout2
350
26
  3
Model
350
22
  0
DICTIONARY
  5
17
102
{ACAD_REACTORS
330
C
102
}
330
C
100
AcDbDictionary
281
     1
  3
Standard
350
18
  0
DICTIONARY
  5
19
102
{ACAD_REACTORS
330
C
102
}
330
C
100
AcDbDictionary
281
     1
  0
ACDBDICTIONARYWDFLT
  5
E
102
{ACAD_REACTORS
330
C
102
}
330
C
100
AcDbDictionary
281
     1
  3
Normal
350
F
100
AcDbDictionaryWithDefault
340
F
  0
DICTIONARY
  5
47
102
{ACAD_REACTORS
330
C
102
}
330
C
100
AcDbDictionary
281
     1
  3
A0
350
48
  3
A1
350
49
  3
A2
350
4A
  3
A3
350
4B
  3
A4
350
4C
  3
A5
350
4D
  3
A6
350
4E
  3
A7
350
4F
  3
A8
350
50
  3
A9
350
51
  3
B0
350
52
  3
B1
350
53
  3
B2
350
54
  3
B3
350
55
  3
B4
350
56
  3
B5
350
57
  3
B6
350
58
  0
XRECORD
  5
23A
102
{ACAD_REACTORS
330
C
102
}
330
C
100
AcDbXrecord
280
     1
  1
DWGPROPS COOKIE
  2

  3

  4

  6

  7

  8
yuta.kunimatsu
  9

300
=
301
=
302
=
303
=
304
=
305
=
306
=
307
=
308
=
309
=
 40
0.0
 41
2460174.415719711
 42
2460174.415722685
  1

 90
        0
  0
LAYOUT
  5
1E
102
{ACAD_REACTORS
330
1A
102
}
330
1A
100
AcDbPlotSettings
  1

  2
none_device
  4

  6

 40
0.0
 41
0.0
 42
0.0
 43
0.0
 44
0.0
 45
0.0
 46
0.0
 47
0.0
 48
0.0
 49
0.0
140
0.0
141
0.0
142
1.0
143
1.0
 70
   688
 72
     1
 73
     0
 74
     5
  7

 75
    16
147
1.0
148
0.0
149
0.0
100
AcDbLayout
  1
Layout1
 70
     1
 71
     1
 10
0.0
 20
0.0
 11
420.0
 21
297.0
 12
0.0
 22
0.0
 32
0.0
 14
1.0000000000E+20
 24
1.0000000000E+20
 34
1.0000000000E+20
 15
-1.0000000000E+20
 25
-1.0000000000E+20
 35
-1.0000000000E+20
146
0.0
 13
0.0
 23
0.0
 33
0.0
 16
1.0
 26
0.0
 36
0.0
 17
0.0
 27
1.0
 37
0.0
 76
     0
330
1B
  0
LAYOUT
  5
26
102
{ACAD_REACTORS
330
1A
102
}
330
1A
100
AcDbPlotSettings
  1

  2
none_device
  4

  6

 40
0.0
 41
0.0
 42
0.0
 43
0.0
 44
0.0
 45
0.0
 46
0.0
 47
0.0
 48
0.0
 49
0.0
140
0.0
141
0.0
142
1.0
143
1.0
 70
   688
 72
     1
 73
     0
 74
     5
  7

 75
    16
147
1.0
148
0.0
149
0.0
100
AcDbLayout
  1
Layout2
 70
     1
 71
     2
 10
0.0
 20
0.0
 11
0.0
 21
0.0
 12
0.0
 22
0.0
 32
0.0
 14
0.0
 24
0.0
 34
0.0
 15
0.0
 25
0.0
 35
0.0
146
0.0
 13
0.0
 23
0.0
 33
0.0
 16
1.0
 26
0.0
 36
0.0
 17
0.0
 27
1.0
 37
0.0
 76
     0
330
23
  0
LAYOUT
  5
22
102
{ACAD_REACTORS
330
1A
102
}
330
1A
100
AcDbPlotSettings
  1

  2
none_device
  4
Letter_(8.50_x_11.00_Inches)
  6

 40
6.35
 41
6.35
 42
6.35000508
 43
6.35000508
 44
215.9
 45
279.4
 46
0.0
 47
0.0
 48
0.0
 49
0.0
140
0.0
141
0.0
142
1.0
143
1.0
 70
  1712
 72
     1
 73
     0
 74
     0
  7

 75
     0
147
1.0
148
0.0
149
0.0
100
AcDbLayout
  1
Model
 70
     1
 71
     0
 10
0.0
 20
0.0
 11
4200.0
 21
5940.0
 12
0.0
 22
0.0
 32
0.0
 14
0.0
 24
0.0
 34
0.0
 15
4200.0
 25
5940.0
 35
0.0
146
0.0
 13
0.0
 23
0.0
 33
0.0
 16
1.0
 26
0.0
 36
0.0
 17
0.0
 27
1.0
 37
0.0
 76
     0
330
1F
331
29
  0
MLINESTYLE
  5
18
102
{ACAD_REACTORS
330
17
102
}
330
17
100
AcDbMlineStyle
  2
Standard
 70
     0
  3

 62
   256
 51
90.0
 52
90.0
 71
     2
 49
0.5
 62
   256
  6
BYLAYER
 49
-0.5
 62
   256
  6
BYLAYER
  0
ACDBPLACEHOLDER
  5
F
102
{ACAD_REACTORS
330
E
102
}
330
E
  0
SCALE
  5
48
102
{ACAD_REACTORS
330
47
102
}
330
47
100
AcDbScale
 70
     0
300
1:1
140
1.0
141
1.0
290
     1
  0
SCALE
  5
49
102
{ACAD_REACTORS
330
47
102
}
330
47
100
AcDbScale
 70
     0
300
1:2
140
1.0
141
2.0
290
     0
  0
SCALE
  5
4A
102
{ACAD_REACTORS
330
47
102
}
330
47
100
AcDbScale
 70
     0
300
1:4
140
1.0
141
4.0
290
     0
  0
SCALE
  5
4B
102
{ACAD_REACTORS
330
47
102
}
330
47
100
AcDbScale
 70
     0
300
1:5
140
1.0
141
5.0
290
     0
  0
SCALE
  5
4C
102
{ACAD_REACTORS
330
47
102
}
330
47
100
AcDbScale
 70
     0
300
1:8
140
1.0
141
8.0
290
     0
  0
SCALE
  5
4D
102
{ACAD_REACTORS
330
47
102
}
330
47
100
AcDbScale
 70
     0
300
1:10
140
1.0
141
10.0
290
     0
  0
SCALE
  5
4E
102
{ACAD_REACTORS
330
47
102
}
330
47
100
AcDbScale
 70
     0
300
1:16
140
1.0
141
16.0
290
     0
  0
SCALE
  5
4F
102
{ACAD_REACTORS
330
47
102
}
330
47
100
AcDbScale
 70
     0
300
1:20
140
1.0
141
20.0
290
     0
  0
SCALE
  5
50
102
{ACAD_REACTORS
330
47
102
}
330
47
100
AcDbScale
 70
     0
300
1:30
140
1.0
141
30.0
290
     0
  0
SCALE
  5
51
102
{ACAD_REACTORS
330
47
102
}
330
47
100
AcDbScale
 70
     0
300
1:40
140
1.0
141
40.0
290
     0
  0
SCALE
  5
52
102
{ACAD_REACTORS
330
47
102
}
330
47
100
AcDbScale
 70
     0
300
1:50
140
1.0
141
50.0
290
     0
  0
SCALE
  5
53
102
{ACAD_REACTORS
330
47
102
}
330
47
100
AcDbScale
 70
     0
300
1:100
140
1.0
141
100.0
290
     0
  0
SCALE
  5
54
102
{ACAD_REACTORS
330
47
102
}
330
47
100
AcDbScale
 70
     0
300
2:1
140
2.0
141
1.0
290
     0
  0
SCALE
  5
55
102
{ACAD_REACTORS
330
47
102
}
330
47
100
AcDbScale
 70
     0
300
4:1
140
4.0
141
1.0
290
     0
  0
SCALE
  5
56
102
{ACAD_REACTORS
330
47
102
}
330
47
100
AcDbScale
 70
     0
300
8:1
140
8.0
141
1.0
290
     0
  0
SCALE
  5
57
102
{ACAD_REACTORS
330
47
102
}
330
47
100
AcDbScale
 70
     0
300
10:1
140
10.0
141
1.0
290
     0
  0
SCALE
  5
58
102
{ACAD_REACTORS
330
47
102
}
330
47
100
AcDbScale
 70
     0
300
100:1
140
100.0
141
1.0
290
     0
  0
ENDSEC
  0
EOF
