  0
SECTION
  2
HEADER
  9
$ACADVER
  1
AC1015
  9
$ACADMAINTVER
 70
     6
  9
$DWGCODEPAGE
  3
DOS932
  9
$INSBASE
 10
0.0
 20
0.0
 30
0.0
  9
$EXTMIN
 10
0.0
 20
0.0
 30
0.0
  9
$EXTMAX
 10
4200.0
 20
5940.0
 30
0.0
  9
$LIMMIN
 10
0.0
 20
0.0
  9
$LIMMAX
 10
4200.0
 20
5940.0
  9
$ORTHOMODE
 70
     0
  9
$REGENMODE
 70
     1
  9
$FILLMODE
 70
     1
  9
$QTEXTMODE
 70
     0
  9
$MIRRTEXT
 70
     1
  9
$LTSCALE
 40
20.0
  9
$ATTMODE
 70
     1
  9
$TEXTSIZE
 40
70.5555555556
  9
$TRACEWID
 40
1.0
  9
$TEXTSTYLE
  7
Standard
  9
$CLAYER
  8
0
  9
$CELTYPE
  6
ByLayer
  9
$CECOLOR
 62
   256
  9
$CELTSCALE
 40
1.0
  9
$DISPSILH
 70
     0
  9
$DIMSCALE
 40
1.0
  9
$DIMASZ
 40
30.0
  9
$DIMEXO
 40
20.0
  9
$DIMDLI
 40
3.75
  9
$DIMRND
 40
0.0
  9
$DIMDLE
 40
0.0
  9
$DIMEXE
 40
20.0
  9
$DIMTP
 40
0.0
  9
$DIMTM
 40
0.0
  9
$DIMTXT
 40
70.5555555556
  9
$DIMCEN
 40
2.5
  9
$DIMTSZ
 40
0.0
  9
$DIMTOL
 70
     0
  9
$DIMLIM
 70
     0
  9
$DIMTIH
 70
     1
  9
$DIMTOH
 70
     1
  9
$DIMSE1
 70
     0
  9
$DIMSE2
 70
     0
  9
$DIMTAD
 70
     1
  9
$DIMZIN
 70
     0
  9
$DIMBLK
  1

  9
$DIMASO
 70
     1
  9
$DIMSHO
 70
     1
  9
$DIMPOST
  1

  9
$DIMAPOST
  1

  9
$DIMALT
 70
     0
  9
$DIMALTD
 70
     3
  9
$DIMALTF
 40
0.0393700787
  9
$DIMLFAC
 40
1.0
  9
$DIMTOFL
 70
     1
  9
$DIMTVP
 40
0.0
  9
$DIMTIX
 70
     0
  9
$DIMSOXD
 70
     0
  9
$DIMSAH
 70
     0
  9
$DIMBLK1
  1

  9
$DIMBLK2
  1

  9
$DIMSTYLE
  2
ISO-25
  9
$DIMCLRD
 70
     0
  9
$DIMCLRE
 70
     0
  9
$DIMCLRT
 70
     0
  9
$DIMTFAC
 40
1.0
  9
$DIMGAP
 40
30.48
  9
$DIMJUST
 70
     0
  9
$DIMSD1
 70
     0
  9
$DIMSD2
 70
     0
  9
$DIMTOLJ
 70
     0
  9
$DIMTZIN
 70
     0
  9
$DIMALTZ
 70
     0
  9
$DIMALTTZ
 70
     0
  9
$DIMUPT
 70
     0
  9
$DIMDEC
 70
     0
  9
$DIMTDEC
 70
     0
  9
$DIMALTU
 70
     2
  9
$DIMALTTD
 70
     3
  9
$DIMTXSTY
  7
Standard
  9
$DIMAUNIT
 70
     0
  9
$DIMADEC
 70
     2
  9
$DIMALTRND
 40
0.0
  9
$DIMAZIN
 70
     0
  9
$DIMDSEP
 70
    44
  9
$DIMATFIT
 70
     3
  9
$DIMFRAC
 70
     0
  9
$DIMLDRBLK
  1

  9
$DIMLUNIT
 70
     2
  9
$DIMLWD
 70
    -2
  9
$DIMLWE
 70
    -2
  9
$DIMTMOVE
 70
     0
  9
$LUNITS
 70
     2
  9
$LUPREC
 70
     2
  9
$SKETCHINC
 40
1.0
  9
$FILLETRAD
 40
0.0
  9
$AUNITS
 70
     0
  9
$AUPREC
 70
     2
  9
$MENU
  1
.
  9
$ELEVATION
 40
0.0
  9
$PELEVATION
 40
0.0
  9
$THICKNESS
 40
0.0
  9
$LIMCHECK
 70
     0
  9
$CHAMFERA
 40
0.0
  9
$CHAMFERB
 40
0.0
  9
$CHAMFERC
 40
0.0
  9
$CHAMFERD
 40
0.0
  9
$SKPOLY
 70
     0
  9
$TDCREATE
 40
2460174.790592535
  9
$TDUCREATE
 40
2460174.415592535
  9
$TDUPDATE
 40
2460174.790595174
  9
$TDUUPDATE
 40
2460174.415595174
  9
$TDINDWG
 40
0.0000000116
  9
$TDUSRTIMER
 40
0.0000000116
  9
$USRTIMER
 70
     1
  9
$ANGBASE
 50
0.0
  9
$ANGDIR
 70
     0
  9
$PDMODE
 70
     0
  9
$PDSIZE
 40
-1.0
  9
$PLINEWID
 40
0.0
  9
$SPLFRAME
 70
     0
  9
$SPLINETYPE
 70
     6
  9
$SPLINESEGS
 70
     8
  9
$HANDSEED
  5
233
  9
$SURFTAB1
 70
     6
  9
$SURFTAB2
 70
     6
  9
$SURFTYPE
 70
     6
  9
$SURFU
 70
     6
  9
$SURFV
 70
     6
  9
$UCSBASE
  2

  9
$UCSNAME
  2

  9
$UCSORG
 10
0.0
 20
0.0
 30
0.0
  9
$UCSXDIR
 10
1.0
 20
0.0
 30
0.0
  9
$UCSYDIR
 10
0.0
 20
1.0
 30
0.0
  9
$UCSORTHOREF
  2

  9
$UCSORTHOVIEW
 70
     0
  9
$UCSORGTOP
 10
0.0
 20
0.0
 30
0.0
  9
$UCSORGBOTTOM
 10
0.0
 20
0.0
 30
0.0
  9
$UCSORGLEFT
 10
0.0
 20
0.0
 30
0.0
  9
$UCSORGRIGHT
 10
0.0
 20
0.0
 30
0.0
  9
$UCSORGFRONT
 10
0.0
 20
0.0
 30
0.0
  9
$UCSORGBACK
 10
0.0
 20
0.0
 30
0.0
  9
$PUCSBASE
  2

  9
$PUCSNAME
  2

  9
$PUCSORG
 10
0.0
 20
0.0
 30
0.0
  9
$PUCSXDIR
 10
1.0
 20
0.0
 30
0.0
  9
$PUCSYDIR
 10
0.0
 20
1.0
 30
0.0
  9
$PUCSORTHOREF
  2

  9
$PUCSORTHOVIEW
 70
     0
  9
$PUCSORGTOP
 10
0.0
 20
0.0
 30
0.0
  9
$PUCSORGBOTTOM
 10
0.0
 20
0.0
 30
0.0
  9
$PUCSORGLEFT
 10
0.0
 20
0.0
 30
0.0
  9
$PUCSORGRIGHT
 10
0.0
 20
0.0
 30
0.0
  9
$PUCSORGFRONT
 10
0.0
 20
0.0
 30
0.0
  9
$PUCSORGBACK
 10
0.0
 20
0.0
 30
0.0
  9
$USERI1
 70
     0
  9
$USERI2
 70
     0
  9
$USERI3
 70
     0
  9
$USERI4
 70
     0
  9
$USERI5
 70
     0
  9
$USERR1
 40
0.0
  9
$USERR2
 40
0.0
  9
$USERR3
 40
0.0
  9
$USERR4
 40
0.0
  9
$USERR5
 40
0.0
  9
$WORLDVIEW
 70
     1
  9
$SHADEDGE
 70
     3
  9
$SHADEDIF
 70
    70
  9
$TILEMODE
 70
     1
  9
$MAXACTVP
 70
    64
  9
$PINSBASE
 10
0.0
 20
0.0
 30
0.0
  9
$PLIMCHECK
 70
     0
  9
$PEXTMIN
 10
1.0000000000E+20
 20
1.0000000000E+20
 30
1.0000000000E+20
  9
$PEXTMAX
 10
-1.0000000000E+20
 20
-1.0000000000E+20
 30
-1.0000000000E+20
  9
$PLIMMIN
 10
0.0
 20
0.0
  9
$PLIMMAX
 10
420.0
 20
297.0
  9
$UNITMODE
 70
     0
  9
$VISRETAIN
 70
     1
  9
$PLINEGEN
 70
     0
  9
$PSLTSCALE
 70
     1
  9
$TREEDEPTH
 70
  3020
  9
$CMLSTYLE
  2
Standard
  9
$CMLJUST
 70
     0
  9
$CMLSCALE
 40
20.0
  9
$PROXYGRAPHICS
 70
     1
  9
$MEASUREMENT
 70
     1
  9
$CELWEIGHT
370
    -1
  9
$ENDCAPS
280
     0
  9
$JOINSTYLE
280
     0
  9
$LWDISPLAY
290
     1
  9
$INSUNITS
 70
     4
  9
$HYPERLINKBASE
  1

  9
$STYLESHEET
  1

  9
$XEDIT
290
     1
  9
$CEPSNTYPE
380
     0
  9
$PSTYLEMODE
290
     1
  9
$FINGERPRINTGUID
  2
{5a66c03d-8754-4bff-8084-6c07a161354b}
  9
$VERSIONGUID
  2
{FAEB1C32-E019-11D5-929B-00C0DF256EC4}
  9
$EXTNAMES
290
     1
  9
$PSVPSCALE
 40
0.0
  9
$OLESTARTUP
290
     0
  0
ENDSEC
  0
SECTION
  2
CLASSES
  0
CLASS
  1
ACDBDICTIONARYWDFLT
  2
AcDbDictionaryWithDefault
  3
ObjectDBX Classes
 90
        0
280
     0
281
     0
  0
CLASS
  1
VISUALSTYLE
  2
AcDbVisualStyle
  3
ObjectDBX Classes
 90
     4095
280
     0
281
     0
  0
CLASS
  1
MATERIAL
  2
AcDbMaterial
  3
ObjectDBX Classes
 90
     1153
280
     0
281
     0
  0
CLASS
  1
SCALE
  2
AcDbScale
  3
ObjectDBX Classes
 90
     1153
280
     0
281
     0
  0
CLASS
  1
TABLESTYLE
  2
AcDbTableStyle
  3
ObjectDBX Classes
 90
     4095
280
     0
281
     0
  0
CLASS
  1
MLEADERSTYLE
  2
AcDbMLeaderStyle
  3
ACDB_MLEADERSTYLE_CLASS
 90
     4095
280
     0
281
     0
  0
CLASS
  1
SUN
  2
AcDbSun
  3
SCENEOE
 90
     1153
280
     0
281
     0
  0
CLASS
  1
ACDBPLACEHOLDER
  2
AcDbPlaceHolder
  3
ObjectDBX Classes
 90
        0
280
     0
281
     0
  0
CLASS
  1
LAYOUT
  2
AcDbLayout
  3
ObjectDBX Classes
 90
        0
280
     0
281
     0
  0
ENDSEC
  0
SECTION
  2
TABLES
  0
TABLE
  2
VPORT
  5
8
330
0
100
AcDbSymbolTable
 70
     1
  0
VPORT
  5
29
330
8
100
AcDbSymbolTableRecord
100
AcDbViewportTableRecord
  2
*Active
 70
     0
 10
0.0
 20
0.0
 11
1.0
 21
1.0
 12
2100.0
 22
2970.0
 13
0.0
 23
0.0
 14
10.0
 24
10.0
 15
10.0
 25
10.0
 16
0.0
 26
0.0
 36
1.0
 17
0.0
 27
0.0
 37
0.0
 40
5940.0
 41
0.7070707071
 42
50.0
 43
0.0
 44
0.0
 50
0.0
 51
0.0
 71
     0
 72
  2000
 73
     1
 74
     3
 75
     0
 76
     0
 77
     0
 78
     0
281
     0
 65
     1
110
0.0
120
0.0
130
0.0
111
1.0
121
0.0
131
0.0
112
0.0
122
1.0
132
0.0
 79
     0
146
0.0
  0
ENDTAB
  0
TABLE
  2
LTYPE
  5
5
330
0
100
AcDbSymbolTable
 70
     6
  0
LTYPE
  5
14
330
5
100
AcDbSymbolTableRecord
100
AcDbLinetypeTableRecord
  2
ByBlock
 70
     0
  3

 72
    65
 73
     0
 40
0.0
  0
LTYPE
  5
15
330
5
100
AcDbSymbolTableRecord
100
AcDbLinetypeTableRecord
  2
ByLayer
 70
     0
  3

 72
    65
 73
     0
 40
0.0
  0
LTYPE
  5
16
330
5
100
AcDbSymbolTableRecord
100
AcDbLinetypeTableRecord
  2
Continuous
 70
     0
  3
Solid line
 72
    65
 73
     0
 40
0.0
  0
LTYPE
  5
5E
330
5
100
AcDbSymbolTableRecord
100
AcDbLinetypeTableRecord
  2
HIDDEN
 70
     0
  3
Hidden __ __ __ __ __ __ __ __ __ __ __ __ __ __
 72
    65
 73
     2
 40
1.905
 49
1.27
 74
     0
 49
-0.635
 74
     0
  0
LTYPE
  5
5F
330
5
100
AcDbSymbolTableRecord
100
AcDbLinetypeTableRecord
  2
PHANTOM
 70
     0
  3
Phantom ______  __  __  ______  __  __  ______
 72
    65
 73
     6
 40
12.7
 49
6.35
 74
     0
 49
-1.27
 74
     0
 49
1.27
 74
     0
 49
-1.27
 74
     0
 49
1.27
 74
     0
 49
-1.27
 74
     0
  0
LTYPE
  5
60
330
5
100
AcDbSymbolTableRecord
100
AcDbLinetypeTableRecord
  2
CENTER
 70
     0
  3
Center ____ _ ____ _ ____ _ ____ _ ____ _ ____
 72
    65
 73
     4
 40
10.16
 49
6.35
 74
     0
 49
-1.27
 74
     0
 49
1.27
 74
     0
 49
-1.27
 74
     0
  0
LTYPE
  5
61
330
5
100
AcDbSymbolTableRecord
100
AcDbLinetypeTableRecord
  2
CENTERX2
 70
     0
  3
Center (2x) ________  __  ________  __  _____
 72
    65
 73
     4
 40
20.32
 49
12.7
 74
     0
 49
-2.54
 74
     0
 49
2.54
 74
     0
 49
-2.54
 74
     0
  0
LTYPE
  5
62
330
5
100
AcDbSymbolTableRecord
100
AcDbLinetypeTableRecord
  2
DOT2
 70
     0
  3
Dot (.5x) ........................................
 72
    65
 73
     2
 40
0.635
 49
0.0
 74
     0
 49
-0.635
 74
     0
  0
ENDTAB
  0
TABLE
  2
LAYER
  5
2
330
0
100
AcDbSymbolTable
 70
     6
  0
LAYER
  5
10
330
2
100
AcDbSymbolTableRecord
100
AcDbLayerTableRecord
  2
0
 70
     0
 62
     7
  6
Continuous
370
    -3
390
F
  0
LAYER
  5
63
330
2
100
AcDbSymbolTableRecord
100
AcDbLayerTableRecord
  2
1
 70
     0
 62
     4
  6
Continuous
370
    25
390
F
  0
LAYER
  5
64
330
2
100
AcDbSymbolTableRecord
100
AcDbLayerTableRecord
  2
2
 70
     0
 62
     3
  6
CENTERX2
370
    -3
390
F
  0
LAYER
  5
65
330
2
100
AcDbSymbolTableRecord
100
AcDbLayerTableRecord
  2
3
 70
     0
 62
     2
  6
Continuous
370
    -3
390
F
  0
LAYER
  5
66
330
2
100
AcDbSymbolTableRecord
100
AcDbLayerTableRecord
  2
4
 70
     0
 62
     7
  6
Continuous
370
    -3
390
F
  0
LAYER
  5
67
330
2
100
AcDbSymbolTableRecord
100
AcDbLayerTableRecord
  2
基礎穴
 70
     0
 62
     1
  6
PHANTOM
370
    35
390
F
  0
ENDTAB
  0
TABLE
  2
STYLE
  5
3
330
0
100
AcDbSymbolTable
 70
     2
  0
STYLE
  5
11
330
3
100
AcDbSymbolTableRecord
100
AcDbTextStyleTableRecord
  2
Standard
 70
     0
 40
0.0
 41
1.0
 50
0.0
 71
     0
 42
70.5555555556
  3
txt
  4
bigfont
  0
STYLE
  5
68
330
3
100
AcDbSymbolTableRecord
100
AcDbTextStyleTableRecord
  2
SLDTEXTSTYLE0
 70
     0
 40
0.0
 41
0.7
 50
0.0
 71
     0
 42
70.5555555556
  3
TXT
  4
bigfont
  0
ENDTAB
  0
TABLE
  2
VIEW
  5
6
330
0
100
AcDbSymbolTable
 70
     0
  0
ENDTAB
  0
TABLE
  2
UCS
  5
7
330
0
100
AcDbSymbolTable
 70
     0
  0
ENDTAB
  0
TABLE
  2
APPID
  5
9
330
0
100
AcDbSymbolTable
 70
     1
  0
APPID
  5
12
330
9
100
AcDbSymbolTableRecord
100
AcDbRegAppTableRecord
  2
ACAD
 70
     0
  0
ENDTAB
  0
TABLE
  2
DIMSTYLE
  5
A
330
0
100
AcDbSymbolTable
 70
     1
100
AcDbDimStyleTable
  0
DIMSTYLE
105
27
330
A
100
AcDbSymbolTableRecord
100
AcDbDimStyleTableRecord
  2
ISO-25
 70
     0
 41
2.5
 42
0.625
 43
3.75
 44
1.25
 73
     0
 74
     0
 77
     1
 78
     8
140
2.5
141
2.5
143
0.0393700787
147
0.625
171
     3
172
     1
178
     0
271
     2
272
     2
274
     3
278
    44
283
     0
284
     8
340
11
  0
ENDTAB
  0
TABLE
  2
BLOCK_RECORD
  5
1
330
0
100
AcDbSymbolTable
 70
     2
  0
BLOCK_RECORD
  5
1F
330
1
100
AcDbSymbolTableRecord
100
AcDbBlockTableRecord
  2
*Model_Space
340
22
  0
BLOCK_RECORD
  5
1B
330
1
100
AcDbSymbolTableRecord
100
AcDbBlockTableRecord
  2
*Paper_Space
340
1E
  0
BLOCK_RECORD
  5
23
330
1
100
AcDbSymbolTableRecord
100
AcDbBlockTableRecord
  2
*Paper_Space0
340
26
  0
BLOCK_RECORD
  5
E4
330
1
100
AcDbSymbolTableRecord
100
AcDbBlockTableRecord
  2
SW_CENTERMARKSYMBOL_0
340
0
102
{BLKREFS
331
EF
102
}
  0
ENDTAB
  0
ENDSEC
  0
SECTION
  2
BLOCKS
  0
BLOCK
  5
20
330
1F
100
AcDbEntity
  8
0
100
AcDbBlockBegin
  2
*Model_Space
 70
     0
 10
0.0
 20
0.0
 30
0.0
  3
*Model_Space
  1

  0
ENDBLK
  5
21
330
1F
100
AcDbEntity
  8
0
100
AcDbBlockEnd
  0
BLOCK
  5
1C
330
1B
100
AcDbEntity
 67
     1
  8
0
100
AcDbBlockBegin
  2
*Paper_Space
 70
     0
 10
0.0
 20
0.0
 30
0.0
  3
*Paper_Space
  1

  0
ENDBLK
  5
1D
330
1B
100
AcDbEntity
 67
     1
  8
0
100
AcDbBlockEnd
  0
BLOCK
  5
24
330
23
100
AcDbEntity
  8
0
100
AcDbBlockBegin
  2
*Paper_Space0
 70
     0
 10
0.0
 20
0.0
 30
0.0
  3
*Paper_Space0
  1

  0
ENDBLK
  5
25
330
23
100
AcDbEntity
  8
0
100
AcDbBlockEnd
  0
BLOCK
  5
E5
330
E4
100
AcDbEntity
  8
0
100
AcDbBlockBegin
  2
SW_CENTERMARKSYMBOL_0
 70
     0
 10
0.0
 20
0.0
 30
0.0
  3
SW_CENTERMARKSYMBOL_0
  1

  0
LINE
  5
E7
330
E4
100
AcDbEntity
  8
2
 62
     0
100
AcDbLine
 10
0.0
 20
0.0
 30
0.0
 11
0.0
 21
2.5
 31
0.0
  0
LINE
  5
E8
330
E4
100
AcDbEntity
  8
2
 62
     0
100
AcDbLine
 10
0.0
 20
0.0
 30
0.0
 11
-2.5
 21
0.0
 31
0.0
  0
LINE
  5
E9
330
E4
100
AcDbEntity
  8
2
 62
     0
100
AcDbLine
 10
0.0
 20
0.0
 30
0.0
 11
0.0
 21
-2.5
 31
0.0
  0
LINE
  5
EA
330
E4
100
AcDbEntity
  8
2
 62
     0
100
AcDbLine
 10
0.0
 20
0.0
 30
0.0
 11
2.5
 21
0.0
 31
0.0
  0
LINE
  5
EB
330
E4
100
AcDbEntity
  8
2
 62
     0
100
AcDbLine
 10
0.0
 20
5.0
 30
0.0
 11
0.0
 21
552.5
 31
0.0
  0
LINE
  5
EC
330
E4
100
AcDbEntity
  8
2
 62
     0
100
AcDbLine
 10
-5.0
 20
0.0
 30
0.0
 11
-552.5
 21
0.0
 31
0.0
  0
LINE
  5
ED
330
E4
100
AcDbEntity
  8
2
 62
     0
100
AcDbLine
 10
0.0
 20
-5.0
 30
0.0
 11
0.0
 21
-552.5
 31
0.0
  0
LINE
  5
EE
330
E4
100
AcDbEntity
  8
2
 62
     0
100
AcDbLine
 10
5.0
 20
0.0
 30
0.0
 11
552.5
 21
0.0
 31
0.0
  0
ENDBLK
  5
E6
330
E4
100
AcDbEntity
  8
0
100
AcDbBlockEnd
  0
ENDSEC
  0
SECTION
  2
ENTITIES
  0
MTEXT
  5
69
330
1F
100
AcDbEntity
  8
0
  6
Continuous
 62
     7
370
     0
100
AcDbMText
 10
3026.2018818745
 20
1438.2327121139
 30
0.0
 40
52.9166666667
 41
0.0
 71
     1
 72
     1
  1
LL06040YS01K-L2
  7
SLDTEXTSTYLE0
 73
     1
 44
1.0
  0
LINE
  5
6A
330
1F
100
AcDbEntity
  8
1
100
AcDbLine
 10
401.5850424399
 20
1813.6352331606
 30
0.0
 11
401.5850424399
 21
1708.6352331606
 31
0.0
  0
LINE
  5
6B
330
1F
100
AcDbEntity
  8
1
100
AcDbLine
 10
436.5850424399
 20
1708.6352331606
 30
0.0
 11
436.5850424399
 21
1813.6352331606
 31
0.0
  0
LINE
  5
6C
330
1F
100
AcDbEntity
  8
1
100
AcDbLine
 10
2391.5850424399
 20
1813.6352331606
 30
0.0
 11
2391.5850424399
 21
1708.6352331606
 31
0.0
  0
LINE
  5
6D
330
1F
100
AcDbEntity
  8
1
100
AcDbLine
 10
2426.5850424399
 20
1708.6352331606
 30
0.0
 11
2426.5850424399
 21
1813.6352331606
 31
0.0
  0
ARC
  5
6E
330
1F
100
AcDbEntity
  8
1
100
AcDbCircle
 10
2229.0850424399
 20
2173.6352331606
 30
0.0
 40
195.4999999999999
100
AcDbArc
 50
337.030998229
 51
22.969001771
  0
LINE
  5
6F
330
1F
100
AcDbEntity
  8
1
100
AcDbLine
 10
2454.0850424399
 20
1943.1352331606
 30
0.0
 11
2454.0850424399
 21
1993.6352331606
 31
0.0
  0
LINE
  5
70
330
1F
100
AcDbEntity
  8
1
100
AcDbLine
 10
2004.0850424399
 20
1938.6352331606
 30
0.0
 11
2004.0850424399
 21
1943.1352331606
 31
0.0
  0
LINE
  5
71
330
1F
100
AcDbEntity
  8
1
100
AcDbLine
 10
2454.0850424399
 20
1993.6352331606
 30
0.0
 11
2409.0850424399
 21
1993.6352331606
 31
0.0
  0
LINE
  5
72
330
1F
100
AcDbEntity
  8
1
100
AcDbLine
 10
659.0850424399
 20
1943.1352331606
 30
0.0
 11
659.0850424399
 21
3003.1352331606
 31
0.0
  0
LINE
  5
73
330
1F
100
AcDbEntity
  8
1
100
AcDbLine
 10
659.0850424399
 20
3003.1352331606
 30
0.0
 11
1034.0850424399
 21
3003.1352331606
 31
0.0
  0
LINE
  5
74
330
1F
100
AcDbEntity
  8
1
100
AcDbLine
 10
1034.0850424399
 20
3003.1352331606
 30
0.0
 11
2409.0850424399
 21
2318.1352331606
 31
0.0
  0
LINE
  5
75
330
1F
100
AcDbEntity
  8
1
100
AcDbLine
 10
2409.0850424399
 20
2318.1352331606
 30
0.0
 11
2409.0850424399
 21
1943.1352331606
 31
0.0
  0
LINE
  5
76
330
1F
100
AcDbEntity
  8
1
100
AcDbLine
 10
2409.0850424399
 20
1943.1352331606
 30
0.0
 11
659.0850424399
 21
1943.1352331606
 31
0.0
  0
LINE
  5
77
330
1F
100
AcDbEntity
  8
1
100
AcDbLine
 10
354.0850424399
 20
1649.6352331606
 30
0.0
 11
2474.0850424399
 21
1649.6352331606
 31
0.0
  0
LINE
  5
78
330
1F
100
AcDbEntity
  8
1
100
AcDbLine
 10
2474.0850424399
 20
1643.6352331606
 30
0.0
 11
2474.0850424399
 21
1649.6352331606
 31
0.0
  0
LINE
  5
79
330
1F
100
AcDbEntity
  8
1
100
AcDbLine
 10
354.0850424399
 20
1643.6352331606
 30
0.0
 11
2474.0850424399
 21
1643.6352331606
 31
0.0
  0
LINE
  5
7A
330
1F
100
AcDbEntity
  8
1
100
AcDbLine
 10
354.0850424399
 20
1643.6352331606
 30
0.0
 11
354.0850424399
 21
1649.6352331606
 31
0.0
  0
LINE
  5
7B
330
1F
100
AcDbEntity
  8
1
100
AcDbLine
 10
354.0850424399
 20
1702.6352331606
 30
0.0
 11
354.0850424399
 21
1708.6352331606
 31
0.0
  0
LINE
  5
7C
330
1F
100
AcDbEntity
  8
1
100
AcDbLine
 10
2474.0850424399
 20
1708.6352331606
 30
0.0
 11
354.0850424399
 21
1708.6352331606
 31
0.0
  0
LINE
  5
7D
330
1F
100
AcDbEntity
  8
1
100
AcDbLine
 10
2474.0850424399
 20
1702.6352331606
 30
0.0
 11
354.0850424399
 21
1702.6352331606
 31
0.0
  0
LINE
  5
7E
330
1F
100
AcDbEntity
  8
1
100
AcDbLine
 10
2474.0850424399
 20
1702.6352331606
 30
0.0
 11
2474.0850424399
 21
1708.6352331606
 31
0.0
  0
LINE
  5
7F
330
1F
100
AcDbEntity
  8
1
100
AcDbLine
 10
2415.0850424399
 20
1649.6352331606
 30
0.0
 11
2415.0850424399
 21
1702.6352331606
 31
0.0
  0
LINE
  5
80
330
1F
100
AcDbEntity
  8
1
100
AcDbLine
 10
413.0850424399
 20
1649.6352331606
 30
0.0
 11
413.0850424399
 21
1702.6352331606
 31
0.0
  0
LINE
  5
81
330
1F
100
AcDbEntity
  8
1
100
AcDbLine
 10
659.0850424399
 20
1943.1352331606
 30
0.0
 11
574.0850424399
 21
1943.1352331606
 31
0.0
  0
LINE
  5
82
330
1F
100
AcDbEntity
  8
1
100
AcDbLine
 10
724.0850424399
 20
1938.6352331606
 30
0.0
 11
574.0850424399
 21
1938.6352331606
 31
0.0
  0
LINE
  5
83
330
1F
100
AcDbEntity
  8
1
100
AcDbLine
 10
574.0850424399
 20
1943.1352331606
 30
0.0
 11
574.0850424399
 21
1938.6352331606
 31
0.0
  0
LINE
  5
84
330
1F
100
AcDbEntity
  8
1
100
AcDbLine
 10
724.0850424399
 20
1943.1352331606
 30
0.0
 11
724.0850424399
 21
1938.6352331606
 31
0.0
  0
LINE
  5
85
330
1F
100
AcDbEntity
  8
1
100
AcDbLine
 10
2494.0850424399
 20
1938.6352331606
 30
0.0
 11
2344.0850424399
 21
1938.6352331606
 31
0.0
  0
LINE
  5
86
330
1F
100
AcDbEntity
  8
1
100
AcDbLine
 10
2344.0850424399
 20
1943.1352331606
 30
0.0
 11
2344.0850424399
 21
1938.6352331606
 31
0.0
  0
LINE
  5
87
330
1F
100
AcDbEntity
  8
1
100
AcDbLine
 10
2494.0850424399
 20
1943.1352331606
 30
0.0
 11
2494.0850424399
 21
1938.6352331606
 31
0.0
  0
LINE
  5
88
330
1F
100
AcDbEntity
  8
1
100
AcDbLine
 10
2494.0850424399
 20
1943.1352331606
 30
0.0
 11
2409.0850424399
 21
1943.1352331606
 31
0.0
  0
LINE
  5
89
330
1F
100
AcDbEntity
  8
1
100
AcDbLine
 10
2474.0850424399
 20
1932.6352331606
 30
0.0
 11
354.0850424399
 21
1932.6352331606
 31
0.0
  0
LINE
  5
8A
330
1F
100
AcDbEntity
  8
1
100
AcDbLine
 10
354.0850424399
 20
1938.6352331606
 30
0.0
 11
354.0850424399
 21
1932.6352331606
 31
0.0
  0
LINE
  5
8B
330
1F
100
AcDbEntity
  8
1
100
AcDbLine
 10
2474.0850424399
 20
1938.6352331606
 30
0.0
 11
2474.0850424399
 21
1932.6352331606
 31
0.0
  0
LINE
  5
8C
330
1F
100
AcDbEntity
  8
1
100
AcDbLine
 10
574.0850424399
 20
1938.6352331606
 30
0.0
 11
354.0850424399
 21
1938.6352331606
 31
0.0
  0
LINE
  5
8D
330
1F
100
AcDbEntity
  8
1
100
AcDbLine
 10
2344.0850424399
 20
1938.6352331606
 30
0.0
 11
724.0850424399
 21
1938.6352331606
 31
0.0
  0
LINE
  5
8E
330
1F
100
AcDbEntity
  8
1
100
AcDbLine
 10
2474.0850424399
 20
1819.6352331606
 30
0.0
 11
2474.0850424399
 21
1813.6352331606
 31
0.0
  0
LINE
  5
8F
330
1F
100
AcDbEntity
  8
1
100
AcDbLine
 10
2474.0850424399
 20
1813.6352331606
 30
0.0
 11
354.0850424399
 21
1813.6352331606
 31
0.0
  0
LINE
  5
90
330
1F
100
AcDbEntity
  8
1
100
AcDbLine
 10
354.0850424399
 20
1819.6352331606
 30
0.0
 11
354.0850424399
 21
1813.6352331606
 31
0.0
  0
LINE
  5
91
330
1F
100
AcDbEntity
  8
1
100
AcDbLine
 10
2474.0850424399
 20
1819.6352331606
 30
0.0
 11
354.0850424399
 21
1819.6352331606
 31
0.0
  0
LINE
  5
92
330
1F
100
AcDbEntity
  8
1
100
AcDbLine
 10
413.0850424399
 20
1932.6352331606
 30
0.0
 11
413.0850424399
 21
1819.6352331606
 31
0.0
  0
LINE
  5
93
330
1F
100
AcDbEntity
  8
1
100
AcDbLine
 10
2415.0850424399
 20
1932.6352331606
 30
0.0
 11
2415.0850424399
 21
1819.6352331606
 31
0.0
  0
LINE
  5
94
330
1F
100
AcDbEntity
  8
1
100
AcDbLine
 10
2106.0850424399
 20
3384.6352331606
 30
0.0
 11
2106.0850424399
 21
3388.6352331606
 31
0.0
  0
LINE
  5
95
330
1F
100
AcDbEntity
  8
1
100
AcDbLine
 10
970.0850424399
 20
3384.6352331606
 30
0.0
 11
970.0850424399
 21
3388.6352331606
 31
0.0
  0
LINE
  5
96
330
1F
100
AcDbEntity
  8
1
100
AcDbLine
 10
2106.0850424399
 20
3384.6352331606
 30
0.0
 11
970.0850424399
 21
3384.6352331606
 31
0.0
  0
LINE
  5
97
330
1F
100
AcDbEntity
  8
1
100
AcDbLine
 10
2106.0850424399
 20
3388.6352331606
 30
0.0
 11
970.0850424399
 21
3388.6352331606
 31
0.0
  0
LINE
  5
98
330
1F
100
AcDbEntity
  8
1
100
AcDbLine
 10
2054.3334507309
 20
3384.6352331606
 30
0.0
 11
1992.9286389276
 21
2698.5223676694
 31
0.0
  0
ARC
  5
99
330
1F
100
AcDbEntity
  8
1
100
AcDbCircle
 10
1053.0850424399
 20
2782.6352331606
 30
0.0
 40
943.6
100
AcDbArc
 50
345.0659803726
 51
354.8858440997
  0
LWPOLYLINE
  5
9A
330
1F
100
AcDbEntity
  8
1
100
AcDbPolyline
 90
        3
 70
   128
 43
0.0
 10
1483.9222622806
 20
1943.1352331606
 10
1478.6221106997
 20
1940.4362284492
 10
1475.0387839804
 20
1938.6352331606
  0
ARC
  5
9B
330
1F
100
AcDbEntity
  8
1
100
AcDbCircle
 10
1053.0850424399
 20
2634.6352331606
 30
0.0
 40
795.6000000000001
100
AcDbArc
 50
180.0
 51
240.3154955384
  0
LINE
  5
9C
330
1F
100
AcDbEntity
  8
1
100
AcDbLine
 10
257.4850424399
 20
2634.6352331606
 30
0.0
 11
257.4850424399
 21
2648.1352331606
 31
0.0
  0
ARC
  5
9D
330
1F
100
AcDbEntity
  8
1
100
AcDbCircle
 10
918.5850424399
 20
2648.1352331606
 30
0.0
 40
661.0999999999999
100
AcDbArc
 50
90.0
 51
180.0
  0
LINE
  5
9E
330
1F
100
AcDbEntity
  8
1
100
AcDbLine
 10
918.5850424399
 20
3309.2352331606
 30
0.0
 11
1021.4850424399
 21
3309.2352331606
 31
0.0
  0
LINE
  5
9F
330
1F
100
AcDbEntity
  8
1
100
AcDbLine
 10
1021.4850424399
 20
3309.2352331606
 30
0.0
 11
1021.4850424399
 21
3384.6352331606
 31
0.0
  0
CIRCLE
  5
A0
330
1F
100
AcDbEntity
  8
0
  6
HIDDEN
 62
     7
370
    18
100
AcDbCircle
 10
2229.0850424399
 20
2173.6352331606
 30
0.0
 40
23.99999999999955
  0
ARC
  5
A1
330
1F
100
AcDbEntity
  8
0
  6
HIDDEN
 62
     7
370
    18
100
AcDbCircle
 10
2229.0850424399
 20
2173.6352331606
 30
0.0
 40
195.5000000000002
100
AcDbArc
 50
22.969001771
 51
241.0071626104
  0
ARC
  5
A2
330
1F
100
AcDbEntity
  8
0
  6
HIDDEN
 62
     7
370
    18
100
AcDbCircle
 10
2229.0850424399
 20
2173.6352331606
 30
0.0
 40
195.5000000000002
100
AcDbArc
 50
298.9928373896
 51
337.030998229
  0
LINE
  5
A3
330
1F
100
AcDbEntity
  8
0
  6
HIDDEN
 62
     7
370
    18
100
AcDbLine
 10
2323.8439470347
 20
2002.6352331606
 30
0.0
 11
2134.3261378452
 21
2002.6352331606
 31
0.0
  0
LINE
  5
A4
330
1F
100
AcDbEntity
  8
0
  6
HIDDEN
 62
     7
370
    18
100
AcDbLine
 10
2454.0850424399
 20
1938.6352331606
 30
0.0
 11
2454.0850424399
 21
1943.1352331606
 31
0.0
  0
LINE
  5
A5
330
1F
100
AcDbEntity
  8
0
  6
HIDDEN
 62
     7
370
    18
100
AcDbLine
 10
2004.0850424399
 20
1943.1352331606
 30
0.0
 11
2004.0850424399
 21
1993.6352331606
 31
0.0
  0
LINE
  5
A6
330
1F
100
AcDbEntity
  8
0
  6
HIDDEN
 62
     7
370
    18
100
AcDbLine
 10
2409.0850424399
 20
1993.6352331606
 30
0.0
 11
2004.0850424399
 21
1993.6352331606
 31
0.0
  0
LINE
  5
A7
330
1F
100
AcDbEntity
  8
0
  6
HIDDEN
 62
     7
370
    18
100
AcDbLine
 10
2372.0850424399
 20
2011.6352331606
 30
0.0
 11
2338.5210968279
 21
2011.6352331606
 31
0.0
  0
LINE
  5
A8
330
1F
100
AcDbEntity
  8
0
  6
HIDDEN
 62
     7
370
    18
100
AcDbLine
 10
2372.0850424399
 20
1993.6352331606
 30
0.0
 11
2372.0850424399
 21
2011.6352331606
 31
0.0
  0
LINE
  5
A9
330
1F
100
AcDbEntity
  8
0
  6
HIDDEN
 62
     7
370
    18
100
AcDbLine
 10
2119.648988052
 20
2011.6352331606
 30
0.0
 11
2086.0850424399
 21
2011.6352331606
 31
0.0
  0
LINE
  5
AA
330
1F
100
AcDbEntity
  8
0
  6
HIDDEN
 62
     7
370
    18
100
AcDbLine
 10
2086.0850424399
 20
2011.6352331606
 30
0.0
 11
2086.0850424399
 21
1993.6352331606
 31
0.0
  0
CIRCLE
  5
AB
330
1F
100
AcDbEntity
  8
0
  6
HIDDEN
 62
     7
370
    18
100
AcDbCircle
 10
2229.0850424399
 20
2173.6352331606
 30
0.0
 40
74.99999999999947
  0
CIRCLE
  5
AC
330
1F
100
AcDbEntity
  8
0
  6
HIDDEN
 62
     7
370
    18
100
AcDbCircle
 10
979.0850424399
 20
2708.6352331606
 30
0.0
 40
149.9999999999993
  0
LINE
  5
AD
330
1F
100
AcDbEntity
  8
0
  6
HIDDEN
 62
     7
370
    18
100
AcDbLine
 10
419.0850424399
 20
1643.6352331606
 30
0.0
 11
419.0850424399
 21
1708.6352331606
 31
0.0
  0
LINE
  5
AE
330
1F
100
AcDbEntity
  8
0
  6
HIDDEN
 62
     7
370
    18
100
AcDbLine
 10
2409.0850424399
 20
1643.6352331606
 30
0.0
 11
2409.0850424399
 21
1708.6352331606
 31
0.0
  0
LINE
  5
AF
330
1F
100
AcDbEntity
  8
0
  6
HIDDEN
 62
     7
370
    18
100
AcDbLine
 10
419.0850424399
 20
1938.6352331606
 30
0.0
 11
419.0850424399
 21
1813.6352331606
 31
0.0
  0
LINE
  5
B0
330
1F
100
AcDbEntity
  8
0
  6
HIDDEN
 62
     7
370
    18
100
AcDbLine
 10
2409.0850424399
 20
1938.6352331606
 30
0.0
 11
2409.0850424399
 21
1813.6352331606
 31
0.0
  0
ARC
  5
B1
330
1F
100
AcDbEntity
  8
0
  6
HIDDEN
 62
     7
370
    18
100
AcDbCircle
 10
1053.0850424399
 20
2782.6352331606
 30
0.0
 40
943.6
100
AcDbArc
 50
297.1672090203
 51
345.0659803726
  0
ARC
  5
B2
330
1F
100
AcDbEntity
  8
0
  6
HIDDEN
 62
     7
370
    18
100
AcDbCircle
 10
1053.0850424399
 20
2782.6352331606
 30
0.0
 40
943.6000000000004
100
AcDbArc
 50
270.0
 51
296.5625388808
  0
ARC
  5
B3
330
1F
100
AcDbEntity
  8
0
  6
HIDDEN
 62
     7
370
    18
100
AcDbCircle
 10
1053.0850424399
 20
2634.6352331606
 30
0.0
 40
795.5999999999999
100
AcDbArc
 50
240.3154955384
 51
270.0
  0
ARC
  5
B4
330
1F
100
AcDbEntity
  8
0
  6
HIDDEN
 62
     7
370
    18
100
AcDbCircle
 10
918.5850424399
 20
2648.1352331606
 30
0.0
 40
659.5
100
AcDbArc
 50
90.0
 51
180.0
  0
LINE
  5
B5
330
1F
100
AcDbEntity
  8
0
  6
HIDDEN
 62
     7
370
    18
100
AcDbLine
 10
1023.0850424399
 20
3307.6352331606
 30
0.0
 11
1023.0850424399
 21
3388.6352331606
 31
0.0
  0
LINE
  5
B6
330
1F
100
AcDbEntity
  8
0
  6
HIDDEN
 62
     7
370
    18
100
AcDbLine
 10
918.5850424399
 20
3307.6352331606
 30
0.0
 11
1023.0850424399
 21
3307.6352331606
 31
0.0
  0
ARC
  5
B7
330
1F
100
AcDbEntity
  8
0
  6
HIDDEN
 62
     7
370
    18
100
AcDbCircle
 10
1053.0850424399
 20
2634.6352331606
 30
0.0
 40
794.0
100
AcDbArc
 50
180.0
 51
270.0
  0
LINE
  5
B8
330
1F
100
AcDbEntity
  8
0
  6
HIDDEN
 62
     7
370
    18
100
AcDbLine
 10
259.0850424399
 20
2634.6352331606
 30
0.0
 11
259.0850424399
 21
2648.1352331606
 31
0.0
  0
LINE
  5
B9
330
1F
100
AcDbEntity
  8
0
  6
HIDDEN
 62
     7
370
    18
100
AcDbLine
 10
2053.0850424399
 20
3388.6352331606
 30
0.0
 11
1991.3350084121
 21
2698.6649922824
 31
0.0
  0
ARC
  5
BA
330
1F
100
AcDbEntity
  8
0
  6
HIDDEN
 62
     7
370
    18
100
AcDbCircle
 10
1053.0850424399
 20
2782.6352331606
 30
0.0
 40
942.0
100
AcDbArc
 50
270.0
 51
354.8858440997
  0
CIRCLE
  5
BB
330
1F
100
AcDbEntity
  8
0
  6
HIDDEN
 62
     7
370
    18
100
AcDbCircle
 10
979.0850424399
 20
2708.6352331606
 30
0.0
 40
500.0000000000005
  0
CIRCLE
  5
BC
330
1F
100
AcDbEntity
  8
0
  6
HIDDEN
 62
     7
370
    18
100
AcDbCircle
 10
979.0850424399
 20
2708.6352331606
 30
0.0
 40
550.0
  0
CIRCLE
  5
BD
330
1F
100
AcDbEntity
  8
0
  6
HIDDEN
 62
     7
370
    18
100
AcDbCircle
 10
979.0850424399
 20
2708.6352331606
 30
0.0
 40
502.3000000000002
  0
CIRCLE
  5
BE
330
1F
100
AcDbEntity
  8
0
  6
HIDDEN
 62
     7
370
    18
100
AcDbCircle
 10
1417.6852629295
 20
3001.6985310785
 30
0.0
 40
5.999999999999545
  0
CIRCLE
  5
BF
330
1F
100
AcDbEntity
  8
0
  6
HIDDEN
 62
     7
370
    18
100
AcDbCircle
 10
1272.1483403578
 20
3147.2354536502
 30
0.0
 40
6.0
  0
CIRCLE
  5
C0
330
1F
100
AcDbEntity
  8
0
  6
HIDDEN
 62
     7
370
    18
100
AcDbCircle
 10
1081.9951873034
 20
3225.9994685733
 30
0.0
 40
6.0
  0
CIRCLE
  5
C1
330
1F
100
AcDbEntity
  8
0
  6
HIDDEN
 62
     7
370
    18
100
AcDbCircle
 10
876.1748975764
 20
3225.9994685733
 30
0.0
 40
6.0
  0
CIRCLE
  5
C2
330
1F
100
AcDbEntity
  8
0
  6
HIDDEN
 62
     7
370
    18
100
AcDbCircle
 10
686.0217445221
 20
3147.2354536502
 30
0.0
 40
6.000000000000455
  0
CIRCLE
  5
C3
330
1F
100
AcDbEntity
  8
0
  6
HIDDEN
 62
     7
370
    18
100
AcDbCircle
 10
540.4848219503
 20
3001.6985310785
 30
0.0
 40
5.999999999999545
  0
CIRCLE
  5
C4
330
1F
100
AcDbEntity
  8
0
  6
HIDDEN
 62
     7
370
    18
100
AcDbCircle
 10
461.7208070272
 20
2811.5453780241
 30
0.0
 40
5.999999999999545
  0
CIRCLE
  5
C5
330
1F
100
AcDbEntity
  8
0
  6
HIDDEN
 62
     7
370
    18
100
AcDbCircle
 10
461.7208070272
 20
2605.7250882971
 30
0.0
 40
6.0
  0
CIRCLE
  5
C6
330
1F
100
AcDbEntity
  8
0
  6
HIDDEN
 62
     7
370
    18
100
AcDbCircle
 10
540.4848219503
 20
2415.5719352428
 30
0.0
 40
6.0
  0
CIRCLE
  5
C7
330
1F
100
AcDbEntity
  8
0
  6
HIDDEN
 62
     7
370
    18
100
AcDbCircle
 10
686.0217445221
 20
2270.035012671
 30
0.0
 40
6.0
  0
CIRCLE
  5
C8
330
1F
100
AcDbEntity
  8
0
  6
HIDDEN
 62
     7
370
    18
100
AcDbCircle
 10
876.1748975764
 20
2191.2709977479
 30
0.0
 40
6.0
  0
CIRCLE
  5
C9
330
1F
100
AcDbEntity
  8
0
  6
HIDDEN
 62
     7
370
    18
100
AcDbCircle
 10
1081.9951873034
 20
2191.2709977479
 30
0.0
 40
6.0
  0
CIRCLE
  5
CA
330
1F
100
AcDbEntity
  8
0
  6
HIDDEN
 62
     7
370
    18
100
AcDbCircle
 10
1272.1483403578
 20
2270.035012671
 30
0.0
 40
6.0
  0
CIRCLE
  5
CB
330
1F
100
AcDbEntity
  8
0
  6
HIDDEN
 62
     7
370
    18
100
AcDbCircle
 10
1417.6852629295
 20
2415.5719352428
 30
0.0
 40
5.999999999999545
  0
CIRCLE
  5
CC
330
1F
100
AcDbEntity
  8
0
  6
HIDDEN
 62
     7
370
    18
100
AcDbCircle
 10
1496.4492778526
 20
2605.7250882971
 30
0.0
 40
6.0
  0
CIRCLE
  5
CD
330
1F
100
AcDbEntity
  8
0
  6
HIDDEN
 62
     7
370
    18
100
AcDbCircle
 10
1496.4492778526
 20
2811.5453780241
 30
0.0
 40
6.0
  0
LINE
  5
CE
330
1F
100
AcDbEntity
  8
0
  6
HIDDEN
 62
     7
370
    18
100
AcDbLine
 10
2383.0850424399
 20
1643.6352331606
 30
0.0
 11
2383.0850424399
 21
1649.6352331606
 31
0.0
  0
LINE
  5
CF
330
1F
100
AcDbEntity
  8
0
  6
HIDDEN
 62
     7
370
    18
100
AcDbLine
 10
2365.0850424399
 20
1649.6352331606
 30
0.0
 11
2365.0850424399
 21
1643.6352331606
 31
0.0
  0
LINE
  5
D0
330
1F
100
AcDbEntity
  8
0
  6
HIDDEN
 62
     7
370
    18
100
AcDbLine
 10
463.0850424399
 20
1643.6352331606
 30
0.0
 11
463.0850424399
 21
1649.6352331606
 31
0.0
  0
LINE
  5
D1
330
1F
100
AcDbEntity
  8
0
  6
HIDDEN
 62
     7
370
    18
100
AcDbLine
 10
445.0850424399
 20
1649.6352331606
 30
0.0
 11
445.0850424399
 21
1643.6352331606
 31
0.0
  0
LINE
  5
D2
330
1F
100
AcDbEntity
  8
0
  6
HIDDEN
 62
     7
370
    18
100
AcDbLine
 10
1103.0850424399
 20
1643.6352331606
 30
0.0
 11
1103.0850424399
 21
1649.6352331606
 31
0.0
  0
LINE
  5
D3
330
1F
100
AcDbEntity
  8
0
  6
HIDDEN
 62
     7
370
    18
100
AcDbLine
 10
1085.0850424399
 20
1649.6352331606
 30
0.0
 11
1085.0850424399
 21
1643.6352331606
 31
0.0
  0
LINE
  5
D4
330
1F
100
AcDbEntity
  8
0
  6
HIDDEN
 62
     7
370
    18
100
AcDbLine
 10
1743.0850424399
 20
1643.6352331606
 30
0.0
 11
1743.0850424399
 21
1649.6352331606
 31
0.0
  0
LINE
  5
D5
330
1F
100
AcDbEntity
  8
0
  6
HIDDEN
 62
     7
370
    18
100
AcDbLine
 10
1725.0850424399
 20
1649.6352331606
 30
0.0
 11
1725.0850424399
 21
1643.6352331606
 31
0.0
  0
LINE
  5
D6
330
1F
100
AcDbEntity
  8
0
  6
HIDDEN
 62
     7
370
    18
100
AcDbLine
 10
984.0850424399
 20
3388.6352331606
 30
0.0
 11
984.0850424399
 21
3384.6352331606
 31
0.0
  0
LINE
  5
D7
330
1F
100
AcDbEntity
  8
0
  6
HIDDEN
 62
     7
370
    18
100
AcDbLine
 10
996.0850424399
 20
3384.6352331606
 30
0.0
 11
996.0850424399
 21
3388.6352331606
 31
0.0
  0
LINE
  5
D8
330
1F
100
AcDbEntity
  8
0
  6
HIDDEN
 62
     7
370
    18
100
AcDbLine
 10
1132.0850424399
 20
3388.6352331606
 30
0.0
 11
1132.0850424399
 21
3384.6352331606
 31
0.0
  0
LINE
  5
D9
330
1F
100
AcDbEntity
  8
0
  6
HIDDEN
 62
     7
370
    18
100
AcDbLine
 10
1144.0850424399
 20
3384.6352331606
 30
0.0
 11
1144.0850424399
 21
3388.6352331606
 31
0.0
  0
LINE
  5
DA
330
1F
100
AcDbEntity
  8
0
  6
HIDDEN
 62
     7
370
    18
100
AcDbLine
 10
1332.0850424399
 20
3388.6352331606
 30
0.0
 11
1332.0850424399
 21
3384.6352331606
 31
0.0
  0
LINE
  5
DB
330
1F
100
AcDbEntity
  8
0
  6
HIDDEN
 62
     7
370
    18
100
AcDbLine
 10
1344.0850424399
 20
3384.6352331606
 30
0.0
 11
1344.0850424399
 21
3388.6352331606
 31
0.0
  0
LINE
  5
DC
330
1F
100
AcDbEntity
  8
0
  6
HIDDEN
 62
     7
370
    18
100
AcDbLine
 10
1532.0850424399
 20
3388.6352331606
 30
0.0
 11
1532.0850424399
 21
3384.6352331606
 31
0.0
  0
LINE
  5
DD
330
1F
100
AcDbEntity
  8
0
  6
HIDDEN
 62
     7
370
    18
100
AcDbLine
 10
1544.0850424399
 20
3384.6352331606
 30
0.0
 11
1544.0850424399
 21
3388.6352331606
 31
0.0
  0
LINE
  5
DE
330
1F
100
AcDbEntity
  8
0
  6
HIDDEN
 62
     7
370
    18
100
AcDbLine
 10
1732.0850424399
 20
3388.6352331606
 30
0.0
 11
1732.0850424399
 21
3384.6352331606
 31
0.0
  0
LINE
  5
DF
330
1F
100
AcDbEntity
  8
0
  6
HIDDEN
 62
     7
370
    18
100
AcDbLine
 10
1744.0850424399
 20
3384.6352331606
 30
0.0
 11
1744.0850424399
 21
3388.6352331606
 31
0.0
  0
LINE
  5
E0
330
1F
100
AcDbEntity
  8
0
  6
HIDDEN
 62
     7
370
    18
100
AcDbLine
 10
1932.0850424399
 20
3388.6352331606
 30
0.0
 11
1932.0850424399
 21
3384.6352331606
 31
0.0
  0
LINE
  5
E1
330
1F
100
AcDbEntity
  8
0
  6
HIDDEN
 62
     7
370
    18
100
AcDbLine
 10
1944.0850424399
 20
3384.6352331606
 30
0.0
 11
1944.0850424399
 21
3388.6352331606
 31
0.0
  0
LINE
  5
E2
330
1F
100
AcDbEntity
  8
0
  6
HIDDEN
 62
     7
370
    18
100
AcDbLine
 10
2080.0850424399
 20
3388.6352331606
 30
0.0
 11
2080.0850424399
 21
3384.6352331606
 31
0.0
  0
LINE
  5
E3
330
1F
100
AcDbEntity
  8
0
  6
HIDDEN
 62
     7
370
    18
100
AcDbLine
 10
2092.0850424399
 20
3384.6352331606
 30
0.0
 11
2092.0850424399
 21
3388.6352331606
 31
0.0
  0
INSERT
  5
EF
330
1F
100
AcDbEntity
  8
2
100
AcDbBlockReference
  2
SW_CENTERMARKSYMBOL_0
 10
979.0850424399
 20
2708.6352331606
 30
0.0
  0
LINE
  5
F0
330
1F
100
AcDbEntity
  8
1
100
AcDbLine
 10
3515.9958571125
 20
2369.1352331606
 30
0.0
 11
2960.9958571125
 21
2369.1352331606
 31
0.0
  0
LINE
  5
F1
330
1F
100
AcDbEntity
  8
1
100
AcDbLine
 10
2893.4958571125
 20
2149.6352331606
 30
0.0
 11
2960.9958571125
 21
2149.6352331606
 31
0.0
  0
LINE
  5
F2
330
1F
100
AcDbEntity
  8
1
100
AcDbLine
 10
2960.9958571125
 20
2197.6352331606
 30
0.0
 11
2893.4958571125
 21
2197.6352331606
 31
0.0
  0
LINE
  5
F3
330
1F
100
AcDbEntity
  8
1
100
AcDbLine
 10
3936.4958571125
 20
1813.6352331606
 30
0.0
 11
3936.4958571125
 21
1708.6352331606
 31
0.0
  0
LINE
  5
F4
330
1F
100
AcDbEntity
  8
1
100
AcDbLine
 10
3971.4958571125
 20
1708.6352331606
 30
0.0
 11
3971.4958571125
 21
1813.6352331606
 31
0.0
  0
LINE
  5
F5
330
1F
100
AcDbEntity
  8
1
100
AcDbLine
 10
2941.4958571125
 20
1813.6352331606
 30
0.0
 11
2941.4958571125
 21
1708.6352331606
 31
0.0
  0
LINE
  5
F6
330
1F
100
AcDbEntity
  8
1
100
AcDbLine
 10
2976.4958571125
 20
1708.6352331606
 30
0.0
 11
2976.4958571125
 21
1813.6352331606
 31
0.0
  0
LINE
  5
F7
330
1F
100
AcDbEntity
  8
1
100
AcDbLine
 10
4021.4958571125
 20
3258.6352331606
 30
0.0
 11
4019.1958571125
 21
3258.6352331606
 31
0.0
  0
LINE
  5
F8
330
1F
100
AcDbEntity
  8
1
100
AcDbLine
 10
4019.1958571125
 20
2158.6352331606
 30
0.0
 11
4021.4958571125
 21
2158.6352331606
 31
0.0
  0
LINE
  5
F9
330
1F
100
AcDbEntity
  8
1
100
AcDbLine
 10
3920.7958571125
 20
2158.6352331606
 30
0.0
 11
3921.4958571125
 21
2158.6352331606
 31
0.0
  0
LINE
  5
FA
330
1F
100
AcDbEntity
  8
1
100
AcDbLine
 10
3921.4958571125
 20
3258.6352331606
 30
0.0
 11
3920.7958571125
 21
3258.6352331606
 31
0.0
  0
LINE
  5
FB
330
1F
100
AcDbEntity
  8
1
100
AcDbLine
 10
4019.1958571125
 20
3210.9352331606
 30
0.0
 11
3921.4958571125
 21
3210.9352331606
 31
0.0
  0
LINE
  5
FC
330
1F
100
AcDbEntity
  8
1
100
AcDbLine
 10
3921.4958571125
 20
2206.3352331606
 30
0.0
 11
4019.1958571125
 21
2206.3352331606
 31
0.0
  0
LINE
  5
FD
330
1F
100
AcDbEntity
  8
1
100
AcDbLine
 10
3407.4958571125
 20
1938.6352331606
 30
0.0
 11
3407.4958571125
 21
1993.6352331606
 31
0.0
  0
LINE
  5
FE
330
1F
100
AcDbEntity
  8
1
100
AcDbLine
 10
2997.4958571125
 20
1938.6352331606
 30
0.0
 11
2997.4958571125
 21
1993.6352331606
 31
0.0
  0
LINE
  5
FF
330
1F
100
AcDbEntity
  8
1
100
AcDbLine
 10
3407.4958571125
 20
1993.6352331606
 30
0.0
 11
2997.4958571125
 21
1993.6352331606
 31
0.0
  0
LINE
  5
100
330
1F
100
AcDbEntity
  8
1
100
AcDbLine
 10
3515.9958571125
 20
2002.6352331606
 30
0.0
 11
3515.9958571125
 21
2369.1352331606
 31
0.0
  0
LINE
  5
101
330
1F
100
AcDbEntity
  8
1
100
AcDbLine
 10
3515.9958571125
 20
2002.6352331606
 30
0.0
 11
3364.4958571125
 21
2002.6352331606
 31
0.0
  0
LINE
  5
102
330
1F
100
AcDbEntity
  8
1
100
AcDbLine
 10
3040.4958571125
 20
2002.6352331606
 30
0.0
 11
2960.9958571125
 21
2002.6352331606
 31
0.0
  0
LINE
  5
103
330
1F
100
AcDbEntity
  8
1
100
AcDbLine
 10
2960.9958571125
 20
2369.1352331606
 30
0.0
 11
2960.9958571125
 21
2002.6352331606
 31
0.0
  0
LINE
  5
104
330
1F
100
AcDbEntity
  8
1
100
AcDbLine
 10
3040.4958571125
 20
1993.6352331606
 30
0.0
 11
3040.4958571125
 21
2011.6352331606
 31
0.0
  0
LINE
  5
105
330
1F
100
AcDbEntity
  8
1
100
AcDbLine
 10
3040.4958571125
 20
2011.6352331606
 30
0.0
 11
3364.4958571125
 21
2011.6352331606
 31
0.0
  0
LINE
  5
106
330
1F
100
AcDbEntity
  8
1
100
AcDbLine
 10
3364.4958571125
 20
1993.6352331606
 30
0.0
 11
3364.4958571125
 21
2011.6352331606
 31
0.0
  0
LINE
  5
107
330
1F
100
AcDbEntity
  8
1
100
AcDbLine
 10
2893.4958571125
 20
2318.1352331606
 30
0.0
 11
2733.4958571125
 21
2318.1352331606
 31
0.0
  0
LINE
  5
108
330
1F
100
AcDbEntity
  8
1
100
AcDbLine
 10
2893.4958571125
 20
2318.1352331606
 30
0.0
 11
2893.4958571125
 21
1943.1352331606
 31
0.0
  0
LINE
  5
109
330
1F
100
AcDbEntity
  8
1
100
AcDbLine
 10
2838.4958571125
 20
1943.1352331606
 30
0.0
 11
2733.4958571125
 21
1943.1352331606
 31
0.0
  0
LINE
  5
10A
330
1F
100
AcDbEntity
  8
1
100
AcDbLine
 10
2733.4958571125
 20
2318.1352331606
 30
0.0
 11
2733.4958571125
 21
1943.1352331606
 31
0.0
  0
LINE
  5
10B
330
1F
100
AcDbEntity
  8
1
100
AcDbLine
 10
2893.4958571125
 20
3003.1352331606
 30
0.0
 11
2733.4958571125
 21
3003.1352331606
 31
0.0
  0
LINE
  5
10C
330
1F
100
AcDbEntity
  8
1
100
AcDbLine
 10
2893.4958571125
 20
3003.1352331606
 30
0.0
 11
2893.4958571125
 21
2318.1352331606
 31
0.0
  0
LINE
  5
10D
330
1F
100
AcDbEntity
  8
1
100
AcDbLine
 10
2733.4958571125
 20
3003.1352331606
 30
0.0
 11
2733.4958571125
 21
2318.1352331606
 31
0.0
  0
LINE
  5
10E
330
1F
100
AcDbEntity
  8
1
100
AcDbLine
 10
2926.4958571125
 20
1649.6352331606
 30
0.0
 11
3986.4958571125
 21
1649.6352331606
 31
0.0
  0
LINE
  5
10F
330
1F
100
AcDbEntity
  8
1
100
AcDbLine
 10
3986.4958571125
 20
1643.6352331606
 30
0.0
 11
3986.4958571125
 21
1649.6352331606
 31
0.0
  0
LINE
  5
110
330
1F
100
AcDbEntity
  8
1
100
AcDbLine
 10
2926.4958571125
 20
1643.6352331606
 30
0.0
 11
2926.4958571125
 21
1649.6352331606
 31
0.0
  0
LINE
  5
111
330
1F
100
AcDbEntity
  8
1
100
AcDbLine
 10
2926.4958571125
 20
1643.6352331606
 30
0.0
 11
3986.4958571125
 21
1643.6352331606
 31
0.0
  0
LINE
  5
112
330
1F
100
AcDbEntity
  8
1
100
AcDbLine
 10
3986.4958571125
 20
1702.6352331606
 30
0.0
 11
2926.4958571125
 21
1702.6352331606
 31
0.0
  0
LINE
  5
113
330
1F
100
AcDbEntity
  8
1
100
AcDbLine
 10
2926.4958571125
 20
1702.6352331606
 30
0.0
 11
2926.4958571125
 21
1708.6352331606
 31
0.0
  0
LINE
  5
114
330
1F
100
AcDbEntity
  8
1
100
AcDbLine
 10
3986.4958571125
 20
1702.6352331606
 30
0.0
 11
3986.4958571125
 21
1708.6352331606
 31
0.0
  0
LINE
  5
115
330
1F
100
AcDbEntity
  8
1
100
AcDbLine
 10
3986.4958571125
 20
1708.6352331606
 30
0.0
 11
2926.4958571125
 21
1708.6352331606
 31
0.0
  0
LINE
  5
116
330
1F
100
AcDbEntity
  8
1
100
AcDbLine
 10
3927.4958571125
 20
1649.6352331606
 30
0.0
 11
3927.4958571125
 21
1702.6352331606
 31
0.0
  0
LINE
  5
117
330
1F
100
AcDbEntity
  8
1
100
AcDbLine
 10
2985.4958571125
 20
1649.6352331606
 30
0.0
 11
2985.4958571125
 21
1702.6352331606
 31
0.0
  0
LINE
  5
118
330
1F
100
AcDbEntity
  8
1
100
AcDbLine
 10
2838.4958571125
 20
1943.1352331606
 30
0.0
 11
2838.4958571125
 21
1938.6352331606
 31
0.0
  0
LINE
  5
119
330
1F
100
AcDbEntity
  8
1
100
AcDbLine
 10
2968.4958571125
 20
1938.6352331606
 30
0.0
 11
2838.4958571125
 21
1938.6352331606
 31
0.0
  0
LINE
  5
11A
330
1F
100
AcDbEntity
  8
1
100
AcDbLine
 10
2968.4958571125
 20
1943.1352331606
 30
0.0
 11
2838.4958571125
 21
1943.1352331606
 31
0.0
  0
LINE
  5
11B
330
1F
100
AcDbEntity
  8
1
100
AcDbLine
 10
2968.4958571125
 20
1943.1352331606
 30
0.0
 11
2968.4958571125
 21
1938.6352331606
 31
0.0
  0
LINE
  5
11C
330
1F
100
AcDbEntity
  8
1
100
AcDbLine
 10
3986.4958571125
 20
1819.6352331606
 30
0.0
 11
3986.4958571125
 21
1813.6352331606
 31
0.0
  0
LINE
  5
11D
330
1F
100
AcDbEntity
  8
1
100
AcDbLine
 10
2926.4958571125
 20
1819.6352331606
 30
0.0
 11
2926.4958571125
 21
1813.6352331606
 31
0.0
  0
LINE
  5
11E
330
1F
100
AcDbEntity
  8
1
100
AcDbLine
 10
3986.4958571125
 20
1819.6352331606
 30
0.0
 11
2926.4958571125
 21
1819.6352331606
 31
0.0
  0
LINE
  5
11F
330
1F
100
AcDbEntity
  8
1
100
AcDbLine
 10
3986.4958571125
 20
1813.6352331606
 30
0.0
 11
2926.4958571125
 21
1813.6352331606
 31
0.0
  0
LINE
  5
120
330
1F
100
AcDbEntity
  8
1
100
AcDbLine
 10
2926.4958571125
 20
1938.6352331606
 30
0.0
 11
2926.4958571125
 21
1932.6352331606
 31
0.0
  0
LINE
  5
121
330
1F
100
AcDbEntity
  8
1
100
AcDbLine
 10
3986.4958571125
 20
1938.6352331606
 30
0.0
 11
2968.4958571125
 21
1938.6352331606
 31
0.0
  0
LINE
  5
122
330
1F
100
AcDbEntity
  8
1
100
AcDbLine
 10
3986.4958571125
 20
1932.6352331606
 30
0.0
 11
2926.4958571125
 21
1932.6352331606
 31
0.0
  0
LINE
  5
123
330
1F
100
AcDbEntity
  8
1
100
AcDbLine
 10
3986.4958571125
 20
1938.6352331606
 30
0.0
 11
3986.4958571125
 21
1932.6352331606
 31
0.0
  0
LINE
  5
124
330
1F
100
AcDbEntity
  8
1
100
AcDbLine
 10
2985.4958571125
 20
1932.6352331606
 30
0.0
 11
2985.4958571125
 21
1819.6352331606
 31
0.0
  0
LINE
  5
125
330
1F
100
AcDbEntity
  8
1
100
AcDbLine
 10
3927.4958571125
 20
1932.6352331606
 30
0.0
 11
3927.4958571125
 21
1819.6352331606
 31
0.0
  0
LINE
  5
126
330
1F
100
AcDbEntity
  8
1
100
AcDbLine
 10
3971.4958571125
 20
3384.6352331606
 30
0.0
 11
3971.4958571125
 21
3388.6352331606
 31
0.0
  0
LINE
  5
127
330
1F
100
AcDbEntity
  8
1
100
AcDbLine
 10
3115.4958571125
 20
3384.6352331606
 30
0.0
 11
3115.4958571125
 21
3388.6352331606
 31
0.0
  0
LINE
  5
128
330
1F
100
AcDbEntity
  8
1
100
AcDbLine
 10
3971.4958571125
 20
3384.6352331606
 30
0.0
 11
3115.4958571125
 21
3384.6352331606
 31
0.0
  0
LINE
  5
129
330
1F
100
AcDbEntity
  8
1
100
AcDbLine
 10
3971.4958571125
 20
3388.6352331606
 30
0.0
 11
3115.4958571125
 21
3388.6352331606
 31
0.0
  0
LINE
  5
12A
330
1F
100
AcDbEntity
  8
1
100
AcDbLine
 10
3920.7958571125
 20
3384.6352331606
 30
0.0
 11
3920.7958571125
 21
2698.5223676694
 31
0.0
  0
LINE
  5
12B
330
1F
100
AcDbEntity
  8
1
100
AcDbLine
 10
3166.1958571125
 20
3384.6352331606
 30
0.0
 11
3166.1958571125
 21
2698.5223676694
 31
0.0
  0
LINE
  5
12C
330
1F
100
AcDbEntity
  8
1
100
AcDbLine
 10
3166.1958571125
 20
2698.5223676694
 30
0.0
 11
3166.1958571125
 21
2369.1352331606
 31
0.0
  0
LINE
  5
12D
330
1F
100
AcDbEntity
  8
1
100
AcDbLine
 10
3920.7958571125
 20
2698.5223676694
 30
0.0
 11
3920.7958571125
 21
1938.6352331606
 31
0.0
  0
LINE
  5
12E
330
1F
100
AcDbEntity
  8
1
100
AcDbLine
 10
4019.1958571125
 20
2158.6352331606
 30
0.0
 11
4019.1958571125
 21
3258.6352331606
 31
0.0
  0
LINE
  5
12F
330
1F
100
AcDbEntity
  8
1
100
AcDbLine
 10
4021.4958571125
 20
2158.6352331606
 30
0.0
 11
4021.4958571125
 21
3258.6352331606
 31
0.0
  0
LINE
  5
130
330
1F
100
AcDbEntity
  8
1
100
AcDbLine
 10
3921.4958571125
 20
3258.6352331606
 30
0.0
 11
3921.4958571125
 21
2158.6352331606
 31
0.0
  0
LINE
  5
131
330
1F
100
AcDbEntity
  8
0
  6
HIDDEN
 62
     7
370
    18
100
AcDbLine
 10
2775.9958571125
 20
2207.2498749656
 30
0.0
 11
2775.9958571125
 21
2098.6352331606
 31
0.0
  0
LINE
  5
132
330
1F
100
AcDbEntity
  8
0
  6
HIDDEN
 62
     7
370
    18
100
AcDbLine
 10
2775.9958571125
 20
2248.6352331606
 30
0.0
 11
2775.9958571125
 21
2207.2498749656
 31
0.0
  0
LINE
  5
133
330
1F
100
AcDbEntity
  8
0
  6
HIDDEN
 62
     7
370
    18
100
AcDbLine
 10
2850.9958571125
 20
2207.2498749656
 30
0.0
 11
2850.9958571125
 21
2098.6352331606
 31
0.0
  0
LINE
  5
134
330
1F
100
AcDbEntity
  8
0
  6
HIDDEN
 62
     7
370
    18
100
AcDbLine
 10
2850.9958571125
 20
2248.6352331606
 30
0.0
 11
2850.9958571125
 21
2207.2498749656
 31
0.0
  0
LINE
  5
135
330
1F
100
AcDbEntity
  8
0
  6
HIDDEN
 62
     7
370
    18
100
AcDbLine
 10
2775.9958571125
 20
2574.5520767471
 30
0.0
 11
2775.9958571125
 21
2858.6352331606
 31
0.0
  0
LINE
  5
136
330
1F
100
AcDbEntity
  8
0
  6
HIDDEN
 62
     7
370
    18
100
AcDbLine
 10
2775.9958571125
 20
2558.6352331606
 30
0.0
 11
2775.9958571125
 21
2574.5520767471
 31
0.0
  0
LINE
  5
137
330
1F
100
AcDbEntity
  8
0
  6
HIDDEN
 62
     7
370
    18
100
AcDbLine
 10
2850.9958571125
 20
2574.5520767471
 30
0.0
 11
2850.9958571125
 21
2858.6352331606
 31
0.0
  0
LINE
  5
138
330
1F
100
AcDbEntity
  8
0
  6
HIDDEN
 62
     7
370
    18
100
AcDbLine
 10
2850.9958571125
 20
2558.6352331606
 30
0.0
 11
2850.9958571125
 21
2574.5520767471
 31
0.0
  0
LINE
  5
139
330
1F
100
AcDbEntity
  8
0
  6
HIDDEN
 62
     7
370
    18
100
AcDbLine
 10
3921.4958571125
 20
1643.6352331606
 30
0.0
 11
3921.4958571125
 21
1708.6352331606
 31
0.0
  0
LINE
  5
13A
330
1F
100
AcDbEntity
  8
0
  6
HIDDEN
 62
     7
370
    18
100
AcDbLine
 10
2991.4958571125
 20
1643.6352331606
 30
0.0
 11
2991.4958571125
 21
1708.6352331606
 31
0.0
  0
LINE
  5
13B
330
1F
100
AcDbEntity
  8
0
  6
HIDDEN
 62
     7
370
    18
100
AcDbLine
 10
3921.4958571125
 20
1938.6352331606
 30
0.0
 11
3921.4958571125
 21
1813.6352331606
 31
0.0
  0
LINE
  5
13C
330
1F
100
AcDbEntity
  8
0
  6
HIDDEN
 62
     7
370
    18
100
AcDbLine
 10
2991.4958571125
 20
1938.6352331606
 30
0.0
 11
2991.4958571125
 21
1813.6352331606
 31
0.0
  0
LINE
  5
13D
330
1F
100
AcDbEntity
  8
0
  6
HIDDEN
 62
     7
370
    18
100
AcDbLine
 10
3918.4958571125
 20
3388.6352331606
 30
0.0
 11
3918.4958571125
 21
2698.6649922824
 31
0.0
  0
LINE
  5
13E
330
1F
100
AcDbEntity
  8
0
  6
HIDDEN
 62
     7
370
    18
100
AcDbLine
 10
3168.4958571125
 20
3388.6352331606
 30
0.0
 11
3168.4958571125
 21
2698.6649922824
 31
0.0
  0
LINE
  5
13F
330
1F
100
AcDbEntity
  8
0
  6
HIDDEN
 62
     7
370
    18
100
AcDbLine
 10
3166.1958571125
 20
1839.0352331606
 30
0.0
 11
3920.7958571125
 21
1839.0352331606
 31
0.0
  0
LINE
  5
140
330
1F
100
AcDbEntity
  8
0
  6
HIDDEN
 62
     7
370
    18
100
AcDbLine
 10
3166.1958571125
 20
2369.1352331606
 30
0.0
 11
3166.1958571125
 21
1839.0352331606
 31
0.0
  0
LINE
  5
141
330
1F
100
AcDbEntity
  8
0
  6
HIDDEN
 62
     7
370
    18
100
AcDbLine
 10
3920.7958571125
 20
1938.6352331606
 30
0.0
 11
3920.7958571125
 21
1839.0352331606
 31
0.0
  0
LINE
  5
142
330
1F
100
AcDbEntity
  8
0
  6
HIDDEN
 62
     7
370
    18
100
AcDbLine
 10
3168.4958571125
 20
1840.6352331606
 30
0.0
 11
3918.4958571125
 21
1840.6352331606
 31
0.0
  0
LINE
  5
143
330
1F
100
AcDbEntity
  8
0
  6
HIDDEN
 62
     7
370
    18
100
AcDbLine
 10
3168.4958571125
 20
2698.6649922824
 30
0.0
 11
3168.4958571125
 21
1840.6352331606
 31
0.0
  0
LINE
  5
144
330
1F
100
AcDbEntity
  8
0
  6
HIDDEN
 62
     7
370
    18
100
AcDbLine
 10
3918.4958571125
 20
2698.6649922824
 30
0.0
 11
3918.4958571125
 21
1840.6352331606
 31
0.0
  0
LINE
  5
145
330
1F
100
AcDbEntity
  8
0
  6
HIDDEN
 62
     7
370
    18
100
AcDbLine
 10
3168.4958571125
 20
3307.6352331606
 30
0.0
 11
3918.4958571125
 21
3307.6352331606
 31
0.0
  0
LINE
  5
146
330
1F
100
AcDbEntity
  8
0
  6
HIDDEN
 62
     7
370
    18
100
AcDbLine
 10
3166.1958571125
 20
3309.2352331606
 30
0.0
 11
3920.7958571125
 21
3309.2352331606
 31
0.0
  0
LINE
  5
147
330
1F
100
AcDbEntity
  8
0
  6
HIDDEN
 62
     7
370
    18
100
AcDbLine
 10
2850.9958571125
 20
2149.6352331606
 30
0.0
 11
2893.4958571125
 21
2149.6352331606
 31
0.0
  0
LINE
  5
148
330
1F
100
AcDbEntity
  8
0
  6
HIDDEN
 62
     7
370
    18
100
AcDbLine
 10
2893.4958571125
 20
2197.6352331606
 30
0.0
 11
2850.9958571125
 21
2197.6352331606
 31
0.0
  0
LINE
  5
149
330
1F
100
AcDbEntity
  8
0
  6
HIDDEN
 62
     7
370
    18
100
AcDbLine
 10
2775.9958571125
 20
2098.6352331606
 30
0.0
 11
2850.9958571125
 21
2098.6352331606
 31
0.0
  0
LINE
  5
14A
330
1F
100
AcDbEntity
  8
0
  6
HIDDEN
 62
     7
370
    18
100
AcDbLine
 10
2850.9958571125
 20
2248.6352331606
 30
0.0
 11
2775.9958571125
 21
2248.6352331606
 31
0.0
  0
LINE
  5
14B
330
1F
100
AcDbEntity
  8
0
  6
HIDDEN
 62
     7
370
    18
100
AcDbLine
 10
2850.9958571125
 20
2858.6352331606
 30
0.0
 11
2775.9958571125
 21
2858.6352331606
 31
0.0
  0
LINE
  5
14C
330
1F
100
AcDbEntity
  8
0
  6
HIDDEN
 62
     7
370
    18
100
AcDbLine
 10
2775.9958571125
 20
2558.6352331606
 30
0.0
 11
2850.9958571125
 21
2558.6352331606
 31
0.0
  0
LINE
  5
14D
330
1F
100
AcDbEntity
  8
0
  6
HIDDEN
 62
     7
370
    18
100
AcDbLine
 10
3965.4958571125
 20
1643.6352331606
 30
0.0
 11
3965.4958571125
 21
1649.6352331606
 31
0.0
  0
LINE
  5
14E
330
1F
100
AcDbEntity
  8
0
  6
HIDDEN
 62
     7
370
    18
100
AcDbLine
 10
3947.4958571125
 20
1649.6352331606
 30
0.0
 11
3947.4958571125
 21
1643.6352331606
 31
0.0
  0
LINE
  5
14F
330
1F
100
AcDbEntity
  8
0
  6
HIDDEN
 62
     7
370
    18
100
AcDbLine
 10
2965.4958571125
 20
1643.6352331606
 30
0.0
 11
2965.4958571125
 21
1649.6352331606
 31
0.0
  0
LINE
  5
150
330
1F
100
AcDbEntity
  8
0
  6
HIDDEN
 62
     7
370
    18
100
AcDbLine
 10
2947.4958571125
 20
1649.6352331606
 30
0.0
 11
2947.4958571125
 21
1643.6352331606
 31
0.0
  0
LINE
  5
151
330
1F
100
AcDbEntity
  8
0
  6
HIDDEN
 62
     7
370
    18
100
AcDbLine
 10
3945.4958571125
 20
3388.6352331606
 30
0.0
 11
3945.4958571125
 21
3384.6352331606
 31
0.0
  0
LINE
  5
152
330
1F
100
AcDbEntity
  8
0
  6
HIDDEN
 62
     7
370
    18
100
AcDbLine
 10
3957.4958571125
 20
3384.6352331606
 30
0.0
 11
3957.4958571125
 21
3388.6352331606
 31
0.0
  0
LINE
  5
153
330
1F
100
AcDbEntity
  8
0
  6
HIDDEN
 62
     7
370
    18
100
AcDbLine
 10
3837.4958571125
 20
3388.6352331606
 30
0.0
 11
3837.4958571125
 21
3384.6352331606
 31
0.0
  0
LINE
  5
154
330
1F
100
AcDbEntity
  8
0
  6
HIDDEN
 62
     7
370
    18
100
AcDbLine
 10
3849.4958571125
 20
3384.6352331606
 30
0.0
 11
3849.4958571125
 21
3388.6352331606
 31
0.0
  0
LINE
  5
155
330
1F
100
AcDbEntity
  8
0
  6
HIDDEN
 62
     7
370
    18
100
AcDbLine
 10
3637.4958571125
 20
3388.6352331606
 30
0.0
 11
3637.4958571125
 21
3384.6352331606
 31
0.0
  0
LINE
  5
156
330
1F
100
AcDbEntity
  8
0
  6
HIDDEN
 62
     7
370
    18
100
AcDbLine
 10
3649.4958571125
 20
3384.6352331606
 30
0.0
 11
3649.4958571125
 21
3388.6352331606
 31
0.0
  0
LINE
  5
157
330
1F
100
AcDbEntity
  8
0
  6
HIDDEN
 62
     7
370
    18
100
AcDbLine
 10
3437.4958571125
 20
3388.6352331606
 30
0.0
 11
3437.4958571125
 21
3384.6352331606
 31
0.0
  0
LINE
  5
158
330
1F
100
AcDbEntity
  8
0
  6
HIDDEN
 62
     7
370
    18
100
AcDbLine
 10
3449.4958571125
 20
3384.6352331606
 30
0.0
 11
3449.4958571125
 21
3388.6352331606
 31
0.0
  0
LINE
  5
159
330
1F
100
AcDbEntity
  8
0
  6
HIDDEN
 62
     7
370
    18
100
AcDbLine
 10
3129.4958571125
 20
3388.6352331606
 30
0.0
 11
3129.4958571125
 21
3384.6352331606
 31
0.0
  0
LINE
  5
15A
330
1F
100
AcDbEntity
  8
0
  6
HIDDEN
 62
     7
370
    18
100
AcDbLine
 10
3141.4958571125
 20
3384.6352331606
 30
0.0
 11
3141.4958571125
 21
3388.6352331606
 31
0.0
  0
LINE
  5
15B
330
1F
100
AcDbEntity
  8
0
  6
HIDDEN
 62
     7
370
    18
100
AcDbLine
 10
3237.4958571125
 20
3388.6352331606
 30
0.0
 11
3237.4958571125
 21
3384.6352331606
 31
0.0
  0
LINE
  5
15C
330
1F
100
AcDbEntity
  8
0
  6
HIDDEN
 62
     7
370
    18
100
AcDbLine
 10
3249.4958571125
 20
3384.6352331606
 30
0.0
 11
3249.4958571125
 21
3388.6352331606
 31
0.0
  0
LINE
  5
15D
330
1F
100
AcDbEntity
  8
0
  6
HIDDEN
 62
     7
370
    18
100
AcDbLine
 10
4021.4958571125
 20
2817.5453780241
 30
0.0
 11
4019.1958571125
 21
2817.5453780241
 31
0.0
  0
LINE
  5
15E
330
1F
100
AcDbEntity
  8
0
  6
HIDDEN
 62
     7
370
    18
100
AcDbLine
 10
4019.1958571125
 20
2805.5453780241
 30
0.0
 11
4021.4958571125
 21
2805.5453780241
 31
0.0
  0
LINE
  5
15F
330
1F
100
AcDbEntity
  8
0
  6
HIDDEN
 62
     7
370
    18
100
AcDbLine
 10
4021.4958571125
 20
2611.7250882971
 30
0.0
 11
4019.1958571125
 21
2611.7250882971
 31
0.0
  0
LINE
  5
160
330
1F
100
AcDbEntity
  8
0
  6
HIDDEN
 62
     7
370
    18
100
AcDbLine
 10
4019.1958571125
 20
2599.7250882971
 30
0.0
 11
4021.4958571125
 21
2599.7250882971
 31
0.0
  0
LINE
  5
161
330
1F
100
AcDbEntity
  8
0
  6
HIDDEN
 62
     7
370
    18
100
AcDbLine
 10
3918.4958571125
 20
2208.6352331606
 30
0.0
 11
4021.4958571125
 21
2208.6352331606
 31
0.0
  0
LINE
  5
162
330
1F
100
AcDbEntity
  8
0
  6
HIDDEN
 62
     7
370
    18
100
AcDbLine
 10
4021.4958571125
 20
3208.6352331606
 30
0.0
 11
3918.4958571125
 21
3208.6352331606
 31
0.0
  0
LINE
  5
163
330
1F
100
AcDbEntity
  8
0
  6
HIDDEN
 62
     7
370
    18
100
AcDbLine
 10
4021.4958571125
 20
3007.6985310785
 30
0.0
 11
4019.1958571125
 21
3007.6985310785
 31
0.0
  0
LINE
  5
164
330
1F
100
AcDbEntity
  8
0
  6
HIDDEN
 62
     7
370
    18
100
AcDbLine
 10
4019.1958571125
 20
2995.6985310785
 30
0.0
 11
4021.4958571125
 21
2995.6985310785
 31
0.0
  0
LINE
  5
165
330
1F
100
AcDbEntity
  8
0
  6
HIDDEN
 62
     7
370
    18
100
AcDbLine
 10
4021.4958571125
 20
2421.5719352428
 30
0.0
 11
4019.1958571125
 21
2421.5719352428
 31
0.0
  0
LINE
  5
166
330
1F
100
AcDbEntity
  8
0
  6
HIDDEN
 62
     7
370
    18
100
AcDbLine
 10
4019.1958571125
 20
2409.5719352428
 30
0.0
 11
4021.4958571125
 21
2409.5719352428
 31
0.0
  0
LINE
  5
167
330
1F
100
AcDbEntity
  8
0
  6
HIDDEN
 62
     7
370
    18
100
AcDbLine
 10
4021.4958571125
 20
2276.035012671
 30
0.0
 11
4019.1958571125
 21
2276.035012671
 31
0.0
  0
LINE
  5
168
330
1F
100
AcDbEntity
  8
0
  6
HIDDEN
 62
     7
370
    18
100
AcDbLine
 10
4019.1958571125
 20
2264.035012671
 30
0.0
 11
4021.4958571125
 21
2264.035012671
 31
0.0
  0
LINE
  5
169
330
1F
100
AcDbEntity
  8
0
  6
HIDDEN
 62
     7
370
    18
100
AcDbLine
 10
4021.4958571125
 20
3153.2354536502
 30
0.0
 11
4019.1958571125
 21
3153.2354536502
 31
0.0
  0
LINE
  5
16A
330
1F
100
AcDbEntity
  8
0
  6
HIDDEN
 62
     7
370
    18
100
AcDbLine
 10
4019.1958571125
 20
3141.2354536502
 30
0.0
 11
4021.4958571125
 21
3141.2354536502
 31
0.0
  0
LINE
  5
16B
330
1F
100
AcDbEntity
  8
0
  6
HIDDEN
 62
     7
370
    18
100
AcDbLine
 10
4021.4958571125
 20
3231.9994685733
 30
0.0
 11
4019.1958571125
 21
3231.9994685733
 31
0.0
  0
LINE
  5
16C
330
1F
100
AcDbEntity
  8
0
  6
HIDDEN
 62
     7
370
    18
100
AcDbLine
 10
4019.1958571125
 20
3219.9994685733
 30
0.0
 11
4021.4958571125
 21
3219.9994685733
 31
0.0
  0
LINE
  5
16D
330
1F
100
AcDbEntity
  8
0
  6
HIDDEN
 62
     7
370
    18
100
AcDbLine
 10
4021.4958571125
 20
2197.2709977479
 30
0.0
 11
4019.1958571125
 21
2197.2709977479
 31
0.0
  0
LINE
  5
16E
330
1F
100
AcDbEntity
  8
0
  6
HIDDEN
 62
     7
370
    18
100
AcDbLine
 10
4019.1958571125
 20
2185.2709977479
 30
0.0
 11
4021.4958571125
 21
2185.2709977479
 31
0.0
  0
LINE
  5
16F
330
1F
100
AcDbEntity
  8
2
100
AcDbLine
 10
2992.1269327825
 20
2708.6352331606
 30
0.0
 11
3763.3418713698
 21
2708.6352331606
 31
0.0
  0
LINE
  5
170
330
1F
100
AcDbEntity
  8
2
100
AcDbLine
 10
3543.4958571125
 20
3051.2054988872
 30
0.0
 11
3543.4958571125
 21
2160.9439590416
 31
0.0
  0
LINE
  5
171
330
1F
100
AcDbEntity
  8
1
100
AcDbLine
 10
2424.5850424399
 20
4304.058365026
 30
0.0
 11
2424.5850424399
 21
4859.058365026
 31
0.0
  0
LINE
  5
172
330
1F
100
AcDbEntity
  8
1
100
AcDbLine
 10
2033.5850424399
 20
4458.558365026
 30
0.0
 11
2033.5850424399
 21
4304.058365026
 31
0.0
  0
LINE
  5
173
330
1F
100
AcDbEntity
  8
1
100
AcDbLine
 10
2253.0850424399
 20
4236.558365026
 30
0.0
 11
2253.0850424399
 21
4304.058365026
 31
0.0
  0
LINE
  5
174
330
1F
100
AcDbEntity
  8
1
100
AcDbLine
 10
2205.0850424399
 20
4304.058365026
 30
0.0
 11
2205.0850424399
 21
4236.558365026
 31
0.0
  0
LINE
  5
175
330
1F
100
AcDbEntity
  8
1
100
AcDbLine
 10
429.0850424399
 20
5364.558365026
 30
0.0
 11
429.0850424399
 21
5362.258365026
 31
0.0
  0
LINE
  5
176
330
1F
100
AcDbEntity
  8
1
100
AcDbLine
 10
1529.0850424399
 20
5362.258365026
 30
0.0
 11
1529.0850424399
 21
5364.558365026
 31
0.0
  0
LINE
  5
177
330
1F
100
AcDbEntity
  8
1
100
AcDbLine
 10
429.0850424399
 20
5264.558365026
 30
0.0
 11
429.0850424399
 21
5263.858365026
 31
0.0
  0
LINE
  5
178
330
1F
100
AcDbEntity
  8
1
100
AcDbLine
 10
476.7850424399
 20
5362.258365026
 30
0.0
 11
476.7850424399
 21
5264.558365026
 31
0.0
  0
LINE
  5
179
330
1F
100
AcDbEntity
  8
1
100
AcDbLine
 10
1481.3850424399
 20
5314.558365026
 30
0.0
 11
1481.3850424399
 21
5362.258365026
 31
0.0
  0
LINE
  5
17A
330
1F
100
AcDbEntity
  8
1
100
AcDbLine
 10
2033.5850424399
 20
4304.058365026
 30
0.0
 11
2424.5850424399
 21
4304.058365026
 31
0.0
  0
LINE
  5
17B
330
1F
100
AcDbEntity
  8
1
100
AcDbLine
 10
2424.5850424399
 20
4859.058365026
 30
0.0
 11
2106.0850424399
 21
4859.058365026
 31
0.0
  0
LINE
  5
17C
330
1F
100
AcDbEntity
  8
1
100
AcDbLine
 10
2424.5850424399
 20
4750.558365026
 30
0.0
 11
2454.0850424399
 21
4750.558365026
 31
0.0
  0
LINE
  5
17D
330
1F
100
AcDbEntity
  8
1
100
AcDbLine
 10
2454.0850424399
 20
4750.558365026
 30
0.0
 11
2454.0850424399
 21
4340.558365026
 31
0.0
  0
LINE
  5
17E
330
1F
100
AcDbEntity
  8
1
100
AcDbLine
 10
2454.0850424399
 20
4340.558365026
 30
0.0
 11
2424.5850424399
 21
4340.558365026
 31
0.0
  0
LINE
  5
17F
330
1F
100
AcDbEntity
  8
1
100
AcDbLine
 10
2033.5850424399
 20
4340.558365026
 30
0.0
 11
2004.0850424399
 21
4340.558365026
 31
0.0
  0
LINE
  5
180
330
1F
100
AcDbEntity
  8
1
100
AcDbLine
 10
2004.0850424399
 20
4340.558365026
 30
0.0
 11
2004.0850424399
 21
4458.558365026
 31
0.0
  0
LINE
  5
181
330
1F
100
AcDbEntity
  8
1
100
AcDbLine
 10
659.0850424399
 20
4236.558365026
 30
0.0
 11
659.0850424399
 21
4076.558365026
 31
0.0
  0
LINE
  5
182
330
1F
100
AcDbEntity
  8
1
100
AcDbLine
 10
1034.0850424399
 20
4236.558365026
 30
0.0
 11
1034.0850424399
 21
4076.558365026
 31
0.0
  0
LINE
  5
183
330
1F
100
AcDbEntity
  8
1
100
AcDbLine
 10
659.0850424399
 20
4076.558365026
 30
0.0
 11
1034.0850424399
 21
4076.558365026
 31
0.0
  0
LINE
  5
184
330
1F
100
AcDbEntity
  8
1
100
AcDbLine
 10
659.0850424399
 20
4236.558365026
 30
0.0
 11
1034.0850424399
 21
4236.558365026
 31
0.0
  0
LINE
  5
185
330
1F
100
AcDbEntity
  8
1
100
AcDbLine
 10
2409.0850424399
 20
4236.558365026
 30
0.0
 11
2409.0850424399
 21
4076.558365026
 31
0.0
  0
LINE
  5
186
330
1F
100
AcDbEntity
  8
1
100
AcDbLine
 10
1034.0850424399
 20
4076.558365026
 30
0.0
 11
2409.0850424399
 21
4076.558365026
 31
0.0
  0
LINE
  5
187
330
1F
100
AcDbEntity
  8
1
100
AcDbLine
 10
1034.0850424399
 20
4236.558365026
 30
0.0
 11
2409.0850424399
 21
4236.558365026
 31
0.0
  0
LINE
  5
188
330
1F
100
AcDbEntity
  8
1
100
AcDbLine
 10
2494.0850424399
 20
4181.558365026
 30
0.0
 11
2409.0850424399
 21
4181.558365026
 31
0.0
  0
LINE
  5
189
330
1F
100
AcDbEntity
  8
1
100
AcDbLine
 10
2344.0850424399
 20
4236.558365026
 30
0.0
 11
2344.0850424399
 21
4304.058365026
 31
0.0
  0
LINE
  5
18A
330
1F
100
AcDbEntity
  8
1
100
AcDbLine
 10
2424.5850424399
 20
4311.558365026
 30
0.0
 11
2494.0850424399
 21
4311.558365026
 31
0.0
  0
LINE
  5
18B
330
1F
100
AcDbEntity
  8
1
100
AcDbLine
 10
2494.0850424399
 20
4311.558365026
 30
0.0
 11
2494.0850424399
 21
4181.558365026
 31
0.0
  0
LINE
  5
18C
330
1F
100
AcDbEntity
  8
1
100
AcDbLine
 10
659.0850424399
 20
4181.558365026
 30
0.0
 11
574.0850424399
 21
4181.558365026
 31
0.0
  0
LINE
  5
18D
330
1F
100
AcDbEntity
  8
1
100
AcDbLine
 10
574.0850424399
 20
4181.558365026
 30
0.0
 11
574.0850424399
 21
4311.558365026
 31
0.0
  0
LINE
  5
18E
330
1F
100
AcDbEntity
  8
1
100
AcDbLine
 10
574.0850424399
 20
4311.558365026
 30
0.0
 11
724.0850424399
 21
4311.558365026
 31
0.0
  0
LINE
  5
18F
330
1F
100
AcDbEntity
  8
1
100
AcDbLine
 10
724.0850424399
 20
4311.558365026
 30
0.0
 11
724.0850424399
 21
4236.558365026
 31
0.0
  0
LINE
  5
190
330
1F
100
AcDbEntity
  8
1
100
AcDbLine
 10
574.0850424399
 20
4269.558365026
 30
0.0
 11
354.0850424399
 21
4269.558365026
 31
0.0
  0
LINE
  5
191
330
1F
100
AcDbEntity
  8
1
100
AcDbLine
 10
354.0850424399
 20
4269.558365026
 30
0.0
 11
354.0850424399
 21
4509.258365026
 31
0.0
  0
LINE
  5
192
330
1F
100
AcDbEntity
  8
1
100
AcDbLine
 10
354.0850424399
 20
5263.858365026
 30
0.0
 11
354.0850424399
 21
5329.558365026
 31
0.0
  0
LINE
  5
193
330
1F
100
AcDbEntity
  8
1
100
AcDbLine
 10
354.0850424399
 20
5329.558365026
 30
0.0
 11
476.7850424399
 21
5329.558365026
 31
0.0
  0
LINE
  5
194
330
1F
100
AcDbEntity
  8
1
100
AcDbLine
 10
1481.3850424399
 20
5329.558365026
 30
0.0
 11
2474.0850424399
 21
5329.558365026
 31
0.0
  0
LINE
  5
195
330
1F
100
AcDbEntity
  8
1
100
AcDbLine
 10
2474.0850424399
 20
5329.558365026
 30
0.0
 11
2474.0850424399
 21
4311.558365026
 31
0.0
  0
LINE
  5
196
330
1F
100
AcDbEntity
  8
1
100
AcDbLine
 10
2344.0850424399
 20
4269.558365026
 30
0.0
 11
2253.0850424399
 21
4269.558365026
 31
0.0
  0
LINE
  5
197
330
1F
100
AcDbEntity
  8
1
100
AcDbLine
 10
2205.0850424399
 20
4269.558365026
 30
0.0
 11
724.0850424399
 21
4269.558365026
 31
0.0
  0
LINE
  5
198
330
1F
100
AcDbEntity
  8
1
100
AcDbLine
 10
419.0850424399
 20
5264.558365026
 30
0.0
 11
429.0850424399
 21
5264.558365026
 31
0.0
  0
LINE
  5
199
330
1F
100
AcDbEntity
  8
1
100
AcDbLine
 10
2106.0850424399
 20
5264.558365026
 30
0.0
 11
2409.0850424399
 21
5264.558365026
 31
0.0
  0
LINE
  5
19A
330
1F
100
AcDbEntity
  8
1
100
AcDbLine
 10
419.0850424399
 20
4334.558365026
 30
0.0
 11
419.0850424399
 21
4509.258365026
 31
0.0
  0
LINE
  5
19B
330
1F
100
AcDbEntity
  8
1
100
AcDbLine
 10
419.0850424399
 20
5263.858365026
 30
0.0
 11
419.0850424399
 21
5264.558365026
 31
0.0
  0
LINE
  5
19C
330
1F
100
AcDbEntity
  8
1
100
AcDbLine
 10
2033.5850424399
 20
4334.558365026
 30
0.0
 11
419.0850424399
 21
4334.558365026
 31
0.0
  0
LINE
  5
19D
330
1F
100
AcDbEntity
  8
1
100
AcDbLine
 10
2409.0850424399
 20
5264.558365026
 30
0.0
 11
2409.0850424399
 21
4859.058365026
 31
0.0
  0
CIRCLE
  5
19E
330
1F
100
AcDbEntity
  8
1
100
AcDbCircle
 10
2086.0850424399
 20
4478.558365026
 30
0.0
 40
6.0
  0
CIRCLE
  5
19F
330
1F
100
AcDbEntity
  8
1
100
AcDbCircle
 10
2086.0850424399
 20
4586.558365026
 30
0.0
 40
5.999999999999091
  0
CIRCLE
  5
1A0
330
1F
100
AcDbEntity
  8
1
100
AcDbCircle
 10
2086.0850424399
 20
4986.558365026
 30
0.0
 40
6.000000000000909
  0
CIRCLE
  5
1A1
330
1F
100
AcDbEntity
  8
1
100
AcDbCircle
 10
1938.0850424399
 20
4478.558365026
 30
0.0
 40
6.000000000000909
  0
CIRCLE
  5
1A2
330
1F
100
AcDbEntity
  8
1
100
AcDbCircle
 10
1738.0850424399
 20
4478.558365026
 30
0.0
 40
6.0
  0
CIRCLE
  5
1A3
330
1F
100
AcDbEntity
  8
1
100
AcDbCircle
 10
1738.0850424399
 20
5294.558365026
 30
0.0
 40
5.999999999999091
  0
CIRCLE
  5
1A4
330
1F
100
AcDbEntity
  8
1
100
AcDbCircle
 10
1938.0850424399
 20
5294.558365026
 30
0.0
 40
5.999999999999091
  0
CIRCLE
  5
1A5
330
1F
100
AcDbEntity
  8
1
100
AcDbCircle
 10
2086.0850424399
 20
4786.558365026
 30
0.0
 40
6.0
  0
CIRCLE
  5
1A6
330
1F
100
AcDbEntity
  8
1
100
AcDbCircle
 10
2086.0850424399
 20
5186.558365026
 30
0.0
 40
6.0
  0
CIRCLE
  5
1A7
330
1F
100
AcDbEntity
  8
1
100
AcDbCircle
 10
2086.0850424399
 20
5294.558365026
 30
0.0
 40
5.999999999999091
  0
CIRCLE
  5
1A8
330
1F
100
AcDbEntity
  8
1
100
AcDbCircle
 10
990.0850424399
 20
5186.558365026
 30
0.0
 40
5.999999999999091
  0
CIRCLE
  5
1A9
330
1F
100
AcDbEntity
  8
1
100
AcDbCircle
 10
990.0850424399
 20
4786.558365026
 30
0.0
 40
6.0
  0
CIRCLE
  5
1AA
330
1F
100
AcDbEntity
  8
1
100
AcDbCircle
 10
1338.0850424399
 20
5294.558365026
 30
0.0
 40
5.999999999999091
  0
CIRCLE
  5
1AB
330
1F
100
AcDbEntity
  8
1
100
AcDbCircle
 10
1538.0850424399
 20
5294.558365026
 30
0.0
 40
5.999999999999091
  0
CIRCLE
  5
1AC
330
1F
100
AcDbEntity
  8
1
100
AcDbCircle
 10
1538.0850424399
 20
4478.558365026
 30
0.0
 40
6.0
  0
CIRCLE
  5
1AD
330
1F
100
AcDbEntity
  8
1
100
AcDbCircle
 10
1338.0850424399
 20
4478.558365026
 30
0.0
 40
6.0
  0
CIRCLE
  5
1AE
330
1F
100
AcDbEntity
  8
1
100
AcDbCircle
 10
1138.0850424399
 20
4478.558365026
 30
0.0
 40
6.0
  0
CIRCLE
  5
1AF
330
1F
100
AcDbEntity
  8
1
100
AcDbCircle
 10
990.0850424399
 20
4986.558365026
 30
0.0
 40
6.0
  0
CIRCLE
  5
1B0
330
1F
100
AcDbEntity
  8
1
100
AcDbCircle
 10
990.0850424399
 20
4478.558365026
 30
0.0
 40
6.0
  0
LINE
  5
1B1
330
1F
100
AcDbEntity
  8
1
100
AcDbLine
 10
970.0850424399
 20
5314.558365026
 30
0.0
 11
2106.0850424399
 21
5314.558365026
 31
0.0
  0
LINE
  5
1B2
330
1F
100
AcDbEntity
  8
1
100
AcDbLine
 10
2106.0850424399
 20
5314.558365026
 30
0.0
 11
2106.0850424399
 21
4458.558365026
 31
0.0
  0
LINE
  5
1B3
330
1F
100
AcDbEntity
  8
1
100
AcDbLine
 10
2106.0850424399
 20
4458.558365026
 30
0.0
 11
970.0850424399
 21
4458.558365026
 31
0.0
  0
LINE
  5
1B4
330
1F
100
AcDbEntity
  8
1
100
AcDbLine
 10
1023.0850424399
 20
4511.558365026
 30
0.0
 11
1023.0850424399
 21
5261.558365026
 31
0.0
  0
LINE
  5
1B5
330
1F
100
AcDbEntity
  8
1
100
AcDbLine
 10
1023.0850424399
 20
4511.558365026
 30
0.0
 11
2053.0850424399
 21
4511.558365026
 31
0.0
  0
LINE
  5
1B6
330
1F
100
AcDbEntity
  8
1
100
AcDbLine
 10
2053.0850424399
 20
4511.558365026
 30
0.0
 11
2053.0850424399
 21
5261.558365026
 31
0.0
  0
LINE
  5
1B7
330
1F
100
AcDbEntity
  8
1
100
AcDbLine
 10
1023.0850424399
 20
5261.558365026
 30
0.0
 11
2053.0850424399
 21
5261.558365026
 31
0.0
  0
CIRCLE
  5
1B8
330
1F
100
AcDbEntity
  8
1
100
AcDbCircle
 10
990.0850424399
 20
4586.558365026
 30
0.0
 40
6.0
  0
CIRCLE
  5
1B9
330
1F
100
AcDbEntity
  8
1
100
AcDbCircle
 10
1138.0850424399
 20
5294.558365026
 30
0.0
 40
5.999999999999091
  0
LINE
  5
1BA
330
1F
100
AcDbEntity
  8
1
100
AcDbLine
 10
970.0850424399
 20
4458.558365026
 30
0.0
 11
970.0850424399
 21
5314.558365026
 31
0.0
  0
CIRCLE
  5
1BB
330
1F
100
AcDbEntity
  8
1
100
AcDbCircle
 10
990.0850424399
 20
5294.558365026
 30
0.0
 40
6.0
  0
LINE
  5
1BC
330
1F
100
AcDbEntity
  8
1
100
AcDbLine
 10
918.5850424399
 20
4509.258365026
 30
0.0
 11
970.0850424399
 21
4509.258365026
 31
0.0
  0
LINE
  5
1BD
330
1F
100
AcDbEntity
  8
1
100
AcDbLine
 10
918.5850424399
 20
5263.858365026
 30
0.0
 11
970.0850424399
 21
5263.858365026
 31
0.0
  0
LINE
  5
1BE
330
1F
100
AcDbEntity
  8
1
100
AcDbLine
 10
257.4850424399
 20
4509.258365026
 30
0.0
 11
257.4850424399
 21
5263.858365026
 31
0.0
  0
LINE
  5
1BF
330
1F
100
AcDbEntity
  8
1
100
AcDbLine
 10
257.4850424399
 20
4509.258365026
 30
0.0
 11
918.5850424399
 21
4509.258365026
 31
0.0
  0
LINE
  5
1C0
330
1F
100
AcDbEntity
  8
1
100
AcDbLine
 10
257.4850424399
 20
5263.858365026
 30
0.0
 11
918.5850424399
 21
5263.858365026
 31
0.0
  0
LINE
  5
1C1
330
1F
100
AcDbEntity
  8
1
100
AcDbLine
 10
1529.0850424399
 20
5362.258365026
 30
0.0
 11
429.0850424399
 21
5362.258365026
 31
0.0
  0
LINE
  5
1C2
330
1F
100
AcDbEntity
  8
1
100
AcDbLine
 10
1529.0850424399
 20
5364.558365026
 30
0.0
 11
429.0850424399
 21
5364.558365026
 31
0.0
  0
LINE
  5
1C3
330
1F
100
AcDbEntity
  8
1
100
AcDbLine
 10
429.0850424399
 20
5264.558365026
 30
0.0
 11
970.0850424399
 21
5264.558365026
 31
0.0
  0
LINE
  5
1C4
330
1F
100
AcDbEntity
  8
0
  6
HIDDEN
 62
     7
370
    18
100
AcDbLine
 10
2119.648988052
 20
4383.558365026
 30
0.0
 11
2134.3261378452
 21
4383.558365026
 31
0.0
  0
LINE
  5
1C5
330
1F
100
AcDbEntity
  8
0
  6
HIDDEN
 62
     7
370
    18
100
AcDbLine
 10
2119.648988052
 20
4383.558365026
 30
0.0
 11
2119.648988052
 21
4707.558365026
 31
0.0
  0
LINE
  5
1C6
330
1F
100
AcDbEntity
  8
0
  6
HIDDEN
 62
     7
370
    18
100
AcDbLine
 10
2119.648988052
 20
4707.558365026
 30
0.0
 11
2134.3261378452
 21
4707.558365026
 31
0.0
  0
LINE
  5
1C7
330
1F
100
AcDbEntity
  8
0
  6
HIDDEN
 62
     7
370
    18
100
AcDbLine
 10
2134.3261378452
 20
4859.058365026
 30
0.0
 11
2134.3261378452
 21
4707.558365026
 31
0.0
  0
LINE
  5
1C8
330
1F
100
AcDbEntity
  8
0
  6
HIDDEN
 62
     7
370
    18
100
AcDbLine
 10
2323.8439470347
 20
4859.058365026
 30
0.0
 11
2323.8439470347
 21
4707.558365026
 31
0.0
  0
LINE
  5
1C9
330
1F
100
AcDbEntity
  8
0
  6
HIDDEN
 62
     7
370
    18
100
AcDbLine
 10
2323.8439470347
 20
4707.558365026
 30
0.0
 11
2338.5210968279
 21
4707.558365026
 31
0.0
  0
LINE
  5
1CA
330
1F
100
AcDbEntity
  8
0
  6
HIDDEN
 62
     7
370
    18
100
AcDbLine
 10
2338.5210968279
 20
4707.558365026
 30
0.0
 11
2338.5210968279
 21
4383.558365026
 31
0.0
  0
LINE
  5
1CB
330
1F
100
AcDbEntity
  8
0
  6
HIDDEN
 62
     7
370
    18
100
AcDbLine
 10
2323.8439470347
 20
4383.558365026
 30
0.0
 11
2338.5210968279
 21
4383.558365026
 31
0.0
  0
LINE
  5
1CC
330
1F
100
AcDbEntity
  8
0
  6
HIDDEN
 62
     7
370
    18
100
AcDbLine
 10
2323.8439470347
 20
4383.558365026
 30
0.0
 11
2323.8439470347
 21
4304.058365026
 31
0.0
  0
LINE
  5
1CD
330
1F
100
AcDbEntity
  8
0
  6
HIDDEN
 62
     7
370
    18
100
AcDbLine
 10
2134.3261378452
 20
4383.558365026
 30
0.0
 11
2134.3261378452
 21
4304.058365026
 31
0.0
  0
LINE
  5
1CE
330
1F
100
AcDbEntity
  8
0
  6
HIDDEN
 62
     7
370
    18
100
AcDbLine
 10
2106.0850424399
 20
4859.058365026
 30
0.0
 11
2033.5850424399
 21
4859.058365026
 31
0.0
  0
LINE
  5
1CF
330
1F
100
AcDbEntity
  8
0
  6
HIDDEN
 62
     7
370
    18
100
AcDbLine
 10
2372.0850424399
 20
4383.558365026
 30
0.0
 11
2338.5210968279
 21
4383.558365026
 31
0.0
  0
LINE
  5
1D0
330
1F
100
AcDbEntity
  8
0
  6
HIDDEN
 62
     7
370
    18
100
AcDbLine
 10
2372.0850424399
 20
4707.558365026
 30
0.0
 11
2338.5210968279
 21
4707.558365026
 31
0.0
  0
LINE
  5
1D1
330
1F
100
AcDbEntity
  8
0
  6
HIDDEN
 62
     7
370
    18
100
AcDbLine
 10
2372.0850424399
 20
4383.558365026
 30
0.0
 11
2372.0850424399
 21
4707.558365026
 31
0.0
  0
LINE
  5
1D2
330
1F
100
AcDbEntity
  8
0
  6
HIDDEN
 62
     7
370
    18
100
AcDbLine
 10
2119.648988052
 20
4707.558365026
 30
0.0
 11
2086.0850424399
 21
4707.558365026
 31
0.0
  0
LINE
  5
1D3
330
1F
100
AcDbEntity
  8
0
  6
HIDDEN
 62
     7
370
    18
100
AcDbLine
 10
2119.648988052
 20
4383.558365026
 30
0.0
 11
2086.0850424399
 21
4383.558365026
 31
0.0
  0
LINE
  5
1D4
330
1F
100
AcDbEntity
  8
0
  6
HIDDEN
 62
     7
370
    18
100
AcDbLine
 10
2086.0850424399
 20
4383.558365026
 30
0.0
 11
2086.0850424399
 21
4707.558365026
 31
0.0
  0
LINE
  5
1D5
330
1F
100
AcDbEntity
  8
0
  6
HIDDEN
 62
     7
370
    18
100
AcDbLine
 10
2134.3261378452
 20
4707.558365026
 30
0.0
 11
2323.8439470347
 21
4707.558365026
 31
0.0
  0
LINE
  5
1D6
330
1F
100
AcDbEntity
  8
0
  6
HIDDEN
 62
     7
370
    18
100
AcDbLine
 10
2134.3261378452
 20
4383.558365026
 30
0.0
 11
2323.8439470347
 21
4383.558365026
 31
0.0
  0
LINE
  5
1D7
330
1F
100
AcDbEntity
  8
0
  6
HIDDEN
 62
     7
370
    18
100
AcDbLine
 10
2004.0850424399
 20
4750.558365026
 30
0.0
 11
2424.5850424399
 21
4750.558365026
 31
0.0
  0
LINE
  5
1D8
330
1F
100
AcDbEntity
  8
0
  6
HIDDEN
 62
     7
370
    18
100
AcDbLine
 10
2424.5850424399
 20
4340.558365026
 30
0.0
 11
2033.5850424399
 21
4340.558365026
 31
0.0
  0
LINE
  5
1D9
330
1F
100
AcDbEntity
  8
0
  6
HIDDEN
 62
     7
370
    18
100
AcDbLine
 10
2004.0850424399
 20
4458.558365026
 30
0.0
 11
2004.0850424399
 21
4750.558365026
 31
0.0
  0
LINE
  5
1DA
330
1F
100
AcDbEntity
  8
0
  6
HIDDEN
 62
     7
370
    18
100
AcDbLine
 10
2296.130220166
 20
4119.058365026
 30
0.0
 11
2304.0850424399
 21
4119.058365026
 31
0.0
  0
LINE
  5
1DB
330
1F
100
AcDbEntity
  8
0
  6
HIDDEN
 62
     7
370
    18
100
AcDbLine
 10
2154.0850424399
 20
4119.058365026
 30
0.0
 11
2296.130220166
 21
4119.058365026
 31
0.0
  0
LINE
  5
1DC
330
1F
100
AcDbEntity
  8
0
  6
HIDDEN
 62
     7
370
    18
100
AcDbLine
 10
2296.130220166
 20
4194.058365026
 30
0.0
 11
2304.0850424399
 21
4194.058365026
 31
0.0
  0
LINE
  5
1DD
330
1F
100
AcDbEntity
  8
0
  6
HIDDEN
 62
     7
370
    18
100
AcDbLine
 10
2154.0850424399
 20
4194.058365026
 30
0.0
 11
2296.130220166
 21
4194.058365026
 31
0.0
  0
LINE
  5
1DE
330
1F
100
AcDbEntity
  8
0
  6
HIDDEN
 62
     7
370
    18
100
AcDbLine
 10
1129.0850424399
 20
4194.058365026
 30
0.0
 11
829.0850424399
 21
4194.058365026
 31
0.0
  0
LINE
  5
1DF
330
1F
100
AcDbEntity
  8
0
  6
HIDDEN
 62
     7
370
    18
100
AcDbLine
 10
1129.0850424399
 20
4119.058365026
 30
0.0
 11
829.0850424399
 21
4119.058365026
 31
0.0
  0
CIRCLE
  5
1E0
330
1F
100
AcDbEntity
  8
0
  6
HIDDEN
 62
     7
370
    18
100
AcDbCircle
 10
454.0850424399
 20
4299.558365026
 30
0.0
 40
9.00000000000091
  0
CIRCLE
  5
1E1
330
1F
100
AcDbEntity
  8
0
  6
HIDDEN
 62
     7
370
    18
100
AcDbCircle
 10
1094.0850424399
 20
4299.558365026
 30
0.0
 40
9.00000000000091
  0
CIRCLE
  5
1E2
330
1F
100
AcDbEntity
  8
0
  6
HIDDEN
 62
     7
370
    18
100
AcDbCircle
 10
1734.0850424399
 20
4299.558365026
 30
0.0
 40
9.00000000000091
  0
CIRCLE
  5
1E3
330
1F
100
AcDbEntity
  8
0
  6
HIDDEN
 62
     7
370
    18
100
AcDbCircle
 10
2374.0850424399
 20
4299.558365026
 30
0.0
 40
9.00000000000091
  0
CIRCLE
  5
1E4
330
1F
100
AcDbEntity
  8
0
  6
HIDDEN
 62
     7
370
    18
100
AcDbCircle
 10
1094.0850424399
 20
5299.558365026
 30
0.0
 40
9.0
  0
CIRCLE
  5
1E5
330
1F
100
AcDbEntity
  8
0
  6
HIDDEN
 62
     7
370
    18
100
AcDbCircle
 10
2374.0850424399
 20
5299.558365026
 30
0.0
 40
9.0
  0
CIRCLE
  5
1E6
330
1F
100
AcDbEntity
  8
0
  6
HIDDEN
 62
     7
370
    18
100
AcDbCircle
 10
1734.0850424399
 20
5299.558365026
 30
0.0
 40
9.0
  0
CIRCLE
  5
1E7
330
1F
100
AcDbEntity
  8
0
  6
HIDDEN
 62
     7
370
    18
100
AcDbCircle
 10
454.0850424399
 20
5299.558365026
 30
0.0
 40
9.0
  0
LINE
  5
1E8
330
1F
100
AcDbEntity
  8
0
  6
HIDDEN
 62
     7
370
    18
100
AcDbLine
 10
2409.0850424399
 20
4181.558365026
 30
0.0
 11
2344.0850424399
 21
4181.558365026
 31
0.0
  0
LINE
  5
1E9
330
1F
100
AcDbEntity
  8
0
  6
HIDDEN
 62
     7
370
    18
100
AcDbLine
 10
2344.0850424399
 20
4181.558365026
 30
0.0
 11
2344.0850424399
 21
4236.558365026
 31
0.0
  0
LINE
  5
1EA
330
1F
100
AcDbEntity
  8
0
  6
HIDDEN
 62
     7
370
    18
100
AcDbLine
 10
2344.0850424399
 20
4304.058365026
 30
0.0
 11
2344.0850424399
 21
4311.558365026
 31
0.0
  0
LINE
  5
1EB
330
1F
100
AcDbEntity
  8
0
  6
HIDDEN
 62
     7
370
    18
100
AcDbLine
 10
2344.0850424399
 20
4311.558365026
 30
0.0
 11
2424.5850424399
 21
4311.558365026
 31
0.0
  0
LINE
  5
1EC
330
1F
100
AcDbEntity
  8
0
  6
HIDDEN
 62
     7
370
    18
100
AcDbLine
 10
724.0850424399
 20
4181.558365026
 30
0.0
 11
659.0850424399
 21
4181.558365026
 31
0.0
  0
LINE
  5
1ED
330
1F
100
AcDbEntity
  8
0
  6
HIDDEN
 62
     7
370
    18
100
AcDbLine
 10
724.0850424399
 20
4236.558365026
 30
0.0
 11
724.0850424399
 21
4181.558365026
 31
0.0
  0
LINE
  5
1EE
330
1F
100
AcDbEntity
  8
0
  6
HIDDEN
 62
     7
370
    18
100
AcDbLine
 10
354.0850424399
 20
4509.258365026
 30
0.0
 11
354.0850424399
 21
5263.858365026
 31
0.0
  0
LINE
  5
1EF
330
1F
100
AcDbEntity
  8
0
  6
HIDDEN
 62
     7
370
    18
100
AcDbLine
 10
476.7850424399
 20
5329.558365026
 30
0.0
 11
1481.3850424399
 21
5329.558365026
 31
0.0
  0
LINE
  5
1F0
330
1F
100
AcDbEntity
  8
0
  6
HIDDEN
 62
     7
370
    18
100
AcDbLine
 10
2253.0850424399
 20
4269.558365026
 30
0.0
 11
2205.0850424399
 21
4269.558365026
 31
0.0
  0
LINE
  5
1F1
330
1F
100
AcDbEntity
  8
0
  6
HIDDEN
 62
     7
370
    18
100
AcDbLine
 10
1529.0850424399
 20
5264.558365026
 30
0.0
 11
2106.0850424399
 21
5264.558365026
 31
0.0
  0
LINE
  5
1F2
330
1F
100
AcDbEntity
  8
0
  6
HIDDEN
 62
     7
370
    18
100
AcDbLine
 10
419.0850424399
 20
4509.258365026
 30
0.0
 11
419.0850424399
 21
5263.858365026
 31
0.0
  0
LINE
  5
1F3
330
1F
100
AcDbEntity
  8
0
  6
HIDDEN
 62
     7
370
    18
100
AcDbLine
 10
2409.0850424399
 20
4334.558365026
 30
0.0
 11
2033.5850424399
 21
4334.558365026
 31
0.0
  0
LINE
  5
1F4
330
1F
100
AcDbEntity
  8
0
  6
HIDDEN
 62
     7
370
    18
100
AcDbLine
 10
2409.0850424399
 20
4859.058365026
 30
0.0
 11
2409.0850424399
 21
4334.558365026
 31
0.0
  0
LINE
  5
1F5
330
1F
100
AcDbEntity
  8
0
  6
HIDDEN
 62
     7
370
    18
100
AcDbLine
 10
2474.0850424399
 20
4311.558365026
 30
0.0
 11
2474.0850424399
 21
4269.558365026
 31
0.0
  0
LINE
  5
1F6
330
1F
100
AcDbEntity
  8
0
  6
HIDDEN
 62
     7
370
    18
100
AcDbLine
 10
724.0850424399
 20
4269.558365026
 30
0.0
 11
574.0850424399
 21
4269.558365026
 31
0.0
  0
LINE
  5
1F7
330
1F
100
AcDbEntity
  8
0
  6
HIDDEN
 62
     7
370
    18
100
AcDbLine
 10
2474.0850424399
 20
4269.558365026
 30
0.0
 11
2344.0850424399
 21
4269.558365026
 31
0.0
  0
LINE
  5
1F8
330
1F
100
AcDbEntity
  8
0
  6
HIDDEN
 62
     7
370
    18
100
AcDbLine
 10
413.0850424399
 20
4328.558365026
 30
0.0
 11
413.0850424399
 21
5270.558365026
 31
0.0
  0
LINE
  5
1F9
330
1F
100
AcDbEntity
  8
0
  6
HIDDEN
 62
     7
370
    18
100
AcDbLine
 10
413.0850424399
 20
5270.558365026
 30
0.0
 11
2415.0850424399
 21
5270.558365026
 31
0.0
  0
LINE
  5
1FA
330
1F
100
AcDbEntity
  8
0
  6
HIDDEN
 62
     7
370
    18
100
AcDbLine
 10
2415.0850424399
 20
5270.558365026
 30
0.0
 11
2415.0850424399
 21
4328.558365026
 31
0.0
  0
LINE
  5
1FB
330
1F
100
AcDbEntity
  8
0
  6
HIDDEN
 62
     7
370
    18
100
AcDbLine
 10
2415.0850424399
 20
4328.558365026
 30
0.0
 11
413.0850424399
 21
4328.558365026
 31
0.0
  0
CIRCLE
  5
1FC
330
1F
100
AcDbEntity
  8
0
  6
HIDDEN
 62
     7
370
    18
100
AcDbCircle
 10
419.0850424399
 20
5297.058365026
 30
0.0
 40
17.50000000000091
  0
CIRCLE
  5
1FD
330
1F
100
AcDbEntity
  8
0
  6
HIDDEN
 62
     7
370
    18
100
AcDbCircle
 10
2409.0850424399
 20
5297.058365026
 30
0.0
 40
17.50000000000091
  0
CIRCLE
  5
1FE
330
1F
100
AcDbEntity
  8
0
  6
HIDDEN
 62
     7
370
    18
100
AcDbCircle
 10
419.0850424399
 20
4302.058365026
 30
0.0
 40
17.5
  0
CIRCLE
  5
1FF
330
1F
100
AcDbEntity
  8
0
  6
HIDDEN
 62
     7
370
    18
100
AcDbCircle
 10
2409.0850424399
 20
4302.058365026
 30
0.0
 40
17.5
  0
LINE
  5
200
330
1F
100
AcDbEntity
  8
0
  6
HIDDEN
 62
     7
370
    18
100
AcDbLine
 10
2054.3334507309
 20
5263.858365026
 30
0.0
 11
1021.4850424399
 21
5263.858365026
 31
0.0
  0
LINE
  5
201
330
1F
100
AcDbEntity
  8
0
  6
HIDDEN
 62
     7
370
    18
100
AcDbLine
 10
1021.4850424399
 20
4509.258365026
 30
0.0
 11
1021.4850424399
 21
5263.858365026
 31
0.0
  0
LINE
  5
202
330
1F
100
AcDbEntity
  8
0
  6
HIDDEN
 62
     7
370
    18
100
AcDbLine
 10
2054.3334507309
 20
5263.858365026
 30
0.0
 11
2054.3334507309
 21
4509.258365026
 31
0.0
  0
LINE
  5
203
330
1F
100
AcDbEntity
  8
0
  6
HIDDEN
 62
     7
370
    18
100
AcDbLine
 10
2054.3334507309
 20
4509.258365026
 30
0.0
 11
1021.4850424399
 21
4509.258365026
 31
0.0
  0
LINE
  5
204
330
1F
100
AcDbEntity
  8
0
  6
HIDDEN
 62
     7
370
    18
100
AcDbLine
 10
970.0850424399
 20
4509.258365026
 30
0.0
 11
1021.4850424399
 21
4509.258365026
 31
0.0
  0
LINE
  5
205
330
1F
100
AcDbEntity
  8
0
  6
HIDDEN
 62
     7
370
    18
100
AcDbLine
 10
970.0850424399
 20
5263.858365026
 30
0.0
 11
1021.4850424399
 21
5263.858365026
 31
0.0
  0
LINE
  5
206
330
1F
100
AcDbEntity
  8
0
  6
HIDDEN
 62
     7
370
    18
100
AcDbLine
 10
259.0850424399
 20
4511.558365026
 30
0.0
 11
259.0850424399
 21
5261.558365026
 31
0.0
  0
LINE
  5
207
330
1F
100
AcDbEntity
  8
0
  6
HIDDEN
 62
     7
370
    18
100
AcDbLine
 10
259.0850424399
 20
4511.558365026
 30
0.0
 11
918.5850424399
 21
4511.558365026
 31
0.0
  0
LINE
  5
208
330
1F
100
AcDbEntity
  8
0
  6
HIDDEN
 62
     7
370
    18
100
AcDbLine
 10
259.0850424399
 20
5261.558365026
 30
0.0
 11
918.5850424399
 21
5261.558365026
 31
0.0
  0
LINE
  5
209
330
1F
100
AcDbEntity
  8
0
  6
HIDDEN
 62
     7
370
    18
100
AcDbLine
 10
918.5850424399
 20
4511.558365026
 30
0.0
 11
1023.0850424399
 21
4511.558365026
 31
0.0
  0
LINE
  5
20A
330
1F
100
AcDbEntity
  8
0
  6
HIDDEN
 62
     7
370
    18
100
AcDbLine
 10
918.5850424399
 20
5261.558365026
 30
0.0
 11
1023.0850424399
 21
5261.558365026
 31
0.0
  0
LINE
  5
20B
330
1F
100
AcDbEntity
  8
0
  6
HIDDEN
 62
     7
370
    18
100
AcDbLine
 10
970.0850424399
 20
5264.558365026
 30
0.0
 11
1529.0850424399
 21
5264.558365026
 31
0.0
  0
LINE
  5
20C
330
1F
100
AcDbEntity
  8
0
  6
HIDDEN
 62
     7
370
    18
100
AcDbLine
 10
2033.5850424399
 20
4859.058365026
 30
0.0
 11
2033.5850424399
 21
4458.558365026
 31
0.0
  0
LINE
  5
20D
330
1F
100
AcDbEntity
  8
0
  6
HIDDEN
 62
     7
370
    18
100
AcDbLine
 10
2253.0850424399
 20
4194.058365026
 30
0.0
 11
2253.0850424399
 21
4236.558365026
 31
0.0
  0
LINE
  5
20E
330
1F
100
AcDbEntity
  8
0
  6
HIDDEN
 62
     7
370
    18
100
AcDbLine
 10
2205.0850424399
 20
4236.558365026
 30
0.0
 11
2205.0850424399
 21
4194.058365026
 31
0.0
  0
LINE
  5
20F
330
1F
100
AcDbEntity
  8
0
  6
HIDDEN
 62
     7
370
    18
100
AcDbLine
 10
2304.0850424399
 20
4119.058365026
 30
0.0
 11
2304.0850424399
 21
4194.058365026
 31
0.0
  0
LINE
  5
210
330
1F
100
AcDbEntity
  8
0
  6
HIDDEN
 62
     7
370
    18
100
AcDbLine
 10
2154.0850424399
 20
4194.058365026
 30
0.0
 11
2154.0850424399
 21
4119.058365026
 31
0.0
  0
LINE
  5
211
330
1F
100
AcDbEntity
  8
0
  6
HIDDEN
 62
     7
370
    18
100
AcDbLine
 10
829.0850424399
 20
4194.058365026
 30
0.0
 11
829.0850424399
 21
4119.058365026
 31
0.0
  0
LINE
  5
212
330
1F
100
AcDbEntity
  8
0
  6
HIDDEN
 62
     7
370
    18
100
AcDbLine
 10
1129.0850424399
 20
4119.058365026
 30
0.0
 11
1129.0850424399
 21
4194.058365026
 31
0.0
  0
LINE
  5
213
330
1F
100
AcDbEntity
  8
0
  6
HIDDEN
 62
     7
370
    18
100
AcDbLine
 10
1529.0850424399
 20
5263.858365026
 30
0.0
 11
1529.0850424399
 21
5264.558365026
 31
0.0
  0
LINE
  5
214
330
1F
100
AcDbEntity
  8
0
  6
HIDDEN
 62
     7
370
    18
100
AcDbLine
 10
870.1748975764
 20
5364.558365026
 30
0.0
 11
870.1748975764
 21
5362.258365026
 31
0.0
  0
LINE
  5
215
330
1F
100
AcDbEntity
  8
0
  6
HIDDEN
 62
     7
370
    18
100
AcDbLine
 10
882.1748975764
 20
5362.258365026
 30
0.0
 11
882.1748975764
 21
5364.558365026
 31
0.0
  0
LINE
  5
216
330
1F
100
AcDbEntity
  8
0
  6
HIDDEN
 62
     7
370
    18
100
AcDbLine
 10
1075.9951873034
 20
5364.558365026
 30
0.0
 11
1075.9951873034
 21
5362.258365026
 31
0.0
  0
LINE
  5
217
330
1F
100
AcDbEntity
  8
0
  6
HIDDEN
 62
     7
370
    18
100
AcDbLine
 10
1087.9951873034
 20
5362.258365026
 30
0.0
 11
1087.9951873034
 21
5364.558365026
 31
0.0
  0
LINE
  5
218
330
1F
100
AcDbEntity
  8
0
  6
HIDDEN
 62
     7
370
    18
100
AcDbLine
 10
1481.3850424399
 20
5264.558365026
 30
0.0
 11
1481.3850424399
 21
5314.558365026
 31
0.0
  0
LINE
  5
219
330
1F
100
AcDbEntity
  8
0
  6
HIDDEN
 62
     7
370
    18
100
AcDbLine
 10
1479.0850424399
 20
5261.558365026
 30
0.0
 11
1479.0850424399
 21
5364.558365026
 31
0.0
  0
LINE
  5
21A
330
1F
100
AcDbEntity
  8
0
  6
HIDDEN
 62
     7
370
    18
100
AcDbLine
 10
479.0850424399
 20
5364.558365026
 30
0.0
 11
479.0850424399
 21
5261.558365026
 31
0.0
  0
LINE
  5
21B
330
1F
100
AcDbEntity
  8
0
  6
HIDDEN
 62
     7
370
    18
100
AcDbLine
 10
680.0217445221
 20
5364.558365026
 30
0.0
 11
680.0217445221
 21
5362.258365026
 31
0.0
  0
LINE
  5
21C
330
1F
100
AcDbEntity
  8
0
  6
HIDDEN
 62
     7
370
    18
100
AcDbLine
 10
692.0217445221
 20
5362.258365026
 30
0.0
 11
692.0217445221
 21
5364.558365026
 31
0.0
  0
LINE
  5
21D
330
1F
100
AcDbEntity
  8
0
  6
HIDDEN
 62
     7
370
    18
100
AcDbLine
 10
1266.1483403578
 20
5364.558365026
 30
0.0
 11
1266.1483403578
 21
5362.258365026
 31
0.0
  0
LINE
  5
21E
330
1F
100
AcDbEntity
  8
0
  6
HIDDEN
 62
     7
370
    18
100
AcDbLine
 10
1278.1483403578
 20
5362.258365026
 30
0.0
 11
1278.1483403578
 21
5364.558365026
 31
0.0
  0
LINE
  5
21F
330
1F
100
AcDbEntity
  8
0
  6
HIDDEN
 62
     7
370
    18
100
AcDbLine
 10
534.4848219503
 20
5364.558365026
 30
0.0
 11
534.4848219503
 21
5362.258365026
 31
0.0
  0
LINE
  5
220
330
1F
100
AcDbEntity
  8
0
  6
HIDDEN
 62
     7
370
    18
100
AcDbLine
 10
546.4848219503
 20
5362.258365026
 30
0.0
 11
546.4848219503
 21
5364.558365026
 31
0.0
  0
LINE
  5
221
330
1F
100
AcDbEntity
  8
0
  6
HIDDEN
 62
     7
370
    18
100
AcDbLine
 10
1411.6852629295
 20
5364.558365026
 30
0.0
 11
1411.6852629295
 21
5362.258365026
 31
0.0
  0
LINE
  5
222
330
1F
100
AcDbEntity
  8
0
  6
HIDDEN
 62
     7
370
    18
100
AcDbLine
 10
1423.6852629295
 20
5362.258365026
 30
0.0
 11
1423.6852629295
 21
5364.558365026
 31
0.0
  0
LINE
  5
223
330
1F
100
AcDbEntity
  8
0
  6
HIDDEN
 62
     7
370
    18
100
AcDbLine
 10
455.7208070272
 20
5364.558365026
 30
0.0
 11
455.7208070272
 21
5362.258365026
 31
0.0
  0
LINE
  5
224
330
1F
100
AcDbEntity
  8
0
  6
HIDDEN
 62
     7
370
    18
100
AcDbLine
 10
467.7208070272
 20
5362.258365026
 30
0.0
 11
467.7208070272
 21
5364.558365026
 31
0.0
  0
LINE
  5
225
330
1F
100
AcDbEntity
  8
0
  6
HIDDEN
 62
     7
370
    18
100
AcDbLine
 10
1490.4492778526
 20
5364.558365026
 30
0.0
 11
1490.4492778526
 21
5362.258365026
 31
0.0
  0
LINE
  5
226
330
1F
100
AcDbEntity
  8
0
  6
HIDDEN
 62
     7
370
    18
100
AcDbLine
 10
1502.4492778526
 20
5362.258365026
 30
0.0
 11
1502.4492778526
 21
5364.558365026
 31
0.0
  0
CIRCLE
  5
227
330
1F
100
AcDbEntity
  8
基礎穴
100
AcDbCircle
 10
454.0850424399
 20
5299.558365026
 30
0.0
 40
9.000000000000247
  0
CIRCLE
  5
228
330
1F
100
AcDbEntity
  8
基礎穴
100
AcDbCircle
 10
1094.0850424399
 20
5299.558365026
 30
0.0
 40
9.000000000000139
  0
CIRCLE
  5
229
330
1F
100
AcDbEntity
  8
基礎穴
100
AcDbCircle
 10
1734.0850424399
 20
5299.558365026
 30
0.0
 40
8.999999999999654
  0
CIRCLE
  5
22A
330
1F
100
AcDbEntity
  8
基礎穴
100
AcDbCircle
 10
2374.0850424399
 20
5299.558365026
 30
0.0
 40
9.000000000000139
  0
CIRCLE
  5
22B
330
1F
100
AcDbEntity
  8
基礎穴
100
AcDbCircle
 10
2374.0850424399
 20
4299.558365026
 30
0.0
 40
8.999999999999872
  0
CIRCLE
  5
22C
330
1F
100
AcDbEntity
  8
基礎穴
100
AcDbCircle
 10
1734.0850424399
 20
4299.558365026
 30
0.0
 40
8.999999999999872
  0
CIRCLE
  5
22D
330
1F
100
AcDbEntity
  8
基礎穴
100
AcDbCircle
 10
1094.0850424399
 20
4299.558365026
 30
0.0
 40
8.999999999999872
  0
CIRCLE
  5
22E
330
1F
100
AcDbEntity
  8
基礎穴
100
AcDbCircle
 10
454.0850424399
 20
4299.558365026
 30
0.0
 40
8.99999999999998
  0
LINE
  5
22F
330
1F
100
AcDbEntity
  8
2
100
AcDbLine
 10
1735.8850424399
 20
4886.558365026
 30
0.0
 11
681.8685819921
 21
4886.558365026
 31
0.0
  0
LINE
  5
230
330
1F
100
AcDbEntity
  8
2
100
AcDbLine
 10
979.0850424399
 20
4342.1974857925
 30
0.0
 11
979.0850424399
 21
5115.7592238966
 31
0.0
  0
LINE
  5
231
330
1F
100
AcDbEntity
  8
2
100
AcDbLine
 10
1538.0850424399
 20
5083.3276343152
 30
0.0
 11
1538.0850424399
 21
4611.9263153125
 31
0.0
  0
ENDSEC
  0
SECTION
  2
OBJECTS
  0
DICTIONARY
  5
C
330
0
100
AcDbDictionary
281
     1
  3
ACAD_GROUP
350
D
  3
ACAD_LAYOUT
350
1A
  3
ACAD_MLINESTYLE
350
17
  3
ACAD_PLOTSETTINGS
350
19
  3
ACAD_PLOTSTYLENAME
350
E
  3
ACAD_SCALELIST
350
47
  3
DWGPROPS
350
232
  0
DICTIONARY
  5
D
102
{ACAD_REACTORS
330
C
102
}
330
C
100
AcDbDictionary
281
     1
  0
DICTIONARY
  5
1A
102
{ACAD_REACTORS
330
C
102
}
330
C
100
AcDbDictionary
281
     1
  3
Layout1
350
1E
  3
Layout2
350
26
  3
Model
350
22
  0
DICTIONARY
  5
17
102
{ACAD_REACTORS
330
C
102
}
330
C
100
AcDbDictionary
281
     1
  3
Standard
350
18
  0
DICTIONARY
  5
19
102
{ACAD_REACTORS
330
C
102
}
330
C
100
AcDbDictionary
281
     1
  0
ACDBDICTIONARYWDFLT
  5
E
102
{ACAD_REACTORS
330
C
102
}
330
C
100
AcDbDictionary
281
     1
  3
Normal
350
F
100
AcDbDictionaryWithDefault
340
F
  0
DICTIONARY
  5
47
102
{ACAD_REACTORS
330
C
102
}
330
C
100
AcDbDictionary
281
     1
  3
A0
350
48
  3
A1
350
49
  3
A2
350
4A
  3
A3
350
4B
  3
A4
350
4C
  3
A5
350
4D
  3
A6
350
4E
  3
A7
350
4F
  3
A8
350
50
  3
A9
350
51
  3
B0
350
52
  3
B1
350
53
  3
B2
350
54
  3
B3
350
55
  3
B4
350
56
  3
B5
350
57
  3
B6
350
58
  0
XRECORD
  5
232
102
{ACAD_REACTORS
330
C
102
}
330
C
100
AcDbXrecord
280
     1
  1
DWGPROPS COOKIE
  2

  3

  4

  6

  7

  8
yuta.kunimatsu
  9

300
=
301
=
302
=
303
=
304
=
305
=
306
=
307
=
308
=
309
=
 40
0.0
 41
2460174.415592535
 42
2460174.415595174
  1

 90
        0
  0
LAYOUT
  5
1E
102
{ACAD_REACTORS
330
1A
102
}
330
1A
100
AcDbPlotSettings
  1

  2
none_device
  4

  6

 40
0.0
 41
0.0
 42
0.0
 43
0.0
 44
0.0
 45
0.0
 46
0.0
 47
0.0
 48
0.0
 49
0.0
140
0.0
141
0.0
142
1.0
143
1.0
 70
   688
 72
     1
 73
     0
 74
     5
  7

 75
    16
147
1.0
148
0.0
149
0.0
100
AcDbLayout
  1
Layout1
 70
     1
 71
     1
 10
0.0
 20
0.0
 11
420.0
 21
297.0
 12
0.0
 22
0.0
 32
0.0
 14
1.0000000000E+20
 24
1.0000000000E+20
 34
1.0000000000E+20
 15
-1.0000000000E+20
 25
-1.0000000000E+20
 35
-1.0000000000E+20
146
0.0
 13
0.0
 23
0.0
 33
0.0
 16
1.0
 26
0.0
 36
0.0
 17
0.0
 27
1.0
 37
0.0
 76
     0
330
1B
  0
LAYOUT
  5
26
102
{ACAD_REACTORS
330
1A
102
}
330
1A
100
AcDbPlotSettings
  1

  2
none_device
  4

  6

 40
0.0
 41
0.0
 42
0.0
 43
0.0
 44
0.0
 45
0.0
 46
0.0
 47
0.0
 48
0.0
 49
0.0
140
0.0
141
0.0
142
1.0
143
1.0
 70
   688
 72
     1
 73
     0
 74
     5
  7

 75
    16
147
1.0
148
0.0
149
0.0
100
AcDbLayout
  1
Layout2
 70
     1
 71
     2
 10
0.0
 20
0.0
 11
0.0
 21
0.0
 12
0.0
 22
0.0
 32
0.0
 14
0.0
 24
0.0
 34
0.0
 15
0.0
 25
0.0
 35
0.0
146
0.0
 13
0.0
 23
0.0
 33
0.0
 16
1.0
 26
0.0
 36
0.0
 17
0.0
 27
1.0
 37
0.0
 76
     0
330
23
  0
LAYOUT
  5
22
102
{ACAD_REACTORS
330
1A
102
}
330
1A
100
AcDbPlotSettings
  1

  2
none_device
  4
Letter_(8.50_x_11.00_Inches)
  6

 40
6.35
 41
6.35
 42
6.35000508
 43
6.35000508
 44
215.9
 45
279.4
 46
0.0
 47
0.0
 48
0.0
 49
0.0
140
0.0
141
0.0
142
1.0
143
1.0
 70
  1712
 72
     1
 73
     0
 74
     0
  7

 75
     0
147
1.0
148
0.0
149
0.0
100
AcDbLayout
  1
Model
 70
     1
 71
     0
 10
0.0
 20
0.0
 11
4200.0
 21
5940.0
 12
0.0
 22
0.0
 32
0.0
 14
0.0
 24
0.0
 34
0.0
 15
4200.0
 25
5940.0
 35
0.0
146
0.0
 13
0.0
 23
0.0
 33
0.0
 16
1.0
 26
0.0
 36
0.0
 17
0.0
 27
1.0
 37
0.0
 76
     0
330
1F
331
29
  0
MLINESTYLE
  5
18
102
{ACAD_REACTORS
330
17
102
}
330
17
100
AcDbMlineStyle
  2
Standard
 70
     0
  3

 62
   256
 51
90.0
 52
90.0
 71
     2
 49
0.5
 62
   256
  6
BYLAYER
 49
-0.5
 62
   256
  6
BYLAYER
  0
ACDBPLACEHOLDER
  5
F
102
{ACAD_REACTORS
330
E
102
}
330
E
  0
SCALE
  5
48
102
{ACAD_REACTORS
330
47
102
}
330
47
100
AcDbScale
 70
     0
300
1:1
140
1.0
141
1.0
290
     1
  0
SCALE
  5
49
102
{ACAD_REACTORS
330
47
102
}
330
47
100
AcDbScale
 70
     0
300
1:2
140
1.0
141
2.0
290
     0
  0
SCALE
  5
4A
102
{ACAD_REACTORS
330
47
102
}
330
47
100
AcDbScale
 70
     0
300
1:4
140
1.0
141
4.0
290
     0
  0
SCALE
  5
4B
102
{ACAD_REACTORS
330
47
102
}
330
47
100
AcDbScale
 70
     0
300
1:5
140
1.0
141
5.0
290
     0
  0
SCALE
  5
4C
102
{ACAD_REACTORS
330
47
102
}
330
47
100
AcDbScale
 70
     0
300
1:8
140
1.0
141
8.0
290
     0
  0
SCALE
  5
4D
102
{ACAD_REACTORS
330
47
102
}
330
47
100
AcDbScale
 70
     0
300
1:10
140
1.0
141
10.0
290
     0
  0
SCALE
  5
4E
102
{ACAD_REACTORS
330
47
102
}
330
47
100
AcDbScale
 70
     0
300
1:16
140
1.0
141
16.0
290
     0
  0
SCALE
  5
4F
102
{ACAD_REACTORS
330
47
102
}
330
47
100
AcDbScale
 70
     0
300
1:20
140
1.0
141
20.0
290
     0
  0
SCALE
  5
50
102
{ACAD_REACTORS
330
47
102
}
330
47
100
AcDbScale
 70
     0
300
1:30
140
1.0
141
30.0
290
     0
  0
SCALE
  5
51
102
{ACAD_REACTORS
330
47
102
}
330
47
100
AcDbScale
 70
     0
300
1:40
140
1.0
141
40.0
290
     0
  0
SCALE
  5
52
102
{ACAD_REACTORS
330
47
102
}
330
47
100
AcDbScale
 70
     0
300
1:50
140
1.0
141
50.0
290
     0
  0
SCALE
  5
53
102
{ACAD_REACTORS
330
47
102
}
330
47
100
AcDbScale
 70
     0
300
1:100
140
1.0
141
100.0
290
     0
  0
SCALE
  5
54
102
{ACAD_REACTORS
330
47
102
}
330
47
100
AcDbScale
 70
     0
300
2:1
140
2.0
141
1.0
290
     0
  0
SCALE
  5
55
102
{ACAD_REACTORS
330
47
102
}
330
47
100
AcDbScale
 70
     0
300
4:1
140
4.0
141
1.0
290
     0
  0
SCALE
  5
56
102
{ACAD_REACTORS
330
47
102
}
330
47
100
AcDbScale
 70
     0
300
8:1
140
8.0
141
1.0
290
     0
  0
SCALE
  5
57
102
{ACAD_REACTORS
330
47
102
}
330
47
100
AcDbScale
 70
     0
300
10:1
140
10.0
141
1.0
290
     0
  0
SCALE
  5
58
102
{ACAD_REACTORS
330
47
102
}
330
47
100
AcDbScale
 70
     0
300
100:1
140
100.0
141
1.0
290
     0
  0
ENDSEC
  0
EOF
