  0
SECTION
  2
HEADER
  9
$ACADVER
  1
AC1015
  9
$ACADMAINTVER
 70
     6
  9
$DWGCODEPAGE
  3
DOS932
  9
$INSBASE
 10
0.0
 20
0.0
 30
0.0
  9
$EXTMIN
 10
0.0
 20
0.0
 30
0.0
  9
$EXTMAX
 10
4200.0
 20
5940.0
 30
0.0
  9
$LIMMIN
 10
0.0
 20
0.0
  9
$LIMMAX
 10
4200.0
 20
5940.0
  9
$ORTHOMODE
 70
     0
  9
$REGENMODE
 70
     1
  9
$FILLMODE
 70
     1
  9
$QTEXTMODE
 70
     0
  9
$MIRRTEXT
 70
     1
  9
$LTSCALE
 40
20.0
  9
$ATTMODE
 70
     1
  9
$TEXTSIZE
 40
70.5555555556
  9
$TRACEWID
 40
1.0
  9
$TEXTSTYLE
  7
Standard
  9
$CLAYER
  8
0
  9
$CELTYPE
  6
ByLayer
  9
$CECOLOR
 62
   256
  9
$CELTSCALE
 40
1.0
  9
$DISPSILH
 70
     0
  9
$DIMSCALE
 40
1.0
  9
$DIMASZ
 40
30.0
  9
$DIMEXO
 40
20.0
  9
$DIMDLI
 40
3.75
  9
$DIMRND
 40
0.0
  9
$DIMDLE
 40
0.0
  9
$DIMEXE
 40
20.0
  9
$DIMTP
 40
0.0
  9
$DIMTM
 40
0.0
  9
$DIMTXT
 40
70.5555555556
  9
$DIMCEN
 40
2.5
  9
$DIMTSZ
 40
0.0
  9
$DIMTOL
 70
     0
  9
$DIMLIM
 70
     0
  9
$DIMTIH
 70
     1
  9
$DIMTOH
 70
     1
  9
$DIMSE1
 70
     0
  9
$DIMSE2
 70
     0
  9
$DIMTAD
 70
     1
  9
$DIMZIN
 70
     0
  9
$DIMBLK
  1

  9
$DIMASO
 70
     1
  9
$DIMSHO
 70
     1
  9
$DIMPOST
  1

  9
$DIMAPOST
  1

  9
$DIMALT
 70
     0
  9
$DIMALTD
 70
     3
  9
$DIMALTF
 40
0.0393700787
  9
$DIMLFAC
 40
1.0
  9
$DIMTOFL
 70
     1
  9
$DIMTVP
 40
0.0
  9
$DIMTIX
 70
     0
  9
$DIMSOXD
 70
     0
  9
$DIMSAH
 70
     0
  9
$DIMBLK1
  1

  9
$DIMBLK2
  1

  9
$DIMSTYLE
  2
ISO-25
  9
$DIMCLRD
 70
     0
  9
$DIMCLRE
 70
     0
  9
$DIMCLRT
 70
     0
  9
$DIMTFAC
 40
1.0
  9
$DIMGAP
 40
30.48
  9
$DIMJUST
 70
     0
  9
$DIMSD1
 70
     0
  9
$DIMSD2
 70
     0
  9
$DIMTOLJ
 70
     0
  9
$DIMTZIN
 70
     0
  9
$DIMALTZ
 70
     0
  9
$DIMALTTZ
 70
     0
  9
$DIMUPT
 70
     0
  9
$DIMDEC
 70
     0
  9
$DIMTDEC
 70
     0
  9
$DIMALTU
 70
     2
  9
$DIMALTTD
 70
     3
  9
$DIMTXSTY
  7
Standard
  9
$DIMAUNIT
 70
     0
  9
$DIMADEC
 70
     2
  9
$DIMALTRND
 40
0.0
  9
$DIMAZIN
 70
     0
  9
$DIMDSEP
 70
    44
  9
$DIMATFIT
 70
     3
  9
$DIMFRAC
 70
     0
  9
$DIMLDRBLK
  1

  9
$DIMLUNIT
 70
     2
  9
$DIMLWD
 70
    -2
  9
$DIMLWE
 70
    -2
  9
$DIMTMOVE
 70
     0
  9
$LUNITS
 70
     2
  9
$LUPREC
 70
     2
  9
$SKETCHINC
 40
1.0
  9
$FILLETRAD
 40
0.0
  9
$AUNITS
 70
     0
  9
$AUPREC
 70
     2
  9
$MENU
  1
.
  9
$ELEVATION
 40
0.0
  9
$PELEVATION
 40
0.0
  9
$THICKNESS
 40
0.0
  9
$LIMCHECK
 70
     0
  9
$CHAMFERA
 40
0.0
  9
$CHAMFERB
 40
0.0
  9
$CHAMFERC
 40
0.0
  9
$CHAMFERD
 40
0.0
  9
$SKPOLY
 70
     0
  9
$TDCREATE
 40
2460174.790240046
  9
$TDUCREATE
 40
2460174.415240046
  9
$TDUPDATE
 40
2460174.790242801
  9
$TDUUPDATE
 40
2460174.415242801
  9
$TDINDWG
 40
0.0000000116
  9
$TDUSRTIMER
 40
0.0000000116
  9
$USRTIMER
 70
     1
  9
$ANGBASE
 50
0.0
  9
$ANGDIR
 70
     0
  9
$PDMODE
 70
     0
  9
$PDSIZE
 40
-1.0
  9
$PLINEWID
 40
0.0
  9
$SPLFRAME
 70
     0
  9
$SPLINETYPE
 70
     6
  9
$SPLINESEGS
 70
     8
  9
$HANDSEED
  5
23A
  9
$SURFTAB1
 70
     6
  9
$SURFTAB2
 70
     6
  9
$SURFTYPE
 70
     6
  9
$SURFU
 70
     6
  9
$SURFV
 70
     6
  9
$UCSBASE
  2

  9
$UCSNAME
  2

  9
$UCSORG
 10
0.0
 20
0.0
 30
0.0
  9
$UCSXDIR
 10
1.0
 20
0.0
 30
0.0
  9
$UCSYDIR
 10
0.0
 20
1.0
 30
0.0
  9
$UCSORTHOREF
  2

  9
$UCSORTHOVIEW
 70
     0
  9
$UCSORGTOP
 10
0.0
 20
0.0
 30
0.0
  9
$UCSORGBOTTOM
 10
0.0
 20
0.0
 30
0.0
  9
$UCSORGLEFT
 10
0.0
 20
0.0
 30
0.0
  9
$UCSORGRIGHT
 10
0.0
 20
0.0
 30
0.0
  9
$UCSORGFRONT
 10
0.0
 20
0.0
 30
0.0
  9
$UCSORGBACK
 10
0.0
 20
0.0
 30
0.0
  9
$PUCSBASE
  2

  9
$PUCSNAME
  2

  9
$PUCSORG
 10
0.0
 20
0.0
 30
0.0
  9
$PUCSXDIR
 10
1.0
 20
0.0
 30
0.0
  9
$PUCSYDIR
 10
0.0
 20
1.0
 30
0.0
  9
$PUCSORTHOREF
  2

  9
$PUCSORTHOVIEW
 70
     0
  9
$PUCSORGTOP
 10
0.0
 20
0.0
 30
0.0
  9
$PUCSORGBOTTOM
 10
0.0
 20
0.0
 30
0.0
  9
$PUCSORGLEFT
 10
0.0
 20
0.0
 30
0.0
  9
$PUCSORGRIGHT
 10
0.0
 20
0.0
 30
0.0
  9
$PUCSORGFRONT
 10
0.0
 20
0.0
 30
0.0
  9
$PUCSORGBACK
 10
0.0
 20
0.0
 30
0.0
  9
$USERI1
 70
     0
  9
$USERI2
 70
     0
  9
$USERI3
 70
     0
  9
$USERI4
 70
     0
  9
$USERI5
 70
     0
  9
$USERR1
 40
0.0
  9
$USERR2
 40
0.0
  9
$USERR3
 40
0.0
  9
$USERR4
 40
0.0
  9
$USERR5
 40
0.0
  9
$WORLDVIEW
 70
     1
  9
$SHADEDGE
 70
     3
  9
$SHADEDIF
 70
    70
  9
$TILEMODE
 70
     1
  9
$MAXACTVP
 70
    64
  9
$PINSBASE
 10
0.0
 20
0.0
 30
0.0
  9
$PLIMCHECK
 70
     0
  9
$PEXTMIN
 10
1.0000000000E+20
 20
1.0000000000E+20
 30
1.0000000000E+20
  9
$PEXTMAX
 10
-1.0000000000E+20
 20
-1.0000000000E+20
 30
-1.0000000000E+20
  9
$PLIMMIN
 10
0.0
 20
0.0
  9
$PLIMMAX
 10
420.0
 20
297.0
  9
$UNITMODE
 70
     0
  9
$VISRETAIN
 70
     1
  9
$PLINEGEN
 70
     0
  9
$PSLTSCALE
 70
     1
  9
$TREEDEPTH
 70
  3020
  9
$CMLSTYLE
  2
Standard
  9
$CMLJUST
 70
     0
  9
$CMLSCALE
 40
20.0
  9
$PROXYGRAPHICS
 70
     1
  9
$MEASUREMENT
 70
     1
  9
$CELWEIGHT
370
    -1
  9
$ENDCAPS
280
     0
  9
$JOINSTYLE
280
     0
  9
$LWDISPLAY
290
     1
  9
$INSUNITS
 70
     4
  9
$HYPERLINKBASE
  1

  9
$STYLESHEET
  1

  9
$XEDIT
290
     1
  9
$CEPSNTYPE
380
     0
  9
$PSTYLEMODE
290
     1
  9
$FINGERPRINTGUID
  2
{a9f7576d-60f5-4153-988f-e56d1d207d0e}
  9
$VERSIONGUID
  2
{FAEB1C32-E019-11D5-929B-00C0DF256EC4}
  9
$EXTNAMES
290
     1
  9
$PSVPSCALE
 40
0.0
  9
$OLESTARTUP
290
     0
  0
ENDSEC
  0
SECTION
  2
CLASSES
  0
CLASS
  1
ACDBDICTIONARYWDFLT
  2
AcDbDictionaryWithDefault
  3
ObjectDBX Classes
 90
        0
280
     0
281
     0
  0
CLASS
  1
VISUALSTYLE
  2
AcDbVisualStyle
  3
ObjectDBX Classes
 90
     4095
280
     0
281
     0
  0
CLASS
  1
MATERIAL
  2
AcDbMaterial
  3
ObjectDBX Classes
 90
     1153
280
     0
281
     0
  0
CLASS
  1
SCALE
  2
AcDbScale
  3
ObjectDBX Classes
 90
     1153
280
     0
281
     0
  0
CLASS
  1
TABLESTYLE
  2
AcDbTableStyle
  3
ObjectDBX Classes
 90
     4095
280
     0
281
     0
  0
CLASS
  1
MLEADERSTYLE
  2
AcDbMLeaderStyle
  3
ACDB_MLEADERSTYLE_CLASS
 90
     4095
280
     0
281
     0
  0
CLASS
  1
SUN
  2
AcDbSun
  3
SCENEOE
 90
     1153
280
     0
281
     0
  0
CLASS
  1
ACDBPLACEHOLDER
  2
AcDbPlaceHolder
  3
ObjectDBX Classes
 90
        0
280
     0
281
     0
  0
CLASS
  1
LAYOUT
  2
AcDbLayout
  3
ObjectDBX Classes
 90
        0
280
     0
281
     0
  0
ENDSEC
  0
SECTION
  2
TABLES
  0
TABLE
  2
VPORT
  5
8
330
0
100
AcDbSymbolTable
 70
     1
  0
VPORT
  5
29
330
8
100
AcDbSymbolTableRecord
100
AcDbViewportTableRecord
  2
*Active
 70
     0
 10
0.0
 20
0.0
 11
1.0
 21
1.0
 12
2100.0
 22
2970.0
 13
0.0
 23
0.0
 14
10.0
 24
10.0
 15
10.0
 25
10.0
 16
0.0
 26
0.0
 36
1.0
 17
0.0
 27
0.0
 37
0.0
 40
5940.0
 41
0.7070707071
 42
50.0
 43
0.0
 44
0.0
 50
0.0
 51
0.0
 71
     0
 72
  2000
 73
     1
 74
     3
 75
     0
 76
     0
 77
     0
 78
     0
281
     0
 65
     1
110
0.0
120
0.0
130
0.0
111
1.0
121
0.0
131
0.0
112
0.0
122
1.0
132
0.0
 79
     0
146
0.0
  0
ENDTAB
  0
TABLE
  2
LTYPE
  5
5
330
0
100
AcDbSymbolTable
 70
     6
  0
LTYPE
  5
14
330
5
100
AcDbSymbolTableRecord
100
AcDbLinetypeTableRecord
  2
ByBlock
 70
     0
  3

 72
    65
 73
     0
 40
0.0
  0
LTYPE
  5
15
330
5
100
AcDbSymbolTableRecord
100
AcDbLinetypeTableRecord
  2
ByLayer
 70
     0
  3

 72
    65
 73
     0
 40
0.0
  0
LTYPE
  5
16
330
5
100
AcDbSymbolTableRecord
100
AcDbLinetypeTableRecord
  2
Continuous
 70
     0
  3
Solid line
 72
    65
 73
     0
 40
0.0
  0
LTYPE
  5
5E
330
5
100
AcDbSymbolTableRecord
100
AcDbLinetypeTableRecord
  2
HIDDEN
 70
     0
  3
Hidden __ __ __ __ __ __ __ __ __ __ __ __ __ __
 72
    65
 73
     2
 40
1.905
 49
1.27
 74
     0
 49
-0.635
 74
     0
  0
LTYPE
  5
5F
330
5
100
AcDbSymbolTableRecord
100
AcDbLinetypeTableRecord
  2
PHANTOM
 70
     0
  3
Phantom ______  __  __  ______  __  __  ______
 72
    65
 73
     6
 40
12.7
 49
6.35
 74
     0
 49
-1.27
 74
     0
 49
1.27
 74
     0
 49
-1.27
 74
     0
 49
1.27
 74
     0
 49
-1.27
 74
     0
  0
LTYPE
  5
60
330
5
100
AcDbSymbolTableRecord
100
AcDbLinetypeTableRecord
  2
CENTER
 70
     0
  3
Center ____ _ ____ _ ____ _ ____ _ ____ _ ____
 72
    65
 73
     4
 40
10.16
 49
6.35
 74
     0
 49
-1.27
 74
     0
 49
1.27
 74
     0
 49
-1.27
 74
     0
  0
LTYPE
  5
61
330
5
100
AcDbSymbolTableRecord
100
AcDbLinetypeTableRecord
  2
CENTERX2
 70
     0
  3
Center (2x) ________  __  ________  __  _____
 72
    65
 73
     4
 40
20.32
 49
12.7
 74
     0
 49
-2.54
 74
     0
 49
2.54
 74
     0
 49
-2.54
 74
     0
  0
LTYPE
  5
62
330
5
100
AcDbSymbolTableRecord
100
AcDbLinetypeTableRecord
  2
DOT2
 70
     0
  3
Dot (.5x) ........................................
 72
    65
 73
     2
 40
0.635
 49
0.0
 74
     0
 49
-0.635
 74
     0
  0
ENDTAB
  0
TABLE
  2
LAYER
  5
2
330
0
100
AcDbSymbolTable
 70
     6
  0
LAYER
  5
10
330
2
100
AcDbSymbolTableRecord
100
AcDbLayerTableRecord
  2
0
 70
     0
 62
     7
  6
Continuous
370
    -3
390
F
  0
LAYER
  5
63
330
2
100
AcDbSymbolTableRecord
100
AcDbLayerTableRecord
  2
1
 70
     0
 62
     4
  6
Continuous
370
    25
390
F
  0
LAYER
  5
64
330
2
100
AcDbSymbolTableRecord
100
AcDbLayerTableRecord
  2
2
 70
     0
 62
     3
  6
CENTERX2
370
    -3
390
F
  0
LAYER
  5
65
330
2
100
AcDbSymbolTableRecord
100
AcDbLayerTableRecord
  2
3
 70
     0
 62
     2
  6
Continuous
370
    -3
390
F
  0
LAYER
  5
66
330
2
100
AcDbSymbolTableRecord
100
AcDbLayerTableRecord
  2
4
 70
     0
 62
     7
  6
Continuous
370
    -3
390
F
  0
LAYER
  5
67
330
2
100
AcDbSymbolTableRecord
100
AcDbLayerTableRecord
  2
基礎穴
 70
     0
 62
     1
  6
PHANTOM
370
    35
390
F
  0
ENDTAB
  0
TABLE
  2
STYLE
  5
3
330
0
100
AcDbSymbolTable
 70
     2
  0
STYLE
  5
11
330
3
100
AcDbSymbolTableRecord
100
AcDbTextStyleTableRecord
  2
Standard
 70
     0
 40
0.0
 41
1.0
 50
0.0
 71
     0
 42
70.5555555556
  3
txt
  4
bigfont
  0
STYLE
  5
68
330
3
100
AcDbSymbolTableRecord
100
AcDbTextStyleTableRecord
  2
SLDTEXTSTYLE0
 70
     0
 40
0.0
 41
0.7
 50
0.0
 71
     0
 42
70.5555555556
  3
TXT
  4
bigfont
  0
ENDTAB
  0
TABLE
  2
VIEW
  5
6
330
0
100
AcDbSymbolTable
 70
     0
  0
ENDTAB
  0
TABLE
  2
UCS
  5
7
330
0
100
AcDbSymbolTable
 70
     0
  0
ENDTAB
  0
TABLE
  2
APPID
  5
9
330
0
100
AcDbSymbolTable
 70
     1
  0
APPID
  5
12
330
9
100
AcDbSymbolTableRecord
100
AcDbRegAppTableRecord
  2
ACAD
 70
     0
  0
ENDTAB
  0
TABLE
  2
DIMSTYLE
  5
A
330
0
100
AcDbSymbolTable
 70
     1
100
AcDbDimStyleTable
  0
DIMSTYLE
105
27
330
A
100
AcDbSymbolTableRecord
100
AcDbDimStyleTableRecord
  2
ISO-25
 70
     0
 41
2.5
 42
0.625
 43
3.75
 44
1.25
 73
     0
 74
     0
 77
     1
 78
     8
140
2.5
141
2.5
143
0.0393700787
147
0.625
171
     3
172
     1
178
     0
271
     2
272
     2
274
     3
278
    44
283
     0
284
     8
340
11
  0
ENDTAB
  0
TABLE
  2
BLOCK_RECORD
  5
1
330
0
100
AcDbSymbolTable
 70
     2
  0
BLOCK_RECORD
  5
1F
330
1
100
AcDbSymbolTableRecord
100
AcDbBlockTableRecord
  2
*Model_Space
340
22
  0
BLOCK_RECORD
  5
1B
330
1
100
AcDbSymbolTableRecord
100
AcDbBlockTableRecord
  2
*Paper_Space
340
1E
  0
BLOCK_RECORD
  5
23
330
1
100
AcDbSymbolTableRecord
100
AcDbBlockTableRecord
  2
*Paper_Space0
340
26
  0
BLOCK_RECORD
  5
E2
330
1
100
AcDbSymbolTableRecord
100
AcDbBlockTableRecord
  2
SW_CENTERMARKSYMBOL_0
340
0
102
{BLKREFS
331
ED
102
}
  0
ENDTAB
  0
ENDSEC
  0
SECTION
  2
BLOCKS
  0
BLOCK
  5
20
330
1F
100
AcDbEntity
  8
0
100
AcDbBlockBegin
  2
*Model_Space
 70
     0
 10
0.0
 20
0.0
 30
0.0
  3
*Model_Space
  1

  0
ENDBLK
  5
21
330
1F
100
AcDbEntity
  8
0
100
AcDbBlockEnd
  0
BLOCK
  5
1C
330
1B
100
AcDbEntity
 67
     1
  8
0
100
AcDbBlockBegin
  2
*Paper_Space
 70
     0
 10
0.0
 20
0.0
 30
0.0
  3
*Paper_Space
  1

  0
ENDBLK
  5
1D
330
1B
100
AcDbEntity
 67
     1
  8
0
100
AcDbBlockEnd
  0
BLOCK
  5
24
330
23
100
AcDbEntity
  8
0
100
AcDbBlockBegin
  2
*Paper_Space0
 70
     0
 10
0.0
 20
0.0
 30
0.0
  3
*Paper_Space0
  1

  0
ENDBLK
  5
25
330
23
100
AcDbEntity
  8
0
100
AcDbBlockEnd
  0
BLOCK
  5
E3
330
E2
100
AcDbEntity
  8
0
100
AcDbBlockBegin
  2
SW_CENTERMARKSYMBOL_0
 70
     0
 10
0.0
 20
0.0
 30
0.0
  3
SW_CENTERMARKSYMBOL_0
  1

  0
LINE
  5
E5
330
E2
100
AcDbEntity
  8
2
 62
     0
100
AcDbLine
 10
0.0
 20
0.0
 30
0.0
 11
0.0
 21
2.5
 31
0.0
  0
LINE
  5
E6
330
E2
100
AcDbEntity
  8
2
 62
     0
100
AcDbLine
 10
0.0
 20
0.0
 30
0.0
 11
-2.5
 21
0.0
 31
0.0
  0
LINE
  5
E7
330
E2
100
AcDbEntity
  8
2
 62
     0
100
AcDbLine
 10
0.0
 20
0.0
 30
0.0
 11
0.0
 21
-2.5
 31
0.0
  0
LINE
  5
E8
330
E2
100
AcDbEntity
  8
2
 62
     0
100
AcDbLine
 10
0.0
 20
0.0
 30
0.0
 11
2.5
 21
0.0
 31
0.0
  0
LINE
  5
E9
330
E2
100
AcDbEntity
  8
2
 62
     0
100
AcDbLine
 10
0.0
 20
5.0
 30
0.0
 11
0.0
 21
552.5
 31
0.0
  0
LINE
  5
EA
330
E2
100
AcDbEntity
  8
2
 62
     0
100
AcDbLine
 10
-5.0
 20
0.0
 30
0.0
 11
-552.5
 21
0.0
 31
0.0
  0
LINE
  5
EB
330
E2
100
AcDbEntity
  8
2
 62
     0
100
AcDbLine
 10
0.0
 20
-5.0
 30
0.0
 11
0.0
 21
-552.5
 31
0.0
  0
LINE
  5
EC
330
E2
100
AcDbEntity
  8
2
 62
     0
100
AcDbLine
 10
5.0
 20
0.0
 30
0.0
 11
552.5
 21
0.0
 31
0.0
  0
ENDBLK
  5
E4
330
E2
100
AcDbEntity
  8
0
100
AcDbBlockEnd
  0
ENDSEC
  0
SECTION
  2
ENTITIES
  0
MTEXT
  5
69
330
1F
100
AcDbEntity
  8
0
  6
Continuous
 62
     7
370
     0
100
AcDbMText
 10
3267.7321673886
 20
1115.8357637602
 30
0.0
 40
52.9166666667
 41
0.0
 71
     1
 72
     1
  1
LL06040YG01K-L3
  7
SLDTEXTSTYLE0
 73
     1
 44
1.0
  0
LINE
  5
6A
330
1F
100
AcDbEntity
  8
1
100
AcDbLine
 10
2197.4804179452
 20
1534.9097964902
 30
0.0
 11
2197.4804179452
 21
1489.9097964902
 31
0.0
  0
LINE
  5
6B
330
1F
100
AcDbEntity
  8
1
100
AcDbLine
 10
2232.4804179452
 20
1489.9097964902
 30
0.0
 11
2232.4804179452
 21
1534.9097964902
 31
0.0
  0
LINE
  5
6C
330
1F
100
AcDbEntity
  8
1
100
AcDbLine
 10
207.4804179452
 20
1534.9097964902
 30
0.0
 11
207.4804179452
 21
1489.9097964902
 31
0.0
  0
LINE
  5
6D
330
1F
100
AcDbEntity
  8
1
100
AcDbLine
 10
242.4804179452
 20
1489.9097964902
 30
0.0
 11
242.4804179452
 21
1534.9097964902
 31
0.0
  0
ARC
  5
6E
330
1F
100
AcDbEntity
  8
1
100
AcDbCircle
 10
404.9804179452
 20
1894.9097964902
 30
0.0
 40
195.5000000000002
100
AcDbArc
 50
157.030998229
 51
202.969001771
  0
LINE
  5
6F
330
1F
100
AcDbEntity
  8
1
100
AcDbLine
 10
629.9804179452
 20
1659.9097964902
 30
0.0
 11
629.9804179452
 21
1664.4097964902
 31
0.0
  0
LINE
  5
70
330
1F
100
AcDbEntity
  8
1
100
AcDbLine
 10
179.9804179452
 20
1664.4097964902
 30
0.0
 11
179.9804179452
 21
1714.9097964902
 31
0.0
  0
LINE
  5
71
330
1F
100
AcDbEntity
  8
1
100
AcDbLine
 10
224.9804179452
 20
1714.9097964902
 30
0.0
 11
179.9804179452
 21
1714.9097964902
 31
0.0
  0
LINE
  5
72
330
1F
100
AcDbEntity
  8
1
100
AcDbLine
 10
224.9804179452
 20
1664.4097964902
 30
0.0
 11
1974.9804179452
 21
1664.4097964902
 31
0.0
  0
LINE
  5
73
330
1F
100
AcDbEntity
  8
1
100
AcDbLine
 10
224.9804179452
 20
2039.4097964902
 30
0.0
 11
224.9804179452
 21
1664.4097964902
 31
0.0
  0
LINE
  5
74
330
1F
100
AcDbEntity
  8
1
100
AcDbLine
 10
1599.9804179452
 20
3064.4097964902
 30
0.0
 11
224.9804179452
 21
2039.4097964902
 31
0.0
  0
LINE
  5
75
330
1F
100
AcDbEntity
  8
1
100
AcDbLine
 10
1974.9804179452
 20
3064.4097964902
 30
0.0
 11
1599.9804179452
 21
3064.4097964902
 31
0.0
  0
LINE
  5
76
330
1F
100
AcDbEntity
  8
1
100
AcDbLine
 10
1974.9804179452
 20
1664.4097964902
 30
0.0
 11
1974.9804179452
 21
3064.4097964902
 31
0.0
  0
LINE
  5
77
330
1F
100
AcDbEntity
  8
1
100
AcDbLine
 10
2279.9804179452
 20
1424.9097964902
 30
0.0
 11
159.9804179452
 21
1424.9097964902
 31
0.0
  0
LINE
  5
78
330
1F
100
AcDbEntity
  8
1
100
AcDbLine
 10
159.9804179452
 20
1424.9097964902
 30
0.0
 11
159.9804179452
 21
1430.9097964902
 31
0.0
  0
LINE
  5
79
330
1F
100
AcDbEntity
  8
1
100
AcDbLine
 10
2279.9804179452
 20
1430.9097964902
 30
0.0
 11
159.9804179452
 21
1430.9097964902
 31
0.0
  0
LINE
  5
7A
330
1F
100
AcDbEntity
  8
1
100
AcDbLine
 10
2279.9804179452
 20
1424.9097964902
 30
0.0
 11
2279.9804179452
 21
1430.9097964902
 31
0.0
  0
LINE
  5
7B
330
1F
100
AcDbEntity
  8
1
100
AcDbLine
 10
159.9804179452
 20
1489.9097964902
 30
0.0
 11
2279.9804179452
 21
1489.9097964902
 31
0.0
  0
LINE
  5
7C
330
1F
100
AcDbEntity
  8
1
100
AcDbLine
 10
2279.9804179452
 20
1483.9097964902
 30
0.0
 11
2279.9804179452
 21
1489.9097964902
 31
0.0
  0
LINE
  5
7D
330
1F
100
AcDbEntity
  8
1
100
AcDbLine
 10
159.9804179452
 20
1483.9097964902
 30
0.0
 11
2279.9804179452
 21
1483.9097964902
 31
0.0
  0
LINE
  5
7E
330
1F
100
AcDbEntity
  8
1
100
AcDbLine
 10
159.9804179452
 20
1483.9097964902
 30
0.0
 11
159.9804179452
 21
1489.9097964902
 31
0.0
  0
LINE
  5
7F
330
1F
100
AcDbEntity
  8
1
100
AcDbLine
 10
218.9804179451
 20
1430.9097964902
 30
0.0
 11
218.9804179451
 21
1483.9097964902
 31
0.0
  0
LINE
  5
80
330
1F
100
AcDbEntity
  8
1
100
AcDbLine
 10
2220.9804179452
 20
1430.9097964902
 30
0.0
 11
2220.9804179452
 21
1483.9097964902
 31
0.0
  0
LINE
  5
81
330
1F
100
AcDbEntity
  8
1
100
AcDbLine
 10
1909.9804179452
 20
1664.4097964902
 30
0.0
 11
1909.9804179452
 21
1659.9097964902
 31
0.0
  0
LINE
  5
82
330
1F
100
AcDbEntity
  8
1
100
AcDbLine
 10
1974.9804179452
 20
1664.4097964902
 30
0.0
 11
2059.9804179452
 21
1664.4097964902
 31
0.0
  0
LINE
  5
83
330
1F
100
AcDbEntity
  8
1
100
AcDbLine
 10
2059.9804179452
 20
1664.4097964902
 30
0.0
 11
2059.9804179452
 21
1659.9097964902
 31
0.0
  0
LINE
  5
84
330
1F
100
AcDbEntity
  8
1
100
AcDbLine
 10
1909.9804179452
 20
1659.9097964902
 30
0.0
 11
2059.9804179452
 21
1659.9097964902
 31
0.0
  0
LINE
  5
85
330
1F
100
AcDbEntity
  8
1
100
AcDbLine
 10
139.9804179452
 20
1659.9097964902
 30
0.0
 11
289.9804179452
 21
1659.9097964902
 31
0.0
  0
LINE
  5
86
330
1F
100
AcDbEntity
  8
1
100
AcDbLine
 10
139.9804179452
 20
1664.4097964902
 30
0.0
 11
224.9804179452
 21
1664.4097964902
 31
0.0
  0
LINE
  5
87
330
1F
100
AcDbEntity
  8
1
100
AcDbLine
 10
139.9804179452
 20
1664.4097964902
 30
0.0
 11
139.9804179452
 21
1659.9097964902
 31
0.0
  0
LINE
  5
88
330
1F
100
AcDbEntity
  8
1
100
AcDbLine
 10
289.9804179452
 20
1664.4097964902
 30
0.0
 11
289.9804179452
 21
1659.9097964902
 31
0.0
  0
LINE
  5
89
330
1F
100
AcDbEntity
  8
1
100
AcDbLine
 10
2279.9804179452
 20
1540.9097964902
 30
0.0
 11
2279.9804179452
 21
1534.9097964902
 31
0.0
  0
LINE
  5
8A
330
1F
100
AcDbEntity
  8
1
100
AcDbLine
 10
159.9804179452
 20
1534.9097964902
 30
0.0
 11
2279.9804179452
 21
1534.9097964902
 31
0.0
  0
LINE
  5
8B
330
1F
100
AcDbEntity
  8
1
100
AcDbLine
 10
159.9804179452
 20
1540.9097964902
 30
0.0
 11
159.9804179452
 21
1534.9097964902
 31
0.0
  0
LINE
  5
8C
330
1F
100
AcDbEntity
  8
1
100
AcDbLine
 10
159.9804179452
 20
1540.9097964902
 30
0.0
 11
2279.9804179452
 21
1540.9097964902
 31
0.0
  0
LINE
  5
8D
330
1F
100
AcDbEntity
  8
1
100
AcDbLine
 10
159.9804179452
 20
1659.9097964902
 30
0.0
 11
159.9804179452
 21
1653.9097964902
 31
0.0
  0
LINE
  5
8E
330
1F
100
AcDbEntity
  8
1
100
AcDbLine
 10
159.9804179452
 20
1653.9097964902
 30
0.0
 11
2279.9804179452
 21
1653.9097964902
 31
0.0
  0
LINE
  5
8F
330
1F
100
AcDbEntity
  8
1
100
AcDbLine
 10
2279.9804179452
 20
1659.9097964902
 30
0.0
 11
2279.9804179452
 21
1653.9097964902
 31
0.0
  0
LINE
  5
90
330
1F
100
AcDbEntity
  8
1
100
AcDbLine
 10
2059.9804179452
 20
1659.9097964902
 30
0.0
 11
2279.9804179452
 21
1659.9097964902
 31
0.0
  0
LINE
  5
91
330
1F
100
AcDbEntity
  8
1
100
AcDbLine
 10
289.9804179452
 20
1659.9097964902
 30
0.0
 11
1909.9804179452
 21
1659.9097964902
 31
0.0
  0
LINE
  5
92
330
1F
100
AcDbEntity
  8
1
100
AcDbLine
 10
2220.9804179452
 20
1653.9097964902
 30
0.0
 11
2220.9804179452
 21
1540.9097964902
 31
0.0
  0
LINE
  5
93
330
1F
100
AcDbEntity
  8
1
100
AcDbLine
 10
218.9804179452
 20
1653.9097964902
 30
0.0
 11
218.9804179452
 21
1540.9097964902
 31
0.0
  0
LINE
  5
94
330
1F
100
AcDbEntity
  8
1
100
AcDbLine
 10
2330.9804179452
 20
2753.9097964902
 30
0.0
 11
2334.9804179452
 21
2753.9097964902
 31
0.0
  0
LINE
  5
95
330
1F
100
AcDbEntity
  8
1
100
AcDbLine
 10
2330.9804179452
 20
1617.9097964902
 30
0.0
 11
2330.9804179452
 21
2753.9097964902
 31
0.0
  0
LINE
  5
96
330
1F
100
AcDbEntity
  8
1
100
AcDbLine
 10
2334.9804179452
 20
1617.9097964902
 30
0.0
 11
2334.9804179452
 21
2753.9097964902
 31
0.0
  0
LINE
  5
97
330
1F
100
AcDbEntity
  8
1
100
AcDbLine
 10
2330.9804179452
 20
1617.9097964902
 30
0.0
 11
2334.9804179452
 21
1617.9097964902
 31
0.0
  0
ARC
  5
98
330
1F
100
AcDbEntity
  8
1
100
AcDbCircle
 10
1728.9804179452
 20
2670.9097964902
 30
0.0
 40
943.6000000000004
100
AcDbArc
 50
180.0
 51
192.117329845
  0
ARC
  5
99
330
1F
100
AcDbEntity
  8
1
100
AcDbCircle
 10
1580.9804179452
 20
2670.9097964902
 30
0.0
 40
795.6000000000004
100
AcDbArc
 50
90.0
 51
180.0
  0
ARC
  5
9A
330
1F
100
AcDbEntity
  8
1
100
AcDbCircle
 10
1594.4804179452
 20
2805.4097964902
 30
0.0
 40
661.1000000000004
100
AcDbArc
 50
0.0
 51
90.0
  0
LINE
  5
9B
330
1F
100
AcDbEntity
  8
1
100
AcDbLine
 10
2330.9804179452
 20
1669.6613881993
 30
0.0
 11
1974.9804179452
 21
1701.5222001756
 31
0.0
  0
LINE
  5
9C
330
1F
100
AcDbEntity
  8
1
100
AcDbLine
 10
2255.5804179452
 20
2702.5097964902
 30
0.0
 11
2330.9804179452
 21
2702.5097964902
 31
0.0
  0
LINE
  5
9D
330
1F
100
AcDbEntity
  8
1
100
AcDbLine
 10
2255.5804179452
 20
2805.4097964902
 30
0.0
 11
2255.5804179452
 21
2702.5097964902
 31
0.0
  0
LINE
  5
9E
330
1F
100
AcDbEntity
  8
1
100
AcDbLine
 10
1580.9804179452
 20
3466.5097964902
 30
0.0
 11
1594.4804179452
 21
3466.5097964902
 31
0.0
  0
CIRCLE
  5
9F
330
1F
100
AcDbEntity
  8
0
  6
HIDDEN
 62
     7
370
    18
100
AcDbCircle
 10
404.9804179452
 20
1894.9097964902
 30
0.0
 40
24.0
  0
ARC
  5
A0
330
1F
100
AcDbEntity
  8
0
  6
HIDDEN
 62
     7
370
    18
100
AcDbCircle
 10
404.9804179452
 20
1894.9097964902
 30
0.0
 40
195.5000000000001
100
AcDbArc
 50
202.969001771
 51
241.0071626104
  0
ARC
  5
A1
330
1F
100
AcDbEntity
  8
0
  6
HIDDEN
 62
     7
370
    18
100
AcDbCircle
 10
404.9804179452
 20
1894.9097964902
 30
0.0
 40
195.5000000000002
100
AcDbArc
 50
298.9928373896
 51
157.030998229
  0
LINE
  5
A2
330
1F
100
AcDbEntity
  8
0
  6
HIDDEN
 62
     7
370
    18
100
AcDbLine
 10
499.7393225399
 20
1723.9097964902
 30
0.0
 11
310.2215133504
 21
1723.9097964902
 31
0.0
  0
LINE
  5
A3
330
1F
100
AcDbEntity
  8
0
  6
HIDDEN
 62
     7
370
    18
100
AcDbLine
 10
629.9804179452
 20
1664.4097964902
 30
0.0
 11
629.9804179452
 21
1714.9097964902
 31
0.0
  0
LINE
  5
A4
330
1F
100
AcDbEntity
  8
0
  6
HIDDEN
 62
     7
370
    18
100
AcDbLine
 10
179.9804179452
 20
1659.9097964902
 30
0.0
 11
179.9804179452
 21
1664.4097964902
 31
0.0
  0
LINE
  5
A5
330
1F
100
AcDbEntity
  8
0
  6
HIDDEN
 62
     7
370
    18
100
AcDbLine
 10
629.9804179452
 20
1714.9097964902
 30
0.0
 11
224.9804179452
 21
1714.9097964902
 31
0.0
  0
LINE
  5
A6
330
1F
100
AcDbEntity
  8
0
  6
HIDDEN
 62
     7
370
    18
100
AcDbLine
 10
547.9804179452
 20
1732.9097964902
 30
0.0
 11
514.4164723331
 21
1732.9097964902
 31
0.0
  0
LINE
  5
A7
330
1F
100
AcDbEntity
  8
0
  6
HIDDEN
 62
     7
370
    18
100
AcDbLine
 10
547.9804179452
 20
1714.9097964902
 30
0.0
 11
547.9804179452
 21
1732.9097964902
 31
0.0
  0
LINE
  5
A8
330
1F
100
AcDbEntity
  8
0
  6
HIDDEN
 62
     7
370
    18
100
AcDbLine
 10
295.5443635572
 20
1732.9097964902
 30
0.0
 11
261.9804179452
 21
1732.9097964902
 31
0.0
  0
LINE
  5
A9
330
1F
100
AcDbEntity
  8
0
  6
HIDDEN
 62
     7
370
    18
100
AcDbLine
 10
261.9804179452
 20
1732.9097964902
 30
0.0
 11
261.9804179452
 21
1714.9097964902
 31
0.0
  0
CIRCLE
  5
AA
330
1F
100
AcDbEntity
  8
0
  6
HIDDEN
 62
     7
370
    18
100
AcDbCircle
 10
404.9804179452
 20
1894.9097964902
 30
0.0
 40
75.0
  0
CIRCLE
  5
AB
330
1F
100
AcDbEntity
  8
0
  6
HIDDEN
 62
     7
370
    18
100
AcDbCircle
 10
1654.9804179452
 20
2744.9097964902
 30
0.0
 40
150.0000000000003
  0
LINE
  5
AC
330
1F
100
AcDbEntity
  8
0
  6
HIDDEN
 62
     7
370
    18
100
AcDbLine
 10
2214.9804179452
 20
1424.9097964902
 30
0.0
 11
2214.9804179452
 21
1489.9097964902
 31
0.0
  0
LINE
  5
AD
330
1F
100
AcDbEntity
  8
0
  6
HIDDEN
 62
     7
370
    18
100
AcDbLine
 10
224.9804179451
 20
1424.9097964902
 30
0.0
 11
224.9804179451
 21
1489.9097964902
 31
0.0
  0
LINE
  5
AE
330
1F
100
AcDbEntity
  8
0
  6
HIDDEN
 62
     7
370
    18
100
AcDbLine
 10
2214.9804179452
 20
1659.9097964902
 30
0.0
 11
2214.9804179452
 21
1534.9097964902
 31
0.0
  0
LINE
  5
AF
330
1F
100
AcDbEntity
  8
0
  6
HIDDEN
 62
     7
370
    18
100
AcDbLine
 10
224.9804179452
 20
1659.9097964902
 30
0.0
 11
224.9804179452
 21
1534.9097964902
 31
0.0
  0
ARC
  5
B0
330
1F
100
AcDbEntity
  8
0
  6
HIDDEN
 62
     7
370
    18
100
AcDbCircle
 10
1728.9804179452
 20
2670.9097964902
 30
0.0
 40
943.6
100
AcDbArc
 50
192.117329845
 51
264.8858440997
  0
LINE
  5
B1
330
1F
100
AcDbEntity
  8
0
  6
HIDDEN
 62
     7
370
    18
100
AcDbLine
 10
1974.9804179452
 20
1701.5222001756
 30
0.0
 11
1644.867552454
 21
1731.0662000026
 31
0.0
  0
ARC
  5
B2
330
1F
100
AcDbEntity
  8
0
  6
HIDDEN
 62
     7
370
    18
100
AcDbCircle
 10
1580.9804179452
 20
2670.9097964902
 30
0.0
 40
794.0000000000005
100
AcDbArc
 50
90.0
 51
180.0
  0
LINE
  5
B3
330
1F
100
AcDbEntity
  8
0
  6
HIDDEN
 62
     7
370
    18
100
AcDbLine
 10
1580.9804179452
 20
3464.9097964902
 30
0.0
 11
1594.4804179452
 21
3464.9097964902
 31
0.0
  0
LINE
  5
B4
330
1F
100
AcDbEntity
  8
0
  6
HIDDEN
 62
     7
370
    18
100
AcDbLine
 10
2334.9804179452
 20
1670.9097964902
 30
0.0
 11
1645.0101770669
 21
1732.659830518
 31
0.0
  0
LINE
  5
B5
330
1F
100
AcDbEntity
  8
0
  6
HIDDEN
 62
     7
370
    18
100
AcDbLine
 10
2253.9804179452
 20
2700.9097964902
 30
0.0
 11
2334.9804179452
 21
2700.9097964902
 31
0.0
  0
ARC
  5
B6
330
1F
100
AcDbEntity
  8
0
  6
HIDDEN
 62
     7
370
    18
100
AcDbCircle
 10
1728.9804179452
 20
2670.9097964902
 30
0.0
 40
942.0000000000002
100
AcDbArc
 50
180.0
 51
264.8858440997
  0
ARC
  5
B7
330
1F
100
AcDbEntity
  8
0
  6
HIDDEN
 62
     7
370
    18
100
AcDbCircle
 10
1594.4804179452
 20
2805.4097964902
 30
0.0
 40
659.5000000000005
100
AcDbArc
 50
0.0
 51
90.0
  0
LINE
  5
B8
330
1F
100
AcDbEntity
  8
0
  6
HIDDEN
 62
     7
370
    18
100
AcDbLine
 10
2253.9804179452
 20
2805.4097964902
 30
0.0
 11
2253.9804179452
 21
2700.9097964902
 31
0.0
  0
CIRCLE
  5
B9
330
1F
100
AcDbEntity
  8
0
  6
HIDDEN
 62
     7
370
    18
100
AcDbCircle
 10
1654.9804179452
 20
2744.9097964902
 30
0.0
 40
500.0000000000002
  0
CIRCLE
  5
BA
330
1F
100
AcDbEntity
  8
0
  6
HIDDEN
 62
     7
370
    18
100
AcDbCircle
 10
1654.9804179452
 20
2744.9097964902
 30
0.0
 40
550.0000000000002
  0
CIRCLE
  5
BB
330
1F
100
AcDbEntity
  8
0
  6
HIDDEN
 62
     7
370
    18
100
AcDbCircle
 10
1654.9804179452
 20
2744.9097964902
 30
0.0
 40
502.3000000000002
  0
CIRCLE
  5
BC
330
1F
100
AcDbEntity
  8
0
  6
HIDDEN
 62
     7
370
    18
100
AcDbCircle
 10
1948.043715863
 20
2306.3095760006
 30
0.0
 40
6.000000000000227
  0
CIRCLE
  5
BD
330
1F
100
AcDbEntity
  8
0
  6
HIDDEN
 62
     7
370
    18
100
AcDbCircle
 10
2093.5806384347
 20
2451.8464985724
 30
0.0
 40
6.0
  0
CIRCLE
  5
BE
330
1F
100
AcDbEntity
  8
0
  6
HIDDEN
 62
     7
370
    18
100
AcDbCircle
 10
2172.3446533579
 20
2641.9996516267
 30
0.0
 40
6.0
  0
CIRCLE
  5
BF
330
1F
100
AcDbEntity
  8
0
  6
HIDDEN
 62
     7
370
    18
100
AcDbCircle
 10
2172.3446533579
 20
2847.8199413537
 30
0.0
 40
6.0
  0
CIRCLE
  5
C0
330
1F
100
AcDbEntity
  8
0
  6
HIDDEN
 62
     7
370
    18
100
AcDbCircle
 10
2093.5806384347
 20
3037.9730944081
 30
0.0
 40
6.0
  0
CIRCLE
  5
C1
330
1F
100
AcDbEntity
  8
0
  6
HIDDEN
 62
     7
370
    18
100
AcDbCircle
 10
1948.043715863
 20
3183.5100169798
 30
0.0
 40
6.0
  0
CIRCLE
  5
C2
330
1F
100
AcDbEntity
  8
0
  6
HIDDEN
 62
     7
370
    18
100
AcDbCircle
 10
1757.8905628087
 20
3262.2740319029
 30
0.0
 40
5.999999999999773
  0
CIRCLE
  5
C3
330
1F
100
AcDbEntity
  8
0
  6
HIDDEN
 62
     7
370
    18
100
AcDbCircle
 10
1552.0702730816
 20
3262.2740319029
 30
0.0
 40
6.0
  0
CIRCLE
  5
C4
330
1F
100
AcDbEntity
  8
0
  6
HIDDEN
 62
     7
370
    18
100
AcDbCircle
 10
1361.9171200273
 20
3183.5100169798
 30
0.0
 40
5.999999999999773
  0
CIRCLE
  5
C5
330
1F
100
AcDbEntity
  8
0
  6
HIDDEN
 62
     7
370
    18
100
AcDbCircle
 10
1216.3801974556
 20
3037.9730944081
 30
0.0
 40
6.0
  0
CIRCLE
  5
C6
330
1F
100
AcDbEntity
  8
0
  6
HIDDEN
 62
     7
370
    18
100
AcDbCircle
 10
1137.6161825325
 20
2641.9996516267
 30
0.0
 40
5.999999999999773
  0
CIRCLE
  5
C7
330
1F
100
AcDbEntity
  8
0
  6
HIDDEN
 62
     7
370
    18
100
AcDbCircle
 10
1216.3801974556
 20
2451.8464985724
 30
0.0
 40
6.0
  0
CIRCLE
  5
C8
330
1F
100
AcDbEntity
  8
0
  6
HIDDEN
 62
     7
370
    18
100
AcDbCircle
 10
1361.9171200273
 20
2306.3095760006
 30
0.0
 40
6.000000000000227
  0
CIRCLE
  5
C9
330
1F
100
AcDbEntity
  8
0
  6
HIDDEN
 62
     7
370
    18
100
AcDbCircle
 10
1552.0702730816
 20
2227.5455610775
 30
0.0
 40
6.0
  0
CIRCLE
  5
CA
330
1F
100
AcDbEntity
  8
0
  6
HIDDEN
 62
     7
370
    18
100
AcDbCircle
 10
1757.8905628087
 20
2227.5455610775
 30
0.0
 40
6.0
  0
CIRCLE
  5
CB
330
1F
100
AcDbEntity
  8
0
  6
HIDDEN
 62
     7
370
    18
100
AcDbCircle
 10
1137.6161825325
 20
2847.8199413537
 30
0.0
 40
5.999999999999773
  0
LINE
  5
CC
330
1F
100
AcDbEntity
  8
0
  6
HIDDEN
 62
     7
370
    18
100
AcDbLine
 10
268.9804179452
 20
1424.9097964902
 30
0.0
 11
268.9804179452
 21
1430.9097964902
 31
0.0
  0
LINE
  5
CD
330
1F
100
AcDbEntity
  8
0
  6
HIDDEN
 62
     7
370
    18
100
AcDbLine
 10
250.9804179452
 20
1430.9097964902
 30
0.0
 11
250.9804179452
 21
1424.9097964902
 31
0.0
  0
LINE
  5
CE
330
1F
100
AcDbEntity
  8
0
  6
HIDDEN
 62
     7
370
    18
100
AcDbLine
 10
2188.9804179452
 20
1424.9097964902
 30
0.0
 11
2188.9804179452
 21
1430.9097964902
 31
0.0
  0
LINE
  5
CF
330
1F
100
AcDbEntity
  8
0
  6
HIDDEN
 62
     7
370
    18
100
AcDbLine
 10
2170.9804179452
 20
1430.9097964902
 30
0.0
 11
2170.9804179452
 21
1424.9097964902
 31
0.0
  0
LINE
  5
D0
330
1F
100
AcDbEntity
  8
0
  6
HIDDEN
 62
     7
370
    18
100
AcDbLine
 10
1548.9804179452
 20
1424.9097964902
 30
0.0
 11
1548.9804179452
 21
1430.9097964902
 31
0.0
  0
LINE
  5
D1
330
1F
100
AcDbEntity
  8
0
  6
HIDDEN
 62
     7
370
    18
100
AcDbLine
 10
1530.9804179452
 20
1430.9097964902
 30
0.0
 11
1530.9804179452
 21
1424.9097964902
 31
0.0
  0
LINE
  5
D2
330
1F
100
AcDbEntity
  8
0
  6
HIDDEN
 62
     7
370
    18
100
AcDbLine
 10
908.9804179452
 20
1424.9097964902
 30
0.0
 11
908.9804179452
 21
1430.9097964902
 31
0.0
  0
LINE
  5
D3
330
1F
100
AcDbEntity
  8
0
  6
HIDDEN
 62
     7
370
    18
100
AcDbLine
 10
890.9804179452
 20
1430.9097964902
 30
0.0
 11
890.9804179452
 21
1424.9097964902
 31
0.0
  0
LINE
  5
D4
330
1F
100
AcDbEntity
  8
0
  6
HIDDEN
 62
     7
370
    18
100
AcDbLine
 10
2334.9804179452
 20
1791.9097964902
 30
0.0
 11
2330.9804179452
 21
1791.9097964902
 31
0.0
  0
LINE
  5
D5
330
1F
100
AcDbEntity
  8
0
  6
HIDDEN
 62
     7
370
    18
100
AcDbLine
 10
2330.9804179452
 20
1779.9097964902
 30
0.0
 11
2334.9804179452
 21
1779.9097964902
 31
0.0
  0
LINE
  5
D6
330
1F
100
AcDbEntity
  8
0
  6
HIDDEN
 62
     7
370
    18
100
AcDbLine
 10
2334.9804179452
 20
2739.9097964902
 30
0.0
 11
2330.9804179452
 21
2739.9097964902
 31
0.0
  0
LINE
  5
D7
330
1F
100
AcDbEntity
  8
0
  6
HIDDEN
 62
     7
370
    18
100
AcDbLine
 10
2330.9804179452
 20
2727.9097964902
 30
0.0
 11
2334.9804179452
 21
2727.9097964902
 31
0.0
  0
LINE
  5
D8
330
1F
100
AcDbEntity
  8
0
  6
HIDDEN
 62
     7
370
    18
100
AcDbLine
 10
2334.9804179452
 20
2591.9097964902
 30
0.0
 11
2330.9804179452
 21
2591.9097964902
 31
0.0
  0
LINE
  5
D9
330
1F
100
AcDbEntity
  8
0
  6
HIDDEN
 62
     7
370
    18
100
AcDbLine
 10
2330.9804179452
 20
2579.9097964902
 30
0.0
 11
2334.9804179452
 21
2579.9097964902
 31
0.0
  0
LINE
  5
DA
330
1F
100
AcDbEntity
  8
0
  6
HIDDEN
 62
     7
370
    18
100
AcDbLine
 10
2334.9804179452
 20
1643.9097964902
 30
0.0
 11
2330.9804179452
 21
1643.9097964902
 31
0.0
  0
LINE
  5
DB
330
1F
100
AcDbEntity
  8
0
  6
HIDDEN
 62
     7
370
    18
100
AcDbLine
 10
2330.9804179452
 20
1631.9097964902
 30
0.0
 11
2334.9804179452
 21
1631.9097964902
 31
0.0
  0
LINE
  5
DC
330
1F
100
AcDbEntity
  8
0
  6
HIDDEN
 62
     7
370
    18
100
AcDbLine
 10
2334.9804179452
 20
2391.9097964902
 30
0.0
 11
2330.9804179452
 21
2391.9097964902
 31
0.0
  0
LINE
  5
DD
330
1F
100
AcDbEntity
  8
0
  6
HIDDEN
 62
     7
370
    18
100
AcDbLine
 10
2330.9804179452
 20
2379.9097964902
 30
0.0
 11
2334.9804179452
 21
2379.9097964902
 31
0.0
  0
LINE
  5
DE
330
1F
100
AcDbEntity
  8
0
  6
HIDDEN
 62
     7
370
    18
100
AcDbLine
 10
2334.9804179452
 20
1991.9097964902
 30
0.0
 11
2330.9804179452
 21
1991.9097964902
 31
0.0
  0
LINE
  5
DF
330
1F
100
AcDbEntity
  8
0
  6
HIDDEN
 62
     7
370
    18
100
AcDbLine
 10
2330.9804179452
 20
1979.9097964902
 30
0.0
 11
2334.9804179452
 21
1979.9097964902
 31
0.0
  0
LINE
  5
E0
330
1F
100
AcDbEntity
  8
0
  6
HIDDEN
 62
     7
370
    18
100
AcDbLine
 10
2334.9804179452
 20
2191.9097964902
 30
0.0
 11
2330.9804179452
 21
2191.9097964902
 31
0.0
  0
LINE
  5
E1
330
1F
100
AcDbEntity
  8
0
  6
HIDDEN
 62
     7
370
    18
100
AcDbLine
 10
2330.9804179452
 20
2179.9097964902
 30
0.0
 11
2334.9804179452
 21
2179.9097964902
 31
0.0
  0
INSERT
  5
ED
330
1F
100
AcDbEntity
  8
2
100
AcDbBlockReference
  2
SW_CENTERMARKSYMBOL_0
 10
1654.9804179452
 20
2744.9097964902
 30
0.0
  0
LINE
  5
EE
330
1F
100
AcDbEntity
  8
1
100
AcDbLine
 10
2973.820961819
 20
2090.4097964902
 30
0.0
 11
2819.320961819
 21
2090.4097964902
 31
0.0
  0
LINE
  5
EF
330
1F
100
AcDbEntity
  8
1
100
AcDbLine
 10
2751.820961819
 20
1870.9097964902
 30
0.0
 11
2819.320961819
 21
1870.9097964902
 31
0.0
  0
LINE
  5
F0
330
1F
100
AcDbEntity
  8
1
100
AcDbLine
 10
2819.320961819
 20
1918.9097964902
 30
0.0
 11
2751.820961819
 21
1918.9097964902
 31
0.0
  0
LINE
  5
F1
330
1F
100
AcDbEntity
  8
1
100
AcDbLine
 10
3794.820961819
 20
1534.9097964902
 30
0.0
 11
3794.820961819
 21
1489.9097964902
 31
0.0
  0
LINE
  5
F2
330
1F
100
AcDbEntity
  8
1
100
AcDbLine
 10
3829.820961819
 20
1489.9097964902
 30
0.0
 11
3829.820961819
 21
1534.9097964902
 31
0.0
  0
LINE
  5
F3
330
1F
100
AcDbEntity
  8
1
100
AcDbLine
 10
2799.820961819
 20
1534.9097964902
 30
0.0
 11
2799.820961819
 21
1489.9097964902
 31
0.0
  0
LINE
  5
F4
330
1F
100
AcDbEntity
  8
1
100
AcDbLine
 10
2834.820961819
 20
1489.9097964902
 30
0.0
 11
2834.820961819
 21
1534.9097964902
 31
0.0
  0
LINE
  5
F5
330
1F
100
AcDbEntity
  8
1
100
AcDbLine
 10
3879.820961819
 20
3294.9097964902
 30
0.0
 11
3877.520961819
 21
3294.9097964902
 31
0.0
  0
LINE
  5
F6
330
1F
100
AcDbEntity
  8
1
100
AcDbLine
 10
3877.520961819
 20
2194.9097964902
 30
0.0
 11
3879.820961819
 21
2194.9097964902
 31
0.0
  0
LINE
  5
F7
330
1F
100
AcDbEntity
  8
1
100
AcDbLine
 10
3779.820961819
 20
3294.9097964902
 30
0.0
 11
3779.120961819
 21
3294.9097964902
 31
0.0
  0
LINE
  5
F8
330
1F
100
AcDbEntity
  8
1
100
AcDbLine
 10
3877.520961819
 20
3247.2097964902
 30
0.0
 11
3779.820961819
 21
3247.2097964902
 31
0.0
  0
LINE
  5
F9
330
1F
100
AcDbEntity
  8
1
100
AcDbLine
 10
3829.820961819
 20
2242.6097964902
 30
0.0
 11
3877.520961819
 21
2242.6097964902
 31
0.0
  0
LINE
  5
FA
330
1F
100
AcDbEntity
  8
1
100
AcDbLine
 10
2855.820961819
 20
1659.9097964902
 30
0.0
 11
2855.820961819
 21
1714.9097964902
 31
0.0
  0
LINE
  5
FB
330
1F
100
AcDbEntity
  8
1
100
AcDbLine
 10
2973.820961819
 20
1714.9097964902
 30
0.0
 11
2855.820961819
 21
1714.9097964902
 31
0.0
  0
LINE
  5
FC
330
1F
100
AcDbEntity
  8
1
100
AcDbLine
 10
2898.820961819
 20
1723.9097964902
 30
0.0
 11
2819.320961819
 21
1723.9097964902
 31
0.0
  0
LINE
  5
FD
330
1F
100
AcDbEntity
  8
1
100
AcDbLine
 10
2819.320961819
 20
2090.4097964902
 30
0.0
 11
2819.320961819
 21
1723.9097964902
 31
0.0
  0
LINE
  5
FE
330
1F
100
AcDbEntity
  8
1
100
AcDbLine
 10
2898.820961819
 20
1714.9097964902
 30
0.0
 11
2898.820961819
 21
1732.9097964902
 31
0.0
  0
LINE
  5
FF
330
1F
100
AcDbEntity
  8
1
100
AcDbLine
 10
2898.820961819
 20
1732.9097964902
 30
0.0
 11
2973.820961819
 21
1732.9097964902
 31
0.0
  0
LINE
  5
100
330
1F
100
AcDbEntity
  8
1
100
AcDbLine
 10
2591.820961819
 20
1664.4097964902
 30
0.0
 11
2591.820961819
 21
3064.4097964902
 31
0.0
  0
LINE
  5
101
330
1F
100
AcDbEntity
  8
1
100
AcDbLine
 10
2591.820961819
 20
3064.4097964902
 30
0.0
 11
2751.820961819
 21
3064.4097964902
 31
0.0
  0
LINE
  5
102
330
1F
100
AcDbEntity
  8
1
100
AcDbLine
 10
2751.820961819
 20
1664.4097964902
 30
0.0
 11
2751.820961819
 21
3064.4097964902
 31
0.0
  0
LINE
  5
103
330
1F
100
AcDbEntity
  8
1
100
AcDbLine
 10
2591.820961819
 20
1664.4097964902
 30
0.0
 11
2696.820961819
 21
1664.4097964902
 31
0.0
  0
LINE
  5
104
330
1F
100
AcDbEntity
  8
1
100
AcDbLine
 10
2784.8209618189
 20
1424.9097964902
 30
0.0
 11
2784.8209618189
 21
1430.9097964902
 31
0.0
  0
LINE
  5
105
330
1F
100
AcDbEntity
  8
1
100
AcDbLine
 10
3844.8209618189
 20
1430.9097964902
 30
0.0
 11
2784.8209618189
 21
1430.9097964902
 31
0.0
  0
LINE
  5
106
330
1F
100
AcDbEntity
  8
1
100
AcDbLine
 10
3844.8209618189
 20
1424.9097964902
 30
0.0
 11
3844.8209618189
 21
1430.9097964902
 31
0.0
  0
LINE
  5
107
330
1F
100
AcDbEntity
  8
1
100
AcDbLine
 10
3844.8209618189
 20
1424.9097964902
 30
0.0
 11
2784.8209618189
 21
1424.9097964902
 31
0.0
  0
LINE
  5
108
330
1F
100
AcDbEntity
  8
1
100
AcDbLine
 10
3844.8209618189
 20
1483.9097964902
 30
0.0
 11
3844.8209618189
 21
1489.9097964902
 31
0.0
  0
LINE
  5
109
330
1F
100
AcDbEntity
  8
1
100
AcDbLine
 10
2784.8209618189
 20
1483.9097964902
 30
0.0
 11
2784.8209618189
 21
1489.9097964902
 31
0.0
  0
LINE
  5
10A
330
1F
100
AcDbEntity
  8
1
100
AcDbLine
 10
2784.8209618189
 20
1489.9097964902
 30
0.0
 11
3844.8209618189
 21
1489.9097964902
 31
0.0
  0
LINE
  5
10B
330
1F
100
AcDbEntity
  8
1
100
AcDbLine
 10
2784.8209618189
 20
1483.9097964902
 30
0.0
 11
3844.8209618189
 21
1483.9097964902
 31
0.0
  0
LINE
  5
10C
330
1F
100
AcDbEntity
  8
1
100
AcDbLine
 10
2843.8209618189
 20
1430.9097964902
 30
0.0
 11
2843.8209618189
 21
1483.9097964902
 31
0.0
  0
LINE
  5
10D
330
1F
100
AcDbEntity
  8
1
100
AcDbLine
 10
3785.820961819
 20
1430.9097964902
 30
0.0
 11
3785.820961819
 21
1483.9097964902
 31
0.0
  0
LINE
  5
10E
330
1F
100
AcDbEntity
  8
1
100
AcDbLine
 10
3844.820961819
 20
1540.9097964902
 30
0.0
 11
3844.820961819
 21
1534.9097964902
 31
0.0
  0
LINE
  5
10F
330
1F
100
AcDbEntity
  8
1
100
AcDbLine
 10
2784.820961819
 20
1534.9097964902
 30
0.0
 11
3844.820961819
 21
1534.9097964902
 31
0.0
  0
LINE
  5
110
330
1F
100
AcDbEntity
  8
1
100
AcDbLine
 10
2784.820961819
 20
1540.9097964902
 30
0.0
 11
2784.820961819
 21
1534.9097964902
 31
0.0
  0
LINE
  5
111
330
1F
100
AcDbEntity
  8
1
100
AcDbLine
 10
2784.820961819
 20
1540.9097964902
 30
0.0
 11
3844.820961819
 21
1540.9097964902
 31
0.0
  0
LINE
  5
112
330
1F
100
AcDbEntity
  8
1
100
AcDbLine
 10
3844.820961819
 20
1659.9097964902
 30
0.0
 11
3844.820961819
 21
1653.9097964902
 31
0.0
  0
LINE
  5
113
330
1F
100
AcDbEntity
  8
1
100
AcDbLine
 10
2784.820961819
 20
1653.9097964902
 30
0.0
 11
2973.820961819
 21
1653.9097964902
 31
0.0
  0
LINE
  5
114
330
1F
100
AcDbEntity
  8
1
100
AcDbLine
 10
3829.820961819
 20
1653.9097964902
 30
0.0
 11
3844.820961819
 21
1653.9097964902
 31
0.0
  0
LINE
  5
115
330
1F
100
AcDbEntity
  8
1
100
AcDbLine
 10
2784.820961819
 20
1659.9097964902
 30
0.0
 11
2784.820961819
 21
1653.9097964902
 31
0.0
  0
LINE
  5
116
330
1F
100
AcDbEntity
  8
1
100
AcDbLine
 10
2784.820961819
 20
1659.9097964902
 30
0.0
 11
2973.820961819
 21
1659.9097964902
 31
0.0
  0
LINE
  5
117
330
1F
100
AcDbEntity
  8
1
100
AcDbLine
 10
3829.820961819
 20
1659.9097964902
 30
0.0
 11
3844.820961819
 21
1659.9097964902
 31
0.0
  0
LINE
  5
118
330
1F
100
AcDbEntity
  8
1
100
AcDbLine
 10
2843.820961819
 20
1653.9097964902
 30
0.0
 11
2843.820961819
 21
1540.9097964902
 31
0.0
  0
LINE
  5
119
330
1F
100
AcDbEntity
  8
1
100
AcDbLine
 10
3785.820961819
 20
1617.9097964902
 30
0.0
 11
3785.820961819
 21
1540.9097964902
 31
0.0
  0
LINE
  5
11A
330
1F
100
AcDbEntity
  8
1
100
AcDbLine
 10
2696.820961819
 20
1664.4097964902
 30
0.0
 11
2696.820961819
 21
1659.9097964902
 31
0.0
  0
LINE
  5
11B
330
1F
100
AcDbEntity
  8
1
100
AcDbLine
 10
2696.820961819
 20
1664.4097964902
 30
0.0
 11
2826.820961819
 21
1664.4097964902
 31
0.0
  0
LINE
  5
11C
330
1F
100
AcDbEntity
  8
1
100
AcDbLine
 10
2826.820961819
 20
1664.4097964902
 30
0.0
 11
2826.820961819
 21
1659.9097964902
 31
0.0
  0
LINE
  5
11D
330
1F
100
AcDbEntity
  8
1
100
AcDbLine
 10
2696.820961819
 20
1659.9097964902
 30
0.0
 11
2784.820961819
 21
1659.9097964902
 31
0.0
  0
CIRCLE
  5
11E
330
1F
100
AcDbEntity
  8
1
100
AcDbCircle
 10
2993.820961819
 20
1637.9097964902
 30
0.0
 40
6.000000000000455
  0
CIRCLE
  5
11F
330
1F
100
AcDbEntity
  8
1
100
AcDbCircle
 10
3101.820961819
 20
1637.9097964902
 30
0.0
 40
6.0
  0
CIRCLE
  5
120
330
1F
100
AcDbEntity
  8
1
100
AcDbCircle
 10
3501.820961819
 20
1637.9097964902
 30
0.0
 40
6.0
  0
CIRCLE
  5
121
330
1F
100
AcDbEntity
  8
1
100
AcDbCircle
 10
2993.820961819
 20
1785.9097964902
 30
0.0
 40
6.000000000000455
  0
CIRCLE
  5
122
330
1F
100
AcDbEntity
  8
1
100
AcDbCircle
 10
2993.820961819
 20
1985.9097964902
 30
0.0
 40
6.000000000000455
  0
CIRCLE
  5
123
330
1F
100
AcDbEntity
  8
1
100
AcDbCircle
 10
3809.820961819
 20
1985.9097964902
 30
0.0
 40
6.0
  0
CIRCLE
  5
124
330
1F
100
AcDbEntity
  8
1
100
AcDbCircle
 10
3809.820961819
 20
1785.9097964902
 30
0.0
 40
6.0
  0
CIRCLE
  5
125
330
1F
100
AcDbEntity
  8
1
100
AcDbCircle
 10
3301.820961819
 20
1637.9097964902
 30
0.0
 40
6.0
  0
CIRCLE
  5
126
330
1F
100
AcDbEntity
  8
1
100
AcDbCircle
 10
3701.820961819
 20
1637.9097964902
 30
0.0
 40
6.0
  0
CIRCLE
  5
127
330
1F
100
AcDbEntity
  8
1
100
AcDbCircle
 10
3809.820961819
 20
1637.9097964902
 30
0.0
 40
6.0
  0
CIRCLE
  5
128
330
1F
100
AcDbEntity
  8
1
100
AcDbCircle
 10
3809.820961819
 20
2733.9097964902
 30
0.0
 40
6.0
  0
CIRCLE
  5
129
330
1F
100
AcDbEntity
  8
1
100
AcDbCircle
 10
3701.820961819
 20
2733.9097964902
 30
0.0
 40
6.0
  0
CIRCLE
  5
12A
330
1F
100
AcDbEntity
  8
1
100
AcDbCircle
 10
3301.820961819
 20
2733.9097964902
 30
0.0
 40
6.0
  0
CIRCLE
  5
12B
330
1F
100
AcDbEntity
  8
1
100
AcDbCircle
 10
3809.820961819
 20
2585.9097964902
 30
0.0
 40
6.0
  0
CIRCLE
  5
12C
330
1F
100
AcDbEntity
  8
1
100
AcDbCircle
 10
3809.820961819
 20
2385.9097964902
 30
0.0
 40
6.0
  0
CIRCLE
  5
12D
330
1F
100
AcDbEntity
  8
1
100
AcDbCircle
 10
3809.820961819
 20
2185.9097964902
 30
0.0
 40
6.0
  0
CIRCLE
  5
12E
330
1F
100
AcDbEntity
  8
1
100
AcDbCircle
 10
2993.820961819
 20
2185.9097964902
 30
0.0
 40
6.000000000000455
  0
CIRCLE
  5
12F
330
1F
100
AcDbEntity
  8
1
100
AcDbCircle
 10
2993.820961819
 20
2385.9097964902
 30
0.0
 40
6.000000000000455
  0
CIRCLE
  5
130
330
1F
100
AcDbEntity
  8
1
100
AcDbCircle
 10
2993.820961819
 20
2585.9097964902
 30
0.0
 40
6.000000000000455
  0
CIRCLE
  5
131
330
1F
100
AcDbEntity
  8
1
100
AcDbCircle
 10
3501.820961819
 20
2733.9097964902
 30
0.0
 40
6.0
  0
CIRCLE
  5
132
330
1F
100
AcDbEntity
  8
1
100
AcDbCircle
 10
2993.820961819
 20
2733.9097964902
 30
0.0
 40
6.000000000000455
  0
LINE
  5
133
330
1F
100
AcDbEntity
  8
1
100
AcDbLine
 10
2973.820961819
 20
2753.9097964902
 30
0.0
 11
3829.820961819
 21
2753.9097964902
 31
0.0
  0
LINE
  5
134
330
1F
100
AcDbEntity
  8
1
100
AcDbLine
 10
3829.820961819
 20
2753.9097964902
 30
0.0
 11
3829.820961819
 21
1617.9097964902
 31
0.0
  0
LINE
  5
135
330
1F
100
AcDbEntity
  8
1
100
AcDbLine
 10
3829.820961819
 20
1617.9097964902
 30
0.0
 11
2973.820961819
 21
1617.9097964902
 31
0.0
  0
LINE
  5
136
330
1F
100
AcDbEntity
  8
1
100
AcDbLine
 10
2973.820961819
 20
1617.9097964902
 30
0.0
 11
2973.820961819
 21
2753.9097964902
 31
0.0
  0
LINE
  5
137
330
1F
100
AcDbEntity
  8
1
100
AcDbLine
 10
3026.820961819
 20
2700.9097964902
 30
0.0
 11
3776.820961819
 21
2700.9097964902
 31
0.0
  0
LINE
  5
138
330
1F
100
AcDbEntity
  8
1
100
AcDbLine
 10
3026.820961819
 20
2700.9097964902
 30
0.0
 11
3026.820961819
 21
1670.9097964902
 31
0.0
  0
LINE
  5
139
330
1F
100
AcDbEntity
  8
1
100
AcDbLine
 10
3026.820961819
 20
1670.9097964902
 30
0.0
 11
3776.820961819
 21
1670.9097964902
 31
0.0
  0
LINE
  5
13A
330
1F
100
AcDbEntity
  8
1
100
AcDbLine
 10
3776.820961819
 20
2700.9097964902
 30
0.0
 11
3776.820961819
 21
1670.9097964902
 31
0.0
  0
CIRCLE
  5
13B
330
1F
100
AcDbEntity
  8
1
100
AcDbCircle
 10
3101.820961819
 20
2733.9097964902
 30
0.0
 40
6.0
  0
LINE
  5
13C
330
1F
100
AcDbEntity
  8
1
100
AcDbLine
 10
3024.520961819
 20
3466.5097964902
 30
0.0
 11
3779.120961819
 21
3466.5097964902
 31
0.0
  0
LINE
  5
13D
330
1F
100
AcDbEntity
  8
1
100
AcDbLine
 10
3024.520961819
 20
3466.5097964902
 30
0.0
 11
3024.520961819
 21
2805.4097964902
 31
0.0
  0
LINE
  5
13E
330
1F
100
AcDbEntity
  8
1
100
AcDbLine
 10
3779.120961819
 20
3466.5097964902
 30
0.0
 11
3779.120961819
 21
2805.4097964902
 31
0.0
  0
LINE
  5
13F
330
1F
100
AcDbEntity
  8
1
100
AcDbLine
 10
3024.520961819
 20
2805.4097964902
 30
0.0
 11
3024.520961819
 21
2753.9097964902
 31
0.0
  0
LINE
  5
140
330
1F
100
AcDbEntity
  8
1
100
AcDbLine
 10
3779.120961819
 20
2805.4097964902
 30
0.0
 11
3779.120961819
 21
2753.9097964902
 31
0.0
  0
LINE
  5
141
330
1F
100
AcDbEntity
  8
1
100
AcDbLine
 10
3877.520961819
 20
2194.9097964902
 30
0.0
 11
3877.520961819
 21
3294.9097964902
 31
0.0
  0
LINE
  5
142
330
1F
100
AcDbEntity
  8
1
100
AcDbLine
 10
3879.820961819
 20
2194.9097964902
 30
0.0
 11
3879.820961819
 21
3294.9097964902
 31
0.0
  0
LINE
  5
143
330
1F
100
AcDbEntity
  8
1
100
AcDbLine
 10
3779.820961819
 20
3294.9097964902
 30
0.0
 11
3779.820961819
 21
2753.9097964902
 31
0.0
  0
LINE
  5
144
330
1F
100
AcDbEntity
  8
0
  6
HIDDEN
 62
     7
370
    18
100
AcDbLine
 10
3265.820961819
 20
1714.9097964902
 30
0.0
 11
2973.820961819
 21
1714.9097964902
 31
0.0
  0
LINE
  5
145
330
1F
100
AcDbEntity
  8
0
  6
HIDDEN
 62
     7
370
    18
100
AcDbLine
 10
3265.820961819
 20
1659.9097964902
 30
0.0
 11
3265.820961819
 21
1714.9097964902
 31
0.0
  0
LINE
  5
146
330
1F
100
AcDbEntity
  8
0
  6
HIDDEN
 62
     7
370
    18
100
AcDbLine
 10
3374.320961819
 20
1723.9097964902
 30
0.0
 11
3222.820961819
 21
1723.9097964902
 31
0.0
  0
LINE
  5
147
330
1F
100
AcDbEntity
  8
0
  6
HIDDEN
 62
     7
370
    18
100
AcDbLine
 10
3374.320961819
 20
1723.9097964902
 30
0.0
 11
3374.320961819
 21
2090.4097964902
 31
0.0
  0
LINE
  5
148
330
1F
100
AcDbEntity
  8
0
  6
HIDDEN
 62
     7
370
    18
100
AcDbLine
 10
2973.820961819
 20
1732.9097964902
 30
0.0
 11
3222.820961819
 21
1732.9097964902
 31
0.0
  0
LINE
  5
149
330
1F
100
AcDbEntity
  8
0
  6
HIDDEN
 62
     7
370
    18
100
AcDbLine
 10
3222.820961819
 20
1714.9097964902
 30
0.0
 11
3222.820961819
 21
1732.9097964902
 31
0.0
  0
LINE
  5
14A
330
1F
100
AcDbEntity
  8
0
  6
HIDDEN
 62
     7
370
    18
100
AcDbLine
 10
2634.320961819
 20
1820.2559544557
 30
0.0
 11
2634.320961819
 21
1819.9097964902
 31
0.0
  0
LINE
  5
14B
330
1F
100
AcDbEntity
  8
0
  6
HIDDEN
 62
     7
370
    18
100
AcDbLine
 10
2634.320961819
 20
1969.9097964902
 30
0.0
 11
2634.320961819
 21
1820.2559544557
 31
0.0
  0
LINE
  5
14C
330
1F
100
AcDbEntity
  8
0
  6
HIDDEN
 62
     7
370
    18
100
AcDbLine
 10
2709.320961819
 20
1820.2559544557
 30
0.0
 11
2709.320961819
 21
1819.9097964902
 31
0.0
  0
LINE
  5
14D
330
1F
100
AcDbEntity
  8
0
  6
HIDDEN
 62
     7
370
    18
100
AcDbLine
 10
2709.320961819
 20
1969.9097964902
 30
0.0
 11
2709.320961819
 21
1820.2559544557
 31
0.0
  0
LINE
  5
14E
330
1F
100
AcDbEntity
  8
0
  6
HIDDEN
 62
     7
370
    18
100
AcDbLine
 10
2634.320961819
 20
2894.11463866
 30
0.0
 11
2634.320961819
 21
2594.9097964902
 31
0.0
  0
LINE
  5
14F
330
1F
100
AcDbEntity
  8
0
  6
HIDDEN
 62
     7
370
    18
100
AcDbLine
 10
2634.320961819
 20
2894.9097964902
 30
0.0
 11
2634.320961819
 21
2894.11463866
 31
0.0
  0
LINE
  5
150
330
1F
100
AcDbEntity
  8
0
  6
HIDDEN
 62
     7
370
    18
100
AcDbLine
 10
2709.320961819
 20
2894.11463866
 30
0.0
 11
2709.320961819
 21
2594.9097964902
 31
0.0
  0
LINE
  5
151
330
1F
100
AcDbEntity
  8
0
  6
HIDDEN
 62
     7
370
    18
100
AcDbLine
 10
2709.320961819
 20
2894.9097964902
 30
0.0
 11
2709.320961819
 21
2894.11463866
 31
0.0
  0
LINE
  5
152
330
1F
100
AcDbEntity
  8
0
  6
HIDDEN
 62
     7
370
    18
100
AcDbLine
 10
2591.820961819
 20
2039.4097964902
 30
0.0
 11
2751.820961819
 21
2039.4097964902
 31
0.0
  0
LINE
  5
153
330
1F
100
AcDbEntity
  8
0
  6
HIDDEN
 62
     7
370
    18
100
AcDbLine
 10
3779.820961819
 20
1424.9097964902
 30
0.0
 11
3779.820961819
 21
1489.9097964902
 31
0.0
  0
LINE
  5
154
330
1F
100
AcDbEntity
  8
0
  6
HIDDEN
 62
     7
370
    18
100
AcDbLine
 10
2849.8209618189
 20
1424.9097964902
 30
0.0
 11
2849.8209618189
 21
1489.9097964902
 31
0.0
  0
LINE
  5
155
330
1F
100
AcDbEntity
  8
0
  6
HIDDEN
 62
     7
370
    18
100
AcDbLine
 10
2973.820961819
 20
1653.9097964902
 30
0.0
 11
3829.820961819
 21
1653.9097964902
 31
0.0
  0
LINE
  5
156
330
1F
100
AcDbEntity
  8
0
  6
HIDDEN
 62
     7
370
    18
100
AcDbLine
 10
2973.820961819
 20
1659.9097964902
 30
0.0
 11
3829.820961819
 21
1659.9097964902
 31
0.0
  0
LINE
  5
157
330
1F
100
AcDbEntity
  8
0
  6
HIDDEN
 62
     7
370
    18
100
AcDbLine
 10
3785.820961819
 20
1653.9097964902
 30
0.0
 11
3785.820961819
 21
1617.9097964902
 31
0.0
  0
LINE
  5
158
330
1F
100
AcDbEntity
  8
0
  6
HIDDEN
 62
     7
370
    18
100
AcDbLine
 10
3779.820961819
 20
1659.9097964902
 30
0.0
 11
3779.820961819
 21
1534.9097964902
 31
0.0
  0
LINE
  5
159
330
1F
100
AcDbEntity
  8
0
  6
HIDDEN
 62
     7
370
    18
100
AcDbLine
 10
2849.820961819
 20
1659.9097964902
 30
0.0
 11
2849.820961819
 21
1534.9097964902
 31
0.0
  0
LINE
  5
15A
330
1F
100
AcDbEntity
  8
0
  6
HIDDEN
 62
     7
370
    18
100
AcDbLine
 10
3779.120961819
 20
1669.6613881993
 30
0.0
 11
3779.120961819
 21
2702.5097964902
 31
0.0
  0
LINE
  5
15B
330
1F
100
AcDbEntity
  8
0
  6
HIDDEN
 62
     7
370
    18
100
AcDbLine
 10
3779.120961819
 20
1669.6613881993
 30
0.0
 11
3024.520961819
 21
1669.6613881993
 31
0.0
  0
LINE
  5
15C
330
1F
100
AcDbEntity
  8
0
  6
HIDDEN
 62
     7
370
    18
100
AcDbLine
 10
3024.520961819
 20
2702.5097964902
 30
0.0
 11
3779.120961819
 21
2702.5097964902
 31
0.0
  0
LINE
  5
15D
330
1F
100
AcDbEntity
  8
0
  6
HIDDEN
 62
     7
370
    18
100
AcDbLine
 10
3024.520961819
 20
1669.6613881993
 30
0.0
 11
3024.520961819
 21
2702.5097964902
 31
0.0
  0
LINE
  5
15E
330
1F
100
AcDbEntity
  8
0
  6
HIDDEN
 62
     7
370
    18
100
AcDbLine
 10
3024.520961819
 20
2753.9097964902
 30
0.0
 11
3024.520961819
 21
2702.5097964902
 31
0.0
  0
LINE
  5
15F
330
1F
100
AcDbEntity
  8
0
  6
HIDDEN
 62
     7
370
    18
100
AcDbLine
 10
3779.120961819
 20
2753.9097964902
 30
0.0
 11
3779.120961819
 21
2702.5097964902
 31
0.0
  0
LINE
  5
160
330
1F
100
AcDbEntity
  8
0
  6
HIDDEN
 62
     7
370
    18
100
AcDbLine
 10
3026.820961819
 20
3464.9097964902
 30
0.0
 11
3776.820961819
 21
3464.9097964902
 31
0.0
  0
LINE
  5
161
330
1F
100
AcDbEntity
  8
0
  6
HIDDEN
 62
     7
370
    18
100
AcDbLine
 10
3026.820961819
 20
3464.9097964902
 30
0.0
 11
3026.820961819
 21
2805.4097964902
 31
0.0
  0
LINE
  5
162
330
1F
100
AcDbEntity
  8
0
  6
HIDDEN
 62
     7
370
    18
100
AcDbLine
 10
3776.820961819
 20
3464.9097964902
 30
0.0
 11
3776.820961819
 21
2805.4097964902
 31
0.0
  0
LINE
  5
163
330
1F
100
AcDbEntity
  8
0
  6
HIDDEN
 62
     7
370
    18
100
AcDbLine
 10
3026.820961819
 20
2805.4097964902
 30
0.0
 11
3026.820961819
 21
2700.9097964902
 31
0.0
  0
LINE
  5
164
330
1F
100
AcDbEntity
  8
0
  6
HIDDEN
 62
     7
370
    18
100
AcDbLine
 10
3776.820961819
 20
2805.4097964902
 30
0.0
 11
3776.820961819
 21
2700.9097964902
 31
0.0
  0
LINE
  5
165
330
1F
100
AcDbEntity
  8
0
  6
HIDDEN
 62
     7
370
    18
100
AcDbLine
 10
3779.820961819
 20
2753.9097964902
 30
0.0
 11
3779.820961819
 21
2194.9097964902
 31
0.0
  0
LINE
  5
166
330
1F
100
AcDbEntity
  8
0
  6
HIDDEN
 62
     7
370
    18
100
AcDbLine
 10
3374.320961819
 20
2090.4097964902
 30
0.0
 11
2973.820961819
 21
2090.4097964902
 31
0.0
  0
LINE
  5
167
330
1F
100
AcDbEntity
  8
0
  6
HIDDEN
 62
     7
370
    18
100
AcDbLine
 10
2709.320961819
 20
1870.9097964902
 30
0.0
 11
2751.820961819
 21
1870.9097964902
 31
0.0
  0
LINE
  5
168
330
1F
100
AcDbEntity
  8
0
  6
HIDDEN
 62
     7
370
    18
100
AcDbLine
 10
2751.820961819
 20
1918.9097964902
 30
0.0
 11
2709.320961819
 21
1918.9097964902
 31
0.0
  0
LINE
  5
169
330
1F
100
AcDbEntity
  8
0
  6
HIDDEN
 62
     7
370
    18
100
AcDbLine
 10
2634.320961819
 20
1819.9097964902
 30
0.0
 11
2709.320961819
 21
1819.9097964902
 31
0.0
  0
LINE
  5
16A
330
1F
100
AcDbEntity
  8
0
  6
HIDDEN
 62
     7
370
    18
100
AcDbLine
 10
2709.320961819
 20
1969.9097964902
 30
0.0
 11
2634.320961819
 21
1969.9097964902
 31
0.0
  0
LINE
  5
16B
330
1F
100
AcDbEntity
  8
0
  6
HIDDEN
 62
     7
370
    18
100
AcDbLine
 10
2634.320961819
 20
2594.9097964902
 30
0.0
 11
2709.320961819
 21
2594.9097964902
 31
0.0
  0
LINE
  5
16C
330
1F
100
AcDbEntity
  8
0
  6
HIDDEN
 62
     7
370
    18
100
AcDbLine
 10
2709.320961819
 20
2894.9097964902
 30
0.0
 11
2634.320961819
 21
2894.9097964902
 31
0.0
  0
LINE
  5
16D
330
1F
100
AcDbEntity
  8
0
  6
HIDDEN
 62
     7
370
    18
100
AcDbLine
 10
3823.820961819
 20
1424.9097964902
 30
0.0
 11
3823.820961819
 21
1430.9097964902
 31
0.0
  0
LINE
  5
16E
330
1F
100
AcDbEntity
  8
0
  6
HIDDEN
 62
     7
370
    18
100
AcDbLine
 10
3805.820961819
 20
1430.9097964902
 30
0.0
 11
3805.820961819
 21
1424.9097964902
 31
0.0
  0
LINE
  5
16F
330
1F
100
AcDbEntity
  8
0
  6
HIDDEN
 62
     7
370
    18
100
AcDbLine
 10
2823.820961819
 20
1424.9097964902
 30
0.0
 11
2823.820961819
 21
1430.9097964902
 31
0.0
  0
LINE
  5
170
330
1F
100
AcDbEntity
  8
0
  6
HIDDEN
 62
     7
370
    18
100
AcDbLine
 10
2805.820961819
 20
1430.9097964902
 30
0.0
 11
2805.820961819
 21
1424.9097964902
 31
0.0
  0
LINE
  5
171
330
1F
100
AcDbEntity
  8
0
  6
HIDDEN
 62
     7
370
    18
100
AcDbLine
 10
3779.120961819
 20
2194.9097964902
 30
0.0
 11
3779.820961819
 21
2194.9097964902
 31
0.0
  0
LINE
  5
172
330
1F
100
AcDbEntity
  8
0
  6
HIDDEN
 62
     7
370
    18
100
AcDbLine
 10
3879.820961819
 20
2853.8199413537
 30
0.0
 11
3877.520961819
 21
2853.8199413537
 31
0.0
  0
LINE
  5
173
330
1F
100
AcDbEntity
  8
0
  6
HIDDEN
 62
     7
370
    18
100
AcDbLine
 10
3877.520961819
 20
2841.8199413537
 30
0.0
 11
3879.820961819
 21
2841.8199413537
 31
0.0
  0
LINE
  5
174
330
1F
100
AcDbEntity
  8
0
  6
HIDDEN
 62
     7
370
    18
100
AcDbLine
 10
3879.820961819
 20
2647.9996516267
 30
0.0
 11
3877.520961819
 21
2647.9996516267
 31
0.0
  0
LINE
  5
175
330
1F
100
AcDbEntity
  8
0
  6
HIDDEN
 62
     7
370
    18
100
AcDbLine
 10
3877.520961819
 20
2635.9996516267
 30
0.0
 11
3879.820961819
 21
2635.9996516267
 31
0.0
  0
LINE
  5
176
330
1F
100
AcDbEntity
  8
0
  6
HIDDEN
 62
     7
370
    18
100
AcDbLine
 10
3779.820961819
 20
2242.6097964902
 30
0.0
 11
3829.820961819
 21
2242.6097964902
 31
0.0
  0
LINE
  5
177
330
1F
100
AcDbEntity
  8
0
  6
HIDDEN
 62
     7
370
    18
100
AcDbLine
 10
3776.820961819
 20
2244.9097964902
 30
0.0
 11
3879.820961819
 21
2244.9097964902
 31
0.0
  0
LINE
  5
178
330
1F
100
AcDbEntity
  8
0
  6
HIDDEN
 62
     7
370
    18
100
AcDbLine
 10
3879.820961819
 20
3244.9097964902
 30
0.0
 11
3776.820961819
 21
3244.9097964902
 31
0.0
  0
LINE
  5
179
330
1F
100
AcDbEntity
  8
0
  6
HIDDEN
 62
     7
370
    18
100
AcDbLine
 10
3879.820961819
 20
2457.8464985724
 30
0.0
 11
3877.520961819
 21
2457.8464985724
 31
0.0
  0
LINE
  5
17A
330
1F
100
AcDbEntity
  8
0
  6
HIDDEN
 62
     7
370
    18
100
AcDbLine
 10
3877.520961819
 20
2445.8464985724
 30
0.0
 11
3879.820961819
 21
2445.8464985724
 31
0.0
  0
LINE
  5
17B
330
1F
100
AcDbEntity
  8
0
  6
HIDDEN
 62
     7
370
    18
100
AcDbLine
 10
3879.820961819
 20
3043.9730944081
 30
0.0
 11
3877.520961819
 21
3043.9730944081
 31
0.0
  0
LINE
  5
17C
330
1F
100
AcDbEntity
  8
0
  6
HIDDEN
 62
     7
370
    18
100
AcDbLine
 10
3877.520961819
 20
3031.9730944081
 30
0.0
 11
3879.820961819
 21
3031.9730944081
 31
0.0
  0
LINE
  5
17D
330
1F
100
AcDbEntity
  8
0
  6
HIDDEN
 62
     7
370
    18
100
AcDbLine
 10
3879.820961819
 20
3189.5100169798
 30
0.0
 11
3877.520961819
 21
3189.5100169798
 31
0.0
  0
LINE
  5
17E
330
1F
100
AcDbEntity
  8
0
  6
HIDDEN
 62
     7
370
    18
100
AcDbLine
 10
3877.520961819
 20
3177.5100169798
 30
0.0
 11
3879.820961819
 21
3177.5100169798
 31
0.0
  0
LINE
  5
17F
330
1F
100
AcDbEntity
  8
0
  6
HIDDEN
 62
     7
370
    18
100
AcDbLine
 10
3879.820961819
 20
2312.3095760006
 30
0.0
 11
3877.520961819
 21
2312.3095760006
 31
0.0
  0
LINE
  5
180
330
1F
100
AcDbEntity
  8
0
  6
HIDDEN
 62
     7
370
    18
100
AcDbLine
 10
3877.520961819
 20
2300.3095760006
 30
0.0
 11
3879.820961819
 21
2300.3095760006
 31
0.0
  0
LINE
  5
181
330
1F
100
AcDbEntity
  8
0
  6
HIDDEN
 62
     7
370
    18
100
AcDbLine
 10
3879.820961819
 20
3268.2740319029
 30
0.0
 11
3877.520961819
 21
3268.2740319029
 31
0.0
  0
LINE
  5
182
330
1F
100
AcDbEntity
  8
0
  6
HIDDEN
 62
     7
370
    18
100
AcDbLine
 10
3877.520961819
 20
3256.2740319029
 30
0.0
 11
3879.820961819
 21
3256.2740319029
 31
0.0
  0
LINE
  5
183
330
1F
100
AcDbEntity
  8
0
  6
HIDDEN
 62
     7
370
    18
100
AcDbLine
 10
3879.820961819
 20
2233.5455610775
 30
0.0
 11
3877.520961819
 21
2233.5455610775
 31
0.0
  0
LINE
  5
184
330
1F
100
AcDbEntity
  8
0
  6
HIDDEN
 62
     7
370
    18
100
AcDbLine
 10
3877.520961819
 20
2221.5455610775
 30
0.0
 11
3879.820961819
 21
2221.5455610775
 31
0.0
  0
LINE
  5
185
330
1F
100
AcDbEntity
  8
2
100
AcDbLine
 10
2843.8688841662
 20
2744.9097964902
 30
0.0
 11
3626.8914829673
 21
2744.9097964902
 31
0.0
  0
LINE
  5
186
330
1F
100
AcDbEntity
  8
2
100
AcDbLine
 10
2986.820961819
 20
2185.9097964902
 30
0.0
 11
3816.820961819
 21
2185.9097964902
 31
0.0
  0
LINE
  5
187
330
1F
100
AcDbEntity
  8
2
100
AcDbLine
 10
3401.820961819
 20
3031.5236868203
 30
0.0
 11
3401.820961819
 21
1977.1281956898
 31
0.0
  0
LINE
  5
188
330
1F
100
AcDbEntity
  8
1
100
AcDbLine
 10
600.4804179452
 20
4333.0526144505
 30
0.0
 11
600.4804179452
 21
4888.0526144505
 31
0.0
  0
LINE
  5
189
330
1F
100
AcDbEntity
  8
1
100
AcDbLine
 10
209.4804179452
 20
4888.0526144505
 30
0.0
 11
209.4804179452
 21
4333.0526144505
 31
0.0
  0
LINE
  5
18A
330
1F
100
AcDbEntity
  8
1
100
AcDbLine
 10
428.9804179452
 20
4265.5526144505
 30
0.0
 11
428.9804179452
 21
4333.0526144505
 31
0.0
  0
LINE
  5
18B
330
1F
100
AcDbEntity
  8
1
100
AcDbLine
 10
380.9804179452
 20
4333.0526144505
 30
0.0
 11
380.9804179452
 21
4265.5526144505
 31
0.0
  0
LINE
  5
18C
330
1F
100
AcDbEntity
  8
1
100
AcDbLine
 10
1104.9804179452
 20
5393.5526144505
 30
0.0
 11
1104.9804179452
 21
5391.2526144505
 31
0.0
  0
LINE
  5
18D
330
1F
100
AcDbEntity
  8
1
100
AcDbLine
 10
2204.9804179452
 20
5391.2526144505
 30
0.0
 11
2204.9804179452
 21
5393.5526144505
 31
0.0
  0
LINE
  5
18E
330
1F
100
AcDbEntity
  8
1
100
AcDbLine
 10
2204.9804179452
 20
5292.8526144505
 30
0.0
 11
2204.9804179452
 21
5293.5526144505
 31
0.0
  0
LINE
  5
18F
330
1F
100
AcDbEntity
  8
1
100
AcDbLine
 10
1104.9804179452
 20
5293.5526144505
 30
0.0
 11
1104.9804179452
 21
5292.8526144505
 31
0.0
  0
LINE
  5
190
330
1F
100
AcDbEntity
  8
1
100
AcDbLine
 10
1152.6804179452
 20
5391.2526144505
 30
0.0
 11
1152.6804179452
 21
5293.5526144505
 31
0.0
  0
LINE
  5
191
330
1F
100
AcDbEntity
  8
1
100
AcDbLine
 10
2157.2804179452
 20
5293.5526144505
 30
0.0
 11
2157.2804179452
 21
5391.2526144505
 31
0.0
  0
LINE
  5
192
330
1F
100
AcDbEntity
  8
1
100
AcDbLine
 10
600.4804179452
 20
4888.0526144505
 30
0.0
 11
209.4804179452
 21
4888.0526144505
 31
0.0
  0
LINE
  5
193
330
1F
100
AcDbEntity
  8
1
100
AcDbLine
 10
209.4804179452
 20
4333.0526144505
 30
0.0
 11
600.4804179452
 21
4333.0526144505
 31
0.0
  0
LINE
  5
194
330
1F
100
AcDbEntity
  8
1
100
AcDbLine
 10
629.9804179452
 20
4779.5526144505
 30
0.0
 11
629.9804179452
 21
4369.5526144505
 31
0.0
  0
LINE
  5
195
330
1F
100
AcDbEntity
  8
1
100
AcDbLine
 10
629.9804179452
 20
4369.5526144505
 30
0.0
 11
600.4804179452
 21
4369.5526144505
 31
0.0
  0
LINE
  5
196
330
1F
100
AcDbEntity
  8
1
100
AcDbLine
 10
209.4804179452
 20
4369.5526144505
 30
0.0
 11
179.9804179452
 21
4369.5526144505
 31
0.0
  0
LINE
  5
197
330
1F
100
AcDbEntity
  8
1
100
AcDbLine
 10
179.9804179452
 20
4369.5526144505
 30
0.0
 11
179.9804179452
 21
4779.5526144505
 31
0.0
  0
LINE
  5
198
330
1F
100
AcDbEntity
  8
1
100
AcDbLine
 10
179.9804179452
 20
4779.5526144505
 30
0.0
 11
209.4804179452
 21
4779.5526144505
 31
0.0
  0
LINE
  5
199
330
1F
100
AcDbEntity
  8
1
100
AcDbLine
 10
600.4804179452
 20
4779.5526144505
 30
0.0
 11
629.9804179452
 21
4779.5526144505
 31
0.0
  0
LINE
  5
19A
330
1F
100
AcDbEntity
  8
1
100
AcDbLine
 10
1974.9804179452
 20
4105.5526144505
 30
0.0
 11
1974.9804179452
 21
4265.5526144505
 31
0.0
  0
LINE
  5
19B
330
1F
100
AcDbEntity
  8
1
100
AcDbLine
 10
1974.9804179452
 20
4105.5526144505
 30
0.0
 11
1599.9804179452
 21
4105.5526144505
 31
0.0
  0
LINE
  5
19C
330
1F
100
AcDbEntity
  8
1
100
AcDbLine
 10
1599.9804179452
 20
4105.5526144505
 30
0.0
 11
1599.9804179452
 21
4265.5526144505
 31
0.0
  0
LINE
  5
19D
330
1F
100
AcDbEntity
  8
1
100
AcDbLine
 10
1974.9804179452
 20
4265.5526144505
 30
0.0
 11
1599.9804179452
 21
4265.5526144505
 31
0.0
  0
LINE
  5
19E
330
1F
100
AcDbEntity
  8
1
100
AcDbLine
 10
1599.9804179452
 20
4105.5526144505
 30
0.0
 11
224.9804179452
 21
4105.5526144505
 31
0.0
  0
LINE
  5
19F
330
1F
100
AcDbEntity
  8
1
100
AcDbLine
 10
224.9804179452
 20
4105.5526144505
 30
0.0
 11
224.9804179452
 21
4265.5526144505
 31
0.0
  0
LINE
  5
1A0
330
1F
100
AcDbEntity
  8
1
100
AcDbLine
 10
1599.9804179452
 20
4265.5526144505
 30
0.0
 11
224.9804179452
 21
4265.5526144505
 31
0.0
  0
LINE
  5
1A1
330
1F
100
AcDbEntity
  8
1
100
AcDbLine
 10
2059.9804179452
 20
4340.5526144505
 30
0.0
 11
1909.9804179452
 21
4340.5526144505
 31
0.0
  0
LINE
  5
1A2
330
1F
100
AcDbEntity
  8
1
100
AcDbLine
 10
2059.9804179452
 20
4210.5526144505
 30
0.0
 11
2059.9804179452
 21
4340.5526144505
 31
0.0
  0
LINE
  5
1A3
330
1F
100
AcDbEntity
  8
1
100
AcDbLine
 10
1974.9804179452
 20
4210.5526144505
 30
0.0
 11
2059.9804179452
 21
4210.5526144505
 31
0.0
  0
LINE
  5
1A4
330
1F
100
AcDbEntity
  8
1
100
AcDbLine
 10
1909.9804179452
 20
4340.5526144505
 30
0.0
 11
1909.9804179452
 21
4265.5526144505
 31
0.0
  0
LINE
  5
1A5
330
1F
100
AcDbEntity
  8
1
100
AcDbLine
 10
209.4804179452
 20
4340.5526144505
 30
0.0
 11
139.9804179452
 21
4340.5526144505
 31
0.0
  0
LINE
  5
1A6
330
1F
100
AcDbEntity
  8
1
100
AcDbLine
 10
289.9804179452
 20
4265.5526144505
 30
0.0
 11
289.9804179452
 21
4333.0526144505
 31
0.0
  0
LINE
  5
1A7
330
1F
100
AcDbEntity
  8
1
100
AcDbLine
 10
139.9804179452
 20
4210.5526144505
 30
0.0
 11
224.9804179452
 21
4210.5526144505
 31
0.0
  0
LINE
  5
1A8
330
1F
100
AcDbEntity
  8
1
100
AcDbLine
 10
139.9804179452
 20
4340.5526144505
 30
0.0
 11
139.9804179452
 21
4210.5526144505
 31
0.0
  0
LINE
  5
1A9
330
1F
100
AcDbEntity
  8
1
100
AcDbLine
 10
159.9804179452
 20
5358.5526144505
 30
0.0
 11
159.9804179452
 21
4340.5526144505
 31
0.0
  0
LINE
  5
1AA
330
1F
100
AcDbEntity
  8
1
100
AcDbLine
 10
2279.9804179452
 20
4298.5526144505
 30
0.0
 11
2279.9804179452
 21
4538.2526144505
 31
0.0
  0
LINE
  5
1AB
330
1F
100
AcDbEntity
  8
1
100
AcDbLine
 10
2279.9804179452
 20
5292.8526144505
 30
0.0
 11
2279.9804179452
 21
5358.5526144505
 31
0.0
  0
LINE
  5
1AC
330
1F
100
AcDbEntity
  8
1
100
AcDbLine
 10
2059.9804179452
 20
4298.5526144505
 30
0.0
 11
2279.9804179452
 21
4298.5526144505
 31
0.0
  0
LINE
  5
1AD
330
1F
100
AcDbEntity
  8
1
100
AcDbLine
 10
289.9804179452
 20
4298.5526144505
 30
0.0
 11
380.9804179452
 21
4298.5526144505
 31
0.0
  0
LINE
  5
1AE
330
1F
100
AcDbEntity
  8
1
100
AcDbLine
 10
428.9804179452
 20
4298.5526144505
 30
0.0
 11
1909.9804179452
 21
4298.5526144505
 31
0.0
  0
LINE
  5
1AF
330
1F
100
AcDbEntity
  8
1
100
AcDbLine
 10
600.4804179452
 20
4363.5526144505
 30
0.0
 11
2214.9804179452
 21
4363.5526144505
 31
0.0
  0
LINE
  5
1B0
330
1F
100
AcDbEntity
  8
1
100
AcDbLine
 10
2214.9804179452
 20
4363.5526144505
 30
0.0
 11
2214.9804179452
 21
4538.2526144505
 31
0.0
  0
LINE
  5
1B1
330
1F
100
AcDbEntity
  8
1
100
AcDbLine
 10
2214.9804179452
 20
5292.8526144505
 30
0.0
 11
2214.9804179452
 21
5293.5526144505
 31
0.0
  0
LINE
  5
1B2
330
1F
100
AcDbEntity
  8
1
100
AcDbLine
 10
2214.9804179452
 20
5293.5526144505
 30
0.0
 11
2204.9804179452
 21
5293.5526144505
 31
0.0
  0
LINE
  5
1B3
330
1F
100
AcDbEntity
  8
1
100
AcDbLine
 10
1104.9804179452
 20
5293.5526144505
 30
0.0
 11
224.9804179452
 21
5293.5526144505
 31
0.0
  0
LINE
  5
1B4
330
1F
100
AcDbEntity
  8
1
100
AcDbLine
 10
224.9804179452
 20
5293.5526144505
 30
0.0
 11
224.9804179452
 21
4888.0526144505
 31
0.0
  0
LINE
  5
1B5
330
1F
100
AcDbEntity
  8
1
100
AcDbLine
 10
2279.9804179452
 20
5358.5526144505
 30
0.0
 11
2157.2804179452
 21
5358.5526144505
 31
0.0
  0
LINE
  5
1B6
330
1F
100
AcDbEntity
  8
1
100
AcDbLine
 10
1152.6804179452
 20
5358.5526144505
 30
0.0
 11
159.9804179452
 21
5358.5526144505
 31
0.0
  0
LINE
  5
1B7
330
1F
100
AcDbEntity
  8
1
100
AcDbLine
 10
2255.5804179452
 20
4538.2526144505
 30
0.0
 11
2255.5804179452
 21
5292.8526144505
 31
0.0
  0
LINE
  5
1B8
330
1F
100
AcDbEntity
  8
1
100
AcDbLine
 10
1594.4804179452
 20
4538.2526144505
 30
0.0
 11
2255.5804179452
 21
4538.2526144505
 31
0.0
  0
LINE
  5
1B9
330
1F
100
AcDbEntity
  8
1
100
AcDbLine
 10
1594.4804179452
 20
5292.8526144505
 30
0.0
 11
2255.5804179452
 21
5292.8526144505
 31
0.0
  0
LINE
  5
1BA
330
1F
100
AcDbEntity
  8
1
100
AcDbLine
 10
785.3804179452
 20
4538.2526144505
 30
0.0
 11
1580.9804179452
 21
4538.2526144505
 31
0.0
  0
LINE
  5
1BB
330
1F
100
AcDbEntity
  8
1
100
AcDbLine
 10
785.3804179452
 20
4538.2526144505
 30
0.0
 11
785.3804179452
 21
5292.8526144505
 31
0.0
  0
LINE
  5
1BC
330
1F
100
AcDbEntity
  8
1
100
AcDbLine
 10
785.3804179452
 20
5292.8526144505
 30
0.0
 11
1580.9804179452
 21
5292.8526144505
 31
0.0
  0
LINE
  5
1BD
330
1F
100
AcDbEntity
  8
1
100
AcDbLine
 10
1580.9804179452
 20
4538.2526144505
 30
0.0
 11
1594.4804179452
 21
4538.2526144505
 31
0.0
  0
LINE
  5
1BE
330
1F
100
AcDbEntity
  8
1
100
AcDbLine
 10
1580.9804179452
 20
5292.8526144505
 30
0.0
 11
1594.4804179452
 21
5292.8526144505
 31
0.0
  0
LINE
  5
1BF
330
1F
100
AcDbEntity
  8
1
100
AcDbLine
 10
2204.9804179452
 20
5391.2526144505
 30
0.0
 11
1104.9804179452
 21
5391.2526144505
 31
0.0
  0
LINE
  5
1C0
330
1F
100
AcDbEntity
  8
1
100
AcDbLine
 10
2204.9804179452
 20
5393.5526144505
 30
0.0
 11
1104.9804179452
 21
5393.5526144505
 31
0.0
  0
LINE
  5
1C1
330
1F
100
AcDbEntity
  8
1
100
AcDbLine
 10
1104.9804179452
 20
5293.5526144505
 30
0.0
 11
2204.9804179452
 21
5293.5526144505
 31
0.0
  0
LINE
  5
1C2
330
1F
100
AcDbEntity
  8
1
100
AcDbLine
 10
2330.9804179452
 20
4487.5526144505
 30
0.0
 11
2334.9804179452
 21
4487.5526144505
 31
0.0
  0
LINE
  5
1C3
330
1F
100
AcDbEntity
  8
1
100
AcDbLine
 10
2330.9804179452
 20
4487.5526144505
 30
0.0
 11
2330.9804179452
 21
5343.5526144505
 31
0.0
  0
LINE
  5
1C4
330
1F
100
AcDbEntity
  8
1
100
AcDbLine
 10
2330.9804179452
 20
5343.5526144505
 30
0.0
 11
2334.9804179452
 21
5343.5526144505
 31
0.0
  0
LINE
  5
1C5
330
1F
100
AcDbEntity
  8
1
100
AcDbLine
 10
2334.9804179452
 20
4487.5526144505
 30
0.0
 11
2334.9804179452
 21
5343.5526144505
 31
0.0
  0
LINE
  5
1C6
330
1F
100
AcDbEntity
  8
1
100
AcDbLine
 10
2255.5804179452
 20
4538.2526144505
 30
0.0
 11
2330.9804179452
 21
4538.2526144505
 31
0.0
  0
LINE
  5
1C7
330
1F
100
AcDbEntity
  8
1
100
AcDbLine
 10
2255.5804179452
 20
5292.8526144505
 30
0.0
 11
2330.9804179452
 21
5292.8526144505
 31
0.0
  0
LINE
  5
1C8
330
1F
100
AcDbEntity
  8
0
  6
HIDDEN
 62
     7
370
    18
100
AcDbLine
 10
295.5443635572
 20
4412.5526144505
 30
0.0
 11
310.2215133504
 21
4412.5526144505
 31
0.0
  0
LINE
  5
1C9
330
1F
100
AcDbEntity
  8
0
  6
HIDDEN
 62
     7
370
    18
100
AcDbLine
 10
295.5443635572
 20
4412.5526144505
 30
0.0
 11
295.5443635572
 21
4736.5526144505
 31
0.0
  0
LINE
  5
1CA
330
1F
100
AcDbEntity
  8
0
  6
HIDDEN
 62
     7
370
    18
100
AcDbLine
 10
295.5443635572
 20
4736.5526144505
 30
0.0
 11
310.2215133504
 21
4736.5526144505
 31
0.0
  0
LINE
  5
1CB
330
1F
100
AcDbEntity
  8
0
  6
HIDDEN
 62
     7
370
    18
100
AcDbLine
 10
310.2215133504
 20
4888.0526144505
 30
0.0
 11
310.2215133504
 21
4736.5526144505
 31
0.0
  0
LINE
  5
1CC
330
1F
100
AcDbEntity
  8
0
  6
HIDDEN
 62
     7
370
    18
100
AcDbLine
 10
499.7393225399
 20
4888.0526144505
 30
0.0
 11
499.7393225399
 21
4736.5526144505
 31
0.0
  0
LINE
  5
1CD
330
1F
100
AcDbEntity
  8
0
  6
HIDDEN
 62
     7
370
    18
100
AcDbLine
 10
499.7393225399
 20
4736.5526144505
 30
0.0
 11
514.4164723331
 21
4736.5526144505
 31
0.0
  0
LINE
  5
1CE
330
1F
100
AcDbEntity
  8
0
  6
HIDDEN
 62
     7
370
    18
100
AcDbLine
 10
514.4164723331
 20
4736.5526144505
 30
0.0
 11
514.4164723331
 21
4412.5526144505
 31
0.0
  0
LINE
  5
1CF
330
1F
100
AcDbEntity
  8
0
  6
HIDDEN
 62
     7
370
    18
100
AcDbLine
 10
499.7393225399
 20
4412.5526144505
 30
0.0
 11
514.4164723331
 21
4412.5526144505
 31
0.0
  0
LINE
  5
1D0
330
1F
100
AcDbEntity
  8
0
  6
HIDDEN
 62
     7
370
    18
100
AcDbLine
 10
499.7393225399
 20
4412.5526144505
 30
0.0
 11
499.7393225399
 21
4333.0526144505
 31
0.0
  0
LINE
  5
1D1
330
1F
100
AcDbEntity
  8
0
  6
HIDDEN
 62
     7
370
    18
100
AcDbLine
 10
310.2215133504
 20
4412.5526144505
 30
0.0
 11
310.2215133504
 21
4333.0526144505
 31
0.0
  0
LINE
  5
1D2
330
1F
100
AcDbEntity
  8
0
  6
HIDDEN
 62
     7
370
    18
100
AcDbLine
 10
547.9804179452
 20
4412.5526144505
 30
0.0
 11
514.4164723331
 21
4412.5526144505
 31
0.0
  0
LINE
  5
1D3
330
1F
100
AcDbEntity
  8
0
  6
HIDDEN
 62
     7
370
    18
100
AcDbLine
 10
547.9804179452
 20
4412.5526144505
 30
0.0
 11
547.9804179452
 21
4736.5526144505
 31
0.0
  0
LINE
  5
1D4
330
1F
100
AcDbEntity
  8
0
  6
HIDDEN
 62
     7
370
    18
100
AcDbLine
 10
547.9804179452
 20
4736.5526144505
 30
0.0
 11
514.4164723331
 21
4736.5526144505
 31
0.0
  0
LINE
  5
1D5
330
1F
100
AcDbEntity
  8
0
  6
HIDDEN
 62
     7
370
    18
100
AcDbLine
 10
295.5443635572
 20
4412.5526144505
 30
0.0
 11
261.9804179452
 21
4412.5526144505
 31
0.0
  0
LINE
  5
1D6
330
1F
100
AcDbEntity
  8
0
  6
HIDDEN
 62
     7
370
    18
100
AcDbLine
 10
261.9804179452
 20
4412.5526144505
 30
0.0
 11
261.9804179452
 21
4736.5526144505
 31
0.0
  0
LINE
  5
1D7
330
1F
100
AcDbEntity
  8
0
  6
HIDDEN
 62
     7
370
    18
100
AcDbLine
 10
295.5443635572
 20
4736.5526144505
 30
0.0
 11
261.9804179452
 21
4736.5526144505
 31
0.0
  0
LINE
  5
1D8
330
1F
100
AcDbEntity
  8
0
  6
HIDDEN
 62
     7
370
    18
100
AcDbLine
 10
310.2215133504
 20
4736.5526144505
 30
0.0
 11
499.7393225399
 21
4736.5526144505
 31
0.0
  0
LINE
  5
1D9
330
1F
100
AcDbEntity
  8
0
  6
HIDDEN
 62
     7
370
    18
100
AcDbLine
 10
310.2215133504
 20
4412.5526144505
 30
0.0
 11
499.7393225399
 21
4412.5526144505
 31
0.0
  0
LINE
  5
1DA
330
1F
100
AcDbEntity
  8
0
  6
HIDDEN
 62
     7
370
    18
100
AcDbLine
 10
600.4804179452
 20
4369.5526144505
 30
0.0
 11
209.4804179452
 21
4369.5526144505
 31
0.0
  0
LINE
  5
1DB
330
1F
100
AcDbEntity
  8
0
  6
HIDDEN
 62
     7
370
    18
100
AcDbLine
 10
209.4804179452
 20
4779.5526144505
 30
0.0
 11
600.4804179452
 21
4779.5526144505
 31
0.0
  0
LINE
  5
1DC
330
1F
100
AcDbEntity
  8
0
  6
HIDDEN
 62
     7
370
    18
100
AcDbLine
 10
329.9804179452
 20
4148.0526144505
 30
0.0
 11
479.9804179452
 21
4148.0526144505
 31
0.0
  0
LINE
  5
1DD
330
1F
100
AcDbEntity
  8
0
  6
HIDDEN
 62
     7
370
    18
100
AcDbLine
 10
329.9804179452
 20
4223.0526144505
 30
0.0
 11
479.9804179452
 21
4223.0526144505
 31
0.0
  0
LINE
  5
1DE
330
1F
100
AcDbEntity
  8
0
  6
HIDDEN
 62
     7
370
    18
100
AcDbLine
 10
1670.4049138232
 20
4148.0526144505
 30
0.0
 11
1804.9804179452
 21
4148.0526144505
 31
0.0
  0
LINE
  5
1DF
330
1F
100
AcDbEntity
  8
0
  6
HIDDEN
 62
     7
370
    18
100
AcDbLine
 10
1504.9804179452
 20
4148.0526144505
 30
0.0
 11
1670.4049138232
 21
4148.0526144505
 31
0.0
  0
LINE
  5
1E0
330
1F
100
AcDbEntity
  8
0
  6
HIDDEN
 62
     7
370
    18
100
AcDbLine
 10
1670.4049138232
 20
4223.0526144505
 30
0.0
 11
1804.9804179452
 21
4223.0526144505
 31
0.0
  0
LINE
  5
1E1
330
1F
100
AcDbEntity
  8
0
  6
HIDDEN
 62
     7
370
    18
100
AcDbLine
 10
1504.9804179452
 20
4223.0526144505
 30
0.0
 11
1670.4049138232
 21
4223.0526144505
 31
0.0
  0
CIRCLE
  5
1E2
330
1F
100
AcDbEntity
  8
0
  6
HIDDEN
 62
     7
370
    18
100
AcDbCircle
 10
259.9804179452
 20
5328.5526144505
 30
0.0
 40
9.0
  0
CIRCLE
  5
1E3
330
1F
100
AcDbEntity
  8
0
  6
HIDDEN
 62
     7
370
    18
100
AcDbCircle
 10
2179.9804179452
 20
4328.5526144505
 30
0.0
 40
9.0
  0
CIRCLE
  5
1E4
330
1F
100
AcDbEntity
  8
0
  6
HIDDEN
 62
     7
370
    18
100
AcDbCircle
 10
1539.9804179452
 20
4328.5526144505
 30
0.0
 40
9.0
  0
CIRCLE
  5
1E5
330
1F
100
AcDbEntity
  8
0
  6
HIDDEN
 62
     7
370
    18
100
AcDbCircle
 10
899.9804179452
 20
4328.5526144505
 30
0.0
 40
9.0
  0
CIRCLE
  5
1E6
330
1F
100
AcDbEntity
  8
0
  6
HIDDEN
 62
     7
370
    18
100
AcDbCircle
 10
259.9804179452
 20
4328.5526144505
 30
0.0
 40
9.0
  0
CIRCLE
  5
1E7
330
1F
100
AcDbEntity
  8
0
  6
HIDDEN
 62
     7
370
    18
100
AcDbCircle
 10
1539.9804179452
 20
5328.5526144505
 30
0.0
 40
9.0
  0
CIRCLE
  5
1E8
330
1F
100
AcDbEntity
  8
0
  6
HIDDEN
 62
     7
370
    18
100
AcDbCircle
 10
899.9804179452
 20
5328.5526144505
 30
0.0
 40
9.0
  0
CIRCLE
  5
1E9
330
1F
100
AcDbEntity
  8
0
  6
HIDDEN
 62
     7
370
    18
100
AcDbCircle
 10
2179.9804179452
 20
5328.5526144505
 30
0.0
 40
9.0
  0
LINE
  5
1EA
330
1F
100
AcDbEntity
  8
0
  6
HIDDEN
 62
     7
370
    18
100
AcDbLine
 10
1909.9804179452
 20
4210.5526144505
 30
0.0
 11
1974.9804179452
 21
4210.5526144505
 31
0.0
  0
LINE
  5
1EB
330
1F
100
AcDbEntity
  8
0
  6
HIDDEN
 62
     7
370
    18
100
AcDbLine
 10
1909.9804179452
 20
4265.5526144505
 30
0.0
 11
1909.9804179452
 21
4210.5526144505
 31
0.0
  0
LINE
  5
1EC
330
1F
100
AcDbEntity
  8
0
  6
HIDDEN
 62
     7
370
    18
100
AcDbLine
 10
289.9804179452
 20
4340.5526144505
 30
0.0
 11
209.4804179452
 21
4340.5526144505
 31
0.0
  0
LINE
  5
1ED
330
1F
100
AcDbEntity
  8
0
  6
HIDDEN
 62
     7
370
    18
100
AcDbLine
 10
289.9804179452
 20
4210.5526144505
 30
0.0
 11
289.9804179452
 21
4265.5526144505
 31
0.0
  0
LINE
  5
1EE
330
1F
100
AcDbEntity
  8
0
  6
HIDDEN
 62
     7
370
    18
100
AcDbLine
 10
289.9804179452
 20
4333.0526144505
 30
0.0
 11
289.9804179452
 21
4340.5526144505
 31
0.0
  0
LINE
  5
1EF
330
1F
100
AcDbEntity
  8
0
  6
HIDDEN
 62
     7
370
    18
100
AcDbLine
 10
224.9804179452
 20
4210.5526144505
 30
0.0
 11
289.9804179452
 21
4210.5526144505
 31
0.0
  0
LINE
  5
1F0
330
1F
100
AcDbEntity
  8
0
  6
HIDDEN
 62
     7
370
    18
100
AcDbLine
 10
2279.9804179452
 20
4538.2526144505
 30
0.0
 11
2279.9804179452
 21
5292.8526144505
 31
0.0
  0
LINE
  5
1F1
330
1F
100
AcDbEntity
  8
0
  6
HIDDEN
 62
     7
370
    18
100
AcDbLine
 10
380.9804179452
 20
4298.5526144505
 30
0.0
 11
428.9804179452
 21
4298.5526144505
 31
0.0
  0
LINE
  5
1F2
330
1F
100
AcDbEntity
  8
0
  6
HIDDEN
 62
     7
370
    18
100
AcDbLine
 10
224.9804179452
 20
4363.5526144505
 30
0.0
 11
600.4804179452
 21
4363.5526144505
 31
0.0
  0
LINE
  5
1F3
330
1F
100
AcDbEntity
  8
0
  6
HIDDEN
 62
     7
370
    18
100
AcDbLine
 10
2214.9804179452
 20
4538.2526144505
 30
0.0
 11
2214.9804179452
 21
5292.8526144505
 31
0.0
  0
LINE
  5
1F4
330
1F
100
AcDbEntity
  8
0
  6
HIDDEN
 62
     7
370
    18
100
AcDbLine
 10
224.9804179452
 20
4888.0526144505
 30
0.0
 11
224.9804179452
 21
4363.5526144505
 31
0.0
  0
LINE
  5
1F5
330
1F
100
AcDbEntity
  8
0
  6
HIDDEN
 62
     7
370
    18
100
AcDbLine
 10
2157.2804179452
 20
5358.5526144505
 30
0.0
 11
1152.6804179452
 21
5358.5526144505
 31
0.0
  0
LINE
  5
1F6
330
1F
100
AcDbEntity
  8
0
  6
HIDDEN
 62
     7
370
    18
100
AcDbLine
 10
159.9804179452
 20
4340.5526144505
 30
0.0
 11
159.9804179452
 21
4298.5526144505
 31
0.0
  0
LINE
  5
1F7
330
1F
100
AcDbEntity
  8
0
  6
HIDDEN
 62
     7
370
    18
100
AcDbLine
 10
159.9804179452
 20
4298.5526144505
 30
0.0
 11
289.9804179452
 21
4298.5526144505
 31
0.0
  0
LINE
  5
1F8
330
1F
100
AcDbEntity
  8
0
  6
HIDDEN
 62
     7
370
    18
100
AcDbLine
 10
1909.9804179452
 20
4298.5526144505
 30
0.0
 11
2059.9804179452
 21
4298.5526144505
 31
0.0
  0
LINE
  5
1F9
330
1F
100
AcDbEntity
  8
0
  6
HIDDEN
 62
     7
370
    18
100
AcDbLine
 10
2220.9804179452
 20
5299.5526144505
 30
0.0
 11
218.9804179452
 21
5299.5526144505
 31
0.0
  0
LINE
  5
1FA
330
1F
100
AcDbEntity
  8
0
  6
HIDDEN
 62
     7
370
    18
100
AcDbLine
 10
2220.9804179452
 20
4357.5526144505
 30
0.0
 11
2220.9804179452
 21
5299.5526144505
 31
0.0
  0
LINE
  5
1FB
330
1F
100
AcDbEntity
  8
0
  6
HIDDEN
 62
     7
370
    18
100
AcDbLine
 10
218.9804179452
 20
5299.5526144505
 30
0.0
 11
218.9804179452
 21
4357.5526144505
 31
0.0
  0
LINE
  5
1FC
330
1F
100
AcDbEntity
  8
0
  6
HIDDEN
 62
     7
370
    18
100
AcDbLine
 10
218.9804179452
 20
4357.5526144505
 30
0.0
 11
2220.9804179452
 21
4357.5526144505
 31
0.0
  0
CIRCLE
  5
1FD
330
1F
100
AcDbEntity
  8
0
  6
HIDDEN
 62
     7
370
    18
100
AcDbCircle
 10
2214.9804179452
 20
5326.0526144505
 30
0.0
 40
17.5
  0
CIRCLE
  5
1FE
330
1F
100
AcDbEntity
  8
0
  6
HIDDEN
 62
     7
370
    18
100
AcDbCircle
 10
224.9804179452
 20
5326.0526144505
 30
0.0
 40
17.5
  0
CIRCLE
  5
1FF
330
1F
100
AcDbEntity
  8
0
  6
HIDDEN
 62
     7
370
    18
100
AcDbCircle
 10
2214.9804179452
 20
4331.0526144505
 30
0.0
 40
17.5
  0
CIRCLE
  5
200
330
1F
100
AcDbEntity
  8
0
  6
HIDDEN
 62
     7
370
    18
100
AcDbCircle
 10
224.9804179452
 20
4331.0526144505
 30
0.0
 40
17.5
  0
LINE
  5
201
330
1F
100
AcDbEntity
  8
0
  6
HIDDEN
 62
     7
370
    18
100
AcDbLine
 10
1594.4804179452
 20
4540.5526144505
 30
0.0
 11
2253.9804179452
 21
4540.5526144505
 31
0.0
  0
LINE
  5
202
330
1F
100
AcDbEntity
  8
0
  6
HIDDEN
 62
     7
370
    18
100
AcDbLine
 10
2253.9804179452
 20
4540.5526144505
 30
0.0
 11
2253.9804179452
 21
5290.5526144505
 31
0.0
  0
LINE
  5
203
330
1F
100
AcDbEntity
  8
0
  6
HIDDEN
 62
     7
370
    18
100
AcDbLine
 10
1594.4804179452
 20
5290.5526144505
 30
0.0
 11
2253.9804179452
 21
5290.5526144505
 31
0.0
  0
LINE
  5
204
330
1F
100
AcDbEntity
  8
0
  6
HIDDEN
 62
     7
370
    18
100
AcDbLine
 10
786.9804179452
 20
4540.5526144505
 30
0.0
 11
786.9804179452
 21
5290.5526144505
 31
0.0
  0
LINE
  5
205
330
1F
100
AcDbEntity
  8
0
  6
HIDDEN
 62
     7
370
    18
100
AcDbLine
 10
786.9804179452
 20
4540.5526144505
 30
0.0
 11
1580.9804179452
 21
4540.5526144505
 31
0.0
  0
LINE
  5
206
330
1F
100
AcDbEntity
  8
0
  6
HIDDEN
 62
     7
370
    18
100
AcDbLine
 10
786.9804179452
 20
5290.5526144505
 30
0.0
 11
1580.9804179452
 21
5290.5526144505
 31
0.0
  0
LINE
  5
207
330
1F
100
AcDbEntity
  8
0
  6
HIDDEN
 62
     7
370
    18
100
AcDbLine
 10
1580.9804179452
 20
5290.5526144505
 30
0.0
 11
1594.4804179452
 21
5290.5526144505
 31
0.0
  0
LINE
  5
208
330
1F
100
AcDbEntity
  8
0
  6
HIDDEN
 62
     7
370
    18
100
AcDbLine
 10
1580.9804179452
 20
4540.5526144505
 30
0.0
 11
1594.4804179452
 21
4540.5526144505
 31
0.0
  0
LINE
  5
209
330
1F
100
AcDbEntity
  8
0
  6
HIDDEN
 62
     7
370
    18
100
AcDbLine
 10
2253.9804179452
 20
4540.5526144505
 30
0.0
 11
2334.9804179452
 21
4540.5526144505
 31
0.0
  0
LINE
  5
20A
330
1F
100
AcDbEntity
  8
0
  6
HIDDEN
 62
     7
370
    18
100
AcDbLine
 10
2253.9804179452
 20
5290.5526144505
 30
0.0
 11
2334.9804179452
 21
5290.5526144505
 31
0.0
  0
LINE
  5
20B
330
1F
100
AcDbEntity
  8
0
  6
HIDDEN
 62
     7
370
    18
100
AcDbLine
 10
428.9804179452
 20
4223.0526144505
 30
0.0
 11
428.9804179452
 21
4265.5526144505
 31
0.0
  0
LINE
  5
20C
330
1F
100
AcDbEntity
  8
0
  6
HIDDEN
 62
     7
370
    18
100
AcDbLine
 10
380.9804179452
 20
4265.5526144505
 30
0.0
 11
380.9804179452
 21
4223.0526144505
 31
0.0
  0
LINE
  5
20D
330
1F
100
AcDbEntity
  8
0
  6
HIDDEN
 62
     7
370
    18
100
AcDbLine
 10
479.9804179452
 20
4148.0526144505
 30
0.0
 11
479.9804179452
 21
4223.0526144505
 31
0.0
  0
LINE
  5
20E
330
1F
100
AcDbEntity
  8
0
  6
HIDDEN
 62
     7
370
    18
100
AcDbLine
 10
329.9804179452
 20
4223.0526144505
 30
0.0
 11
329.9804179452
 21
4148.0526144505
 31
0.0
  0
LINE
  5
20F
330
1F
100
AcDbEntity
  8
0
  6
HIDDEN
 62
     7
370
    18
100
AcDbLine
 10
1804.9804179452
 20
4148.0526144505
 30
0.0
 11
1804.9804179452
 21
4223.0526144505
 31
0.0
  0
LINE
  5
210
330
1F
100
AcDbEntity
  8
0
  6
HIDDEN
 62
     7
370
    18
100
AcDbLine
 10
1504.9804179452
 20
4223.0526144505
 30
0.0
 11
1504.9804179452
 21
4148.0526144505
 31
0.0
  0
LINE
  5
211
330
1F
100
AcDbEntity
  8
0
  6
HIDDEN
 62
     7
370
    18
100
AcDbLine
 10
1546.0702730816
 20
5393.5526144505
 30
0.0
 11
1546.0702730816
 21
5391.2526144505
 31
0.0
  0
LINE
  5
212
330
1F
100
AcDbEntity
  8
0
  6
HIDDEN
 62
     7
370
    18
100
AcDbLine
 10
1558.0702730816
 20
5391.2526144505
 30
0.0
 11
1558.0702730816
 21
5393.5526144505
 31
0.0
  0
LINE
  5
213
330
1F
100
AcDbEntity
  8
0
  6
HIDDEN
 62
     7
370
    18
100
AcDbLine
 10
1751.8905628087
 20
5393.5526144505
 30
0.0
 11
1751.8905628087
 21
5391.2526144505
 31
0.0
  0
LINE
  5
214
330
1F
100
AcDbEntity
  8
0
  6
HIDDEN
 62
     7
370
    18
100
AcDbLine
 10
1763.8905628087
 20
5391.2526144505
 30
0.0
 11
1763.8905628087
 21
5393.5526144505
 31
0.0
  0
LINE
  5
215
330
1F
100
AcDbEntity
  8
0
  6
HIDDEN
 62
     7
370
    18
100
AcDbLine
 10
2154.9804179452
 20
5290.5526144505
 30
0.0
 11
2154.9804179452
 21
5393.5526144505
 31
0.0
  0
LINE
  5
216
330
1F
100
AcDbEntity
  8
0
  6
HIDDEN
 62
     7
370
    18
100
AcDbLine
 10
1154.9804179452
 20
5393.5526144505
 30
0.0
 11
1154.9804179452
 21
5290.5526144505
 31
0.0
  0
LINE
  5
217
330
1F
100
AcDbEntity
  8
0
  6
HIDDEN
 62
     7
370
    18
100
AcDbLine
 10
1355.9171200273
 20
5393.5526144505
 30
0.0
 11
1355.9171200273
 21
5391.2526144505
 31
0.0
  0
LINE
  5
218
330
1F
100
AcDbEntity
  8
0
  6
HIDDEN
 62
     7
370
    18
100
AcDbLine
 10
1367.9171200273
 20
5391.2526144505
 30
0.0
 11
1367.9171200273
 21
5393.5526144505
 31
0.0
  0
LINE
  5
219
330
1F
100
AcDbEntity
  8
0
  6
HIDDEN
 62
     7
370
    18
100
AcDbLine
 10
1942.043715863
 20
5393.5526144505
 30
0.0
 11
1942.043715863
 21
5391.2526144505
 31
0.0
  0
LINE
  5
21A
330
1F
100
AcDbEntity
  8
0
  6
HIDDEN
 62
     7
370
    18
100
AcDbLine
 10
1954.043715863
 20
5391.2526144505
 30
0.0
 11
1954.043715863
 21
5393.5526144505
 31
0.0
  0
LINE
  5
21B
330
1F
100
AcDbEntity
  8
0
  6
HIDDEN
 62
     7
370
    18
100
AcDbLine
 10
1210.3801974556
 20
5393.5526144505
 30
0.0
 11
1210.3801974556
 21
5391.2526144505
 31
0.0
  0
LINE
  5
21C
330
1F
100
AcDbEntity
  8
0
  6
HIDDEN
 62
     7
370
    18
100
AcDbLine
 10
1222.3801974556
 20
5391.2526144505
 30
0.0
 11
1222.3801974556
 21
5393.5526144505
 31
0.0
  0
LINE
  5
21D
330
1F
100
AcDbEntity
  8
0
  6
HIDDEN
 62
     7
370
    18
100
AcDbLine
 10
2087.5806384347
 20
5393.5526144505
 30
0.0
 11
2087.5806384347
 21
5391.2526144505
 31
0.0
  0
LINE
  5
21E
330
1F
100
AcDbEntity
  8
0
  6
HIDDEN
 62
     7
370
    18
100
AcDbLine
 10
2099.5806384347
 20
5391.2526144505
 30
0.0
 11
2099.5806384347
 21
5393.5526144505
 31
0.0
  0
LINE
  5
21F
330
1F
100
AcDbEntity
  8
0
  6
HIDDEN
 62
     7
370
    18
100
AcDbLine
 10
1131.6161825325
 20
5393.5526144505
 30
0.0
 11
1131.6161825325
 21
5391.2526144505
 31
0.0
  0
LINE
  5
220
330
1F
100
AcDbEntity
  8
0
  6
HIDDEN
 62
     7
370
    18
100
AcDbLine
 10
1143.6161825325
 20
5391.2526144505
 30
0.0
 11
1143.6161825325
 21
5393.5526144505
 31
0.0
  0
LINE
  5
221
330
1F
100
AcDbEntity
  8
0
  6
HIDDEN
 62
     7
370
    18
100
AcDbLine
 10
2166.3446533579
 20
5393.5526144505
 30
0.0
 11
2166.3446533579
 21
5391.2526144505
 31
0.0
  0
LINE
  5
222
330
1F
100
AcDbEntity
  8
0
  6
HIDDEN
 62
     7
370
    18
100
AcDbLine
 10
2178.3446533579
 20
5391.2526144505
 30
0.0
 11
2178.3446533579
 21
5393.5526144505
 31
0.0
  0
LINE
  5
223
330
1F
100
AcDbEntity
  8
0
  6
HIDDEN
 62
     7
370
    18
100
AcDbLine
 10
2334.9804179452
 20
5329.5526144505
 30
0.0
 11
2330.9804179452
 21
5329.5526144505
 31
0.0
  0
LINE
  5
224
330
1F
100
AcDbEntity
  8
0
  6
HIDDEN
 62
     7
370
    18
100
AcDbLine
 10
2330.9804179452
 20
5317.5526144505
 30
0.0
 11
2334.9804179452
 21
5317.5526144505
 31
0.0
  0
LINE
  5
225
330
1F
100
AcDbEntity
  8
0
  6
HIDDEN
 62
     7
370
    18
100
AcDbLine
 10
2334.9804179452
 20
5221.5526144505
 30
0.0
 11
2330.9804179452
 21
5221.5526144505
 31
0.0
  0
LINE
  5
226
330
1F
100
AcDbEntity
  8
0
  6
HIDDEN
 62
     7
370
    18
100
AcDbLine
 10
2330.9804179452
 20
5209.5526144505
 30
0.0
 11
2334.9804179452
 21
5209.5526144505
 31
0.0
  0
LINE
  5
227
330
1F
100
AcDbEntity
  8
0
  6
HIDDEN
 62
     7
370
    18
100
AcDbLine
 10
2334.9804179452
 20
5021.5526144505
 30
0.0
 11
2330.9804179452
 21
5021.5526144505
 31
0.0
  0
LINE
  5
228
330
1F
100
AcDbEntity
  8
0
  6
HIDDEN
 62
     7
370
    18
100
AcDbLine
 10
2330.9804179452
 20
5009.5526144505
 30
0.0
 11
2334.9804179452
 21
5009.5526144505
 31
0.0
  0
LINE
  5
229
330
1F
100
AcDbEntity
  8
0
  6
HIDDEN
 62
     7
370
    18
100
AcDbLine
 10
2334.9804179452
 20
4821.5526144505
 30
0.0
 11
2330.9804179452
 21
4821.5526144505
 31
0.0
  0
LINE
  5
22A
330
1F
100
AcDbEntity
  8
0
  6
HIDDEN
 62
     7
370
    18
100
AcDbLine
 10
2330.9804179452
 20
4809.5526144505
 30
0.0
 11
2334.9804179452
 21
4809.5526144505
 31
0.0
  0
LINE
  5
22B
330
1F
100
AcDbEntity
  8
0
  6
HIDDEN
 62
     7
370
    18
100
AcDbLine
 10
2334.9804179452
 20
4621.5526144505
 30
0.0
 11
2330.9804179452
 21
4621.5526144505
 31
0.0
  0
LINE
  5
22C
330
1F
100
AcDbEntity
  8
0
  6
HIDDEN
 62
     7
370
    18
100
AcDbLine
 10
2330.9804179452
 20
4609.5526144505
 30
0.0
 11
2334.9804179452
 21
4609.5526144505
 31
0.0
  0
LINE
  5
22D
330
1F
100
AcDbEntity
  8
0
  6
HIDDEN
 62
     7
370
    18
100
AcDbLine
 10
2334.9804179452
 20
4513.5526144505
 30
0.0
 11
2330.9804179452
 21
4513.5526144505
 31
0.0
  0
LINE
  5
22E
330
1F
100
AcDbEntity
  8
0
  6
HIDDEN
 62
     7
370
    18
100
AcDbLine
 10
2330.9804179452
 20
4501.5526144505
 30
0.0
 11
2334.9804179452
 21
4501.5526144505
 31
0.0
  0
CIRCLE
  5
22F
330
1F
100
AcDbEntity
  8
基礎穴
100
AcDbCircle
 10
2179.9804179452
 20
5328.5526144505
 30
0.0
 40
8.999999999999872
  0
CIRCLE
  5
230
330
1F
100
AcDbEntity
  8
基礎穴
100
AcDbCircle
 10
1539.9804179452
 20
5328.5526144505
 30
0.0
 40
8.999999999999654
  0
CIRCLE
  5
231
330
1F
100
AcDbEntity
  8
基礎穴
100
AcDbCircle
 10
899.9804179452
 20
5328.5526144505
 30
0.0
 40
8.99999999999998
  0
CIRCLE
  5
232
330
1F
100
AcDbEntity
  8
基礎穴
100
AcDbCircle
 10
259.9804179452
 20
5328.5526144505
 30
0.0
 40
9.000000000000036
  0
CIRCLE
  5
233
330
1F
100
AcDbEntity
  8
基礎穴
100
AcDbCircle
 10
2179.9804179452
 20
4328.5526144505
 30
0.0
 40
8.999999999999872
  0
CIRCLE
  5
234
330
1F
100
AcDbEntity
  8
基礎穴
100
AcDbCircle
 10
1539.9804179452
 20
4328.5526144505
 30
0.0
 40
8.999999999999872
  0
CIRCLE
  5
235
330
1F
100
AcDbEntity
  8
基礎穴
100
AcDbCircle
 10
899.9804179452
 20
4328.5526144505
 30
0.0
 40
8.999999999999872
  0
CIRCLE
  5
236
330
1F
100
AcDbEntity
  8
基礎穴
100
AcDbCircle
 10
259.9804179452
 20
4328.5526144505
 30
0.0
 40
8.999999999999872
  0
LINE
  5
237
330
1F
100
AcDbEntity
  8
2
100
AcDbLine
 10
1654.9804179452
 20
4365.9967070027
 30
0.0
 11
1654.9804179452
 21
5140.5648051975
 31
0.0
  0
LINE
  5
238
330
1F
100
AcDbEntity
  8
2
100
AcDbLine
 10
1016.8776608355
 20
4915.5526144505
 30
0.0
 11
1930.2144808719
 21
4915.5526144505
 31
0.0
  0
ENDSEC
  0
SECTION
  2
OBJECTS
  0
DICTIONARY
  5
C
330
0
100
AcDbDictionary
281
     1
  3
ACAD_GROUP
350
D
  3
ACAD_LAYOUT
350
1A
  3
ACAD_MLINESTYLE
350
17
  3
ACAD_PLOTSETTINGS
350
19
  3
ACAD_PLOTSTYLENAME
350
E
  3
ACAD_SCALELIST
350
47
  3
DWGPROPS
350
239
  0
DICTIONARY
  5
D
102
{ACAD_REACTORS
330
C
102
}
330
C
100
AcDbDictionary
281
     1
  0
DICTIONARY
  5
1A
102
{ACAD_REACTORS
330
C
102
}
330
C
100
AcDbDictionary
281
     1
  3
Layout1
350
1E
  3
Layout2
350
26
  3
Model
350
22
  0
DICTIONARY
  5
17
102
{ACAD_REACTORS
330
C
102
}
330
C
100
AcDbDictionary
281
     1
  3
Standard
350
18
  0
DICTIONARY
  5
19
102
{ACAD_REACTORS
330
C
102
}
330
C
100
AcDbDictionary
281
     1
  0
ACDBDICTIONARYWDFLT
  5
E
102
{ACAD_REACTORS
330
C
102
}
330
C
100
AcDbDictionary
281
     1
  3
Normal
350
F
100
AcDbDictionaryWithDefault
340
F
  0
DICTIONARY
  5
47
102
{ACAD_REACTORS
330
C
102
}
330
C
100
AcDbDictionary
281
     1
  3
A0
350
48
  3
A1
350
49
  3
A2
350
4A
  3
A3
350
4B
  3
A4
350
4C
  3
A5
350
4D
  3
A6
350
4E
  3
A7
350
4F
  3
A8
350
50
  3
A9
350
51
  3
B0
350
52
  3
B1
350
53
  3
B2
350
54
  3
B3
350
55
  3
B4
350
56
  3
B5
350
57
  3
B6
350
58
  0
XRECORD
  5
239
102
{ACAD_REACTORS
330
C
102
}
330
C
100
AcDbXrecord
280
     1
  1
DWGPROPS COOKIE
  2

  3

  4

  6

  7

  8
yuta.kunimatsu
  9

300
=
301
=
302
=
303
=
304
=
305
=
306
=
307
=
308
=
309
=
 40
0.0
 41
2460174.415240046
 42
2460174.415242801
  1

 90
        0
  0
LAYOUT
  5
1E
102
{ACAD_REACTORS
330
1A
102
}
330
1A
100
AcDbPlotSettings
  1

  2
none_device
  4

  6

 40
0.0
 41
0.0
 42
0.0
 43
0.0
 44
0.0
 45
0.0
 46
0.0
 47
0.0
 48
0.0
 49
0.0
140
0.0
141
0.0
142
1.0
143
1.0
 70
   688
 72
     1
 73
     0
 74
     5
  7

 75
    16
147
1.0
148
0.0
149
0.0
100
AcDbLayout
  1
Layout1
 70
     1
 71
     1
 10
0.0
 20
0.0
 11
420.0
 21
297.0
 12
0.0
 22
0.0
 32
0.0
 14
1.0000000000E+20
 24
1.0000000000E+20
 34
1.0000000000E+20
 15
-1.0000000000E+20
 25
-1.0000000000E+20
 35
-1.0000000000E+20
146
0.0
 13
0.0
 23
0.0
 33
0.0
 16
1.0
 26
0.0
 36
0.0
 17
0.0
 27
1.0
 37
0.0
 76
     0
330
1B
  0
LAYOUT
  5
26
102
{ACAD_REACTORS
330
1A
102
}
330
1A
100
AcDbPlotSettings
  1

  2
none_device
  4

  6

 40
0.0
 41
0.0
 42
0.0
 43
0.0
 44
0.0
 45
0.0
 46
0.0
 47
0.0
 48
0.0
 49
0.0
140
0.0
141
0.0
142
1.0
143
1.0
 70
   688
 72
     1
 73
     0
 74
     5
  7

 75
    16
147
1.0
148
0.0
149
0.0
100
AcDbLayout
  1
Layout2
 70
     1
 71
     2
 10
0.0
 20
0.0
 11
0.0
 21
0.0
 12
0.0
 22
0.0
 32
0.0
 14
0.0
 24
0.0
 34
0.0
 15
0.0
 25
0.0
 35
0.0
146
0.0
 13
0.0
 23
0.0
 33
0.0
 16
1.0
 26
0.0
 36
0.0
 17
0.0
 27
1.0
 37
0.0
 76
     0
330
23
  0
LAYOUT
  5
22
102
{ACAD_REACTORS
330
1A
102
}
330
1A
100
AcDbPlotSettings
  1

  2
none_device
  4
Letter_(8.50_x_11.00_Inches)
  6

 40
6.35
 41
6.35
 42
6.35000508
 43
6.35000508
 44
215.9
 45
279.4
 46
0.0
 47
0.0
 48
0.0
 49
0.0
140
0.0
141
0.0
142
1.0
143
1.0
 70
  1712
 72
     1
 73
     0
 74
     0
  7

 75
     0
147
1.0
148
0.0
149
0.0
100
AcDbLayout
  1
Model
 70
     1
 71
     0
 10
0.0
 20
0.0
 11
4200.0
 21
5940.0
 12
0.0
 22
0.0
 32
0.0
 14
0.0
 24
0.0
 34
0.0
 15
4200.0
 25
5940.0
 35
0.0
146
0.0
 13
0.0
 23
0.0
 33
0.0
 16
1.0
 26
0.0
 36
0.0
 17
0.0
 27
1.0
 37
0.0
 76
     0
330
1F
331
29
  0
MLINESTYLE
  5
18
102
{ACAD_REACTORS
330
17
102
}
330
17
100
AcDbMlineStyle
  2
Standard
 70
     0
  3

 62
   256
 51
90.0
 52
90.0
 71
     2
 49
0.5
 62
   256
  6
BYLAYER
 49
-0.5
 62
   256
  6
BYLAYER
  0
ACDBPLACEHOLDER
  5
F
102
{ACAD_REACTORS
330
E
102
}
330
E
  0
SCALE
  5
48
102
{ACAD_REACTORS
330
47
102
}
330
47
100
AcDbScale
 70
     0
300
1:1
140
1.0
141
1.0
290
     1
  0
SCALE
  5
49
102
{ACAD_REACTORS
330
47
102
}
330
47
100
AcDbScale
 70
     0
300
1:2
140
1.0
141
2.0
290
     0
  0
SCALE
  5
4A
102
{ACAD_REACTORS
330
47
102
}
330
47
100
AcDbScale
 70
     0
300
1:4
140
1.0
141
4.0
290
     0
  0
SCALE
  5
4B
102
{ACAD_REACTORS
330
47
102
}
330
47
100
AcDbScale
 70
     0
300
1:5
140
1.0
141
5.0
290
     0
  0
SCALE
  5
4C
102
{ACAD_REACTORS
330
47
102
}
330
47
100
AcDbScale
 70
     0
300
1:8
140
1.0
141
8.0
290
     0
  0
SCALE
  5
4D
102
{ACAD_REACTORS
330
47
102
}
330
47
100
AcDbScale
 70
     0
300
1:10
140
1.0
141
10.0
290
     0
  0
SCALE
  5
4E
102
{ACAD_REACTORS
330
47
102
}
330
47
100
AcDbScale
 70
     0
300
1:16
140
1.0
141
16.0
290
     0
  0
SCALE
  5
4F
102
{ACAD_REACTORS
330
47
102
}
330
47
100
AcDbScale
 70
     0
300
1:20
140
1.0
141
20.0
290
     0
  0
SCALE
  5
50
102
{ACAD_REACTORS
330
47
102
}
330
47
100
AcDbScale
 70
     0
300
1:30
140
1.0
141
30.0
290
     0
  0
SCALE
  5
51
102
{ACAD_REACTORS
330
47
102
}
330
47
100
AcDbScale
 70
     0
300
1:40
140
1.0
141
40.0
290
     0
  0
SCALE
  5
52
102
{ACAD_REACTORS
330
47
102
}
330
47
100
AcDbScale
 70
     0
300
1:50
140
1.0
141
50.0
290
     0
  0
SCALE
  5
53
102
{ACAD_REACTORS
330
47
102
}
330
47
100
AcDbScale
 70
     0
300
1:100
140
1.0
141
100.0
290
     0
  0
SCALE
  5
54
102
{ACAD_REACTORS
330
47
102
}
330
47
100
AcDbScale
 70
     0
300
2:1
140
2.0
141
1.0
290
     0
  0
SCALE
  5
55
102
{ACAD_REACTORS
330
47
102
}
330
47
100
AcDbScale
 70
     0
300
4:1
140
4.0
141
1.0
290
     0
  0
SCALE
  5
56
102
{ACAD_REACTORS
330
47
102
}
330
47
100
AcDbScale
 70
     0
300
8:1
140
8.0
141
1.0
290
     0
  0
SCALE
  5
57
102
{ACAD_REACTORS
330
47
102
}
330
47
100
AcDbScale
 70
     0
300
10:1
140
10.0
141
1.0
290
     0
  0
SCALE
  5
58
102
{ACAD_REACTORS
330
47
102
}
330
47
100
AcDbScale
 70
     0
300
100:1
140
100.0
141
1.0
290
     0
  0
ENDSEC
  0
EOF
