  0
SECTION
  2
HEADER
  9
$ACADVER
  1
AC1015
  9
$ACADMAINTVER
 70
     6
  9
$DWGCODEPAGE
  3
DOS932
  9
$INSBASE
 10
0.0
 20
0.0
 30
0.0
  9
$EXTMIN
 10
0.0
 20
0.0
 30
0.0
  9
$EXTMAX
 10
4200.0
 20
5940.0
 30
0.0
  9
$LIMMIN
 10
0.0
 20
0.0
  9
$LIMMAX
 10
4200.0
 20
5940.0
  9
$ORTHOMODE
 70
     0
  9
$REGENMODE
 70
     1
  9
$FILLMODE
 70
     1
  9
$QTEXTMODE
 70
     0
  9
$MIRRTEXT
 70
     1
  9
$LTSCALE
 40
20.0
  9
$ATTMODE
 70
     1
  9
$TEXTSIZE
 40
70.5555555556
  9
$TRACEWID
 40
1.0
  9
$TEXTSTYLE
  7
Standard
  9
$CLAYER
  8
0
  9
$CELTYPE
  6
ByLayer
  9
$CECOLOR
 62
   256
  9
$CELTSCALE
 40
1.0
  9
$DISPSILH
 70
     0
  9
$DIMSCALE
 40
1.0
  9
$DIMASZ
 40
30.0
  9
$DIMEXO
 40
20.0
  9
$DIMDLI
 40
3.75
  9
$DIMRND
 40
0.0
  9
$DIMDLE
 40
0.0
  9
$DIMEXE
 40
20.0
  9
$DIMTP
 40
0.0
  9
$DIMTM
 40
0.0
  9
$DIMTXT
 40
70.5555555556
  9
$DIMCEN
 40
2.5
  9
$DIMTSZ
 40
0.0
  9
$DIMTOL
 70
     0
  9
$DIMLIM
 70
     0
  9
$DIMTIH
 70
     1
  9
$DIMTOH
 70
     1
  9
$DIMSE1
 70
     0
  9
$DIMSE2
 70
     0
  9
$DIMTAD
 70
     1
  9
$DIMZIN
 70
     0
  9
$DIMBLK
  1

  9
$DIMASO
 70
     1
  9
$DIMSHO
 70
     1
  9
$DIMPOST
  1

  9
$DIMAPOST
  1

  9
$DIMALT
 70
     0
  9
$DIMALTD
 70
     3
  9
$DIMALTF
 40
0.0393700787
  9
$DIMLFAC
 40
1.0
  9
$DIMTOFL
 70
     1
  9
$DIMTVP
 40
0.0
  9
$DIMTIX
 70
     0
  9
$DIMSOXD
 70
     0
  9
$DIMSAH
 70
     0
  9
$DIMBLK1
  1

  9
$DIMBLK2
  1

  9
$DIMSTYLE
  2
ISO-25
  9
$DIMCLRD
 70
     0
  9
$DIMCLRE
 70
     0
  9
$DIMCLRT
 70
     0
  9
$DIMTFAC
 40
1.0
  9
$DIMGAP
 40
30.48
  9
$DIMJUST
 70
     0
  9
$DIMSD1
 70
     0
  9
$DIMSD2
 70
     0
  9
$DIMTOLJ
 70
     0
  9
$DIMTZIN
 70
     0
  9
$DIMALTZ
 70
     0
  9
$DIMALTTZ
 70
     0
  9
$DIMUPT
 70
     0
  9
$DIMDEC
 70
     0
  9
$DIMTDEC
 70
     0
  9
$DIMALTU
 70
     2
  9
$DIMALTTD
 70
     3
  9
$DIMTXSTY
  7
Standard
  9
$DIMAUNIT
 70
     0
  9
$DIMADEC
 70
     2
  9
$DIMALTRND
 40
0.0
  9
$DIMAZIN
 70
     0
  9
$DIMDSEP
 70
    44
  9
$DIMATFIT
 70
     3
  9
$DIMFRAC
 70
     0
  9
$DIMLDRBLK
  1

  9
$DIMLUNIT
 70
     2
  9
$DIMLWD
 70
    -2
  9
$DIMLWE
 70
    -2
  9
$DIMTMOVE
 70
     0
  9
$LUNITS
 70
     2
  9
$LUPREC
 70
     2
  9
$SKETCHINC
 40
1.0
  9
$FILLETRAD
 40
0.0
  9
$AUNITS
 70
     0
  9
$AUPREC
 70
     2
  9
$MENU
  1
.
  9
$ELEVATION
 40
0.0
  9
$PELEVATION
 40
0.0
  9
$THICKNESS
 40
0.0
  9
$LIMCHECK
 70
     0
  9
$CHAMFERA
 40
0.0
  9
$CHAMFERB
 40
0.0
  9
$CHAMFERC
 40
0.0
  9
$CHAMFERD
 40
0.0
  9
$SKPOLY
 70
     0
  9
$TDCREATE
 40
2460153.641394792
  9
$TDUCREATE
 40
2460153.266394792
  9
$TDUPDATE
 40
2460153.641395336
  9
$TDUUPDATE
 40
2460153.266395336
  9
$TDINDWG
 40
0.0000000116
  9
$TDUSRTIMER
 40
0.0000000116
  9
$USRTIMER
 70
     1
  9
$ANGBASE
 50
0.0
  9
$ANGDIR
 70
     0
  9
$PDMODE
 70
     0
  9
$PDSIZE
 40
-1.0
  9
$PLINEWID
 40
0.0
  9
$SPLFRAME
 70
     0
  9
$SPLINETYPE
 70
     6
  9
$SPLINESEGS
 70
     8
  9
$HANDSEED
  5
229
  9
$SURFTAB1
 70
     6
  9
$SURFTAB2
 70
     6
  9
$SURFTYPE
 70
     6
  9
$SURFU
 70
     6
  9
$SURFV
 70
     6
  9
$UCSBASE
  2

  9
$UCSNAME
  2

  9
$UCSORG
 10
0.0
 20
0.0
 30
0.0
  9
$UCSXDIR
 10
1.0
 20
0.0
 30
0.0
  9
$UCSYDIR
 10
0.0
 20
1.0
 30
0.0
  9
$UCSORTHOREF
  2

  9
$UCSORTHOVIEW
 70
     0
  9
$UCSORGTOP
 10
0.0
 20
0.0
 30
0.0
  9
$UCSORGBOTTOM
 10
0.0
 20
0.0
 30
0.0
  9
$UCSORGLEFT
 10
0.0
 20
0.0
 30
0.0
  9
$UCSORGRIGHT
 10
0.0
 20
0.0
 30
0.0
  9
$UCSORGFRONT
 10
0.0
 20
0.0
 30
0.0
  9
$UCSORGBACK
 10
0.0
 20
0.0
 30
0.0
  9
$PUCSBASE
  2

  9
$PUCSNAME
  2

  9
$PUCSORG
 10
0.0
 20
0.0
 30
0.0
  9
$PUCSXDIR
 10
1.0
 20
0.0
 30
0.0
  9
$PUCSYDIR
 10
0.0
 20
1.0
 30
0.0
  9
$PUCSORTHOREF
  2

  9
$PUCSORTHOVIEW
 70
     0
  9
$PUCSORGTOP
 10
0.0
 20
0.0
 30
0.0
  9
$PUCSORGBOTTOM
 10
0.0
 20
0.0
 30
0.0
  9
$PUCSORGLEFT
 10
0.0
 20
0.0
 30
0.0
  9
$PUCSORGRIGHT
 10
0.0
 20
0.0
 30
0.0
  9
$PUCSORGFRONT
 10
0.0
 20
0.0
 30
0.0
  9
$PUCSORGBACK
 10
0.0
 20
0.0
 30
0.0
  9
$USERI1
 70
     0
  9
$USERI2
 70
     0
  9
$USERI3
 70
     0
  9
$USERI4
 70
     0
  9
$USERI5
 70
     0
  9
$USERR1
 40
0.0
  9
$USERR2
 40
0.0
  9
$USERR3
 40
0.0
  9
$USERR4
 40
0.0
  9
$USERR5
 40
0.0
  9
$WORLDVIEW
 70
     1
  9
$SHADEDGE
 70
     3
  9
$SHADEDIF
 70
    70
  9
$TILEMODE
 70
     1
  9
$MAXACTVP
 70
    64
  9
$PINSBASE
 10
0.0
 20
0.0
 30
0.0
  9
$PLIMCHECK
 70
     0
  9
$PEXTMIN
 10
1.0000000000E+20
 20
1.0000000000E+20
 30
1.0000000000E+20
  9
$PEXTMAX
 10
-1.0000000000E+20
 20
-1.0000000000E+20
 30
-1.0000000000E+20
  9
$PLIMMIN
 10
0.0
 20
0.0
  9
$PLIMMAX
 10
420.0
 20
297.0
  9
$UNITMODE
 70
     0
  9
$VISRETAIN
 70
     1
  9
$PLINEGEN
 70
     0
  9
$PSLTSCALE
 70
     1
  9
$TREEDEPTH
 70
  3020
  9
$CMLSTYLE
  2
Standard
  9
$CMLJUST
 70
     0
  9
$CMLSCALE
 40
20.0
  9
$PROXYGRAPHICS
 70
     1
  9
$MEASUREMENT
 70
     1
  9
$CELWEIGHT
370
    -1
  9
$ENDCAPS
280
     0
  9
$JOINSTYLE
280
     0
  9
$LWDISPLAY
290
     1
  9
$INSUNITS
 70
     4
  9
$HYPERLINKBASE
  1

  9
$STYLESHEET
  1

  9
$XEDIT
290
     1
  9
$CEPSNTYPE
380
     0
  9
$PSTYLEMODE
290
     1
  9
$FINGERPRINTGUID
  2
{67b11a4c-d305-4b56-abf4-e11e960cf0d8}
  9
$VERSIONGUID
  2
{FAEB1C32-E019-11D5-929B-00C0DF256EC4}
  9
$EXTNAMES
290
     1
  9
$PSVPSCALE
 40
0.0
  9
$OLESTARTUP
290
     0
  0
ENDSEC
  0
SECTION
  2
CLASSES
  0
CLASS
  1
ACDBDICTIONARYWDFLT
  2
AcDbDictionaryWithDefault
  3
ObjectDBX Classes
 90
        0
280
     0
281
     0
  0
CLASS
  1
VISUALSTYLE
  2
AcDbVisualStyle
  3
ObjectDBX Classes
 90
     4095
280
     0
281
     0
  0
CLASS
  1
MATERIAL
  2
AcDbMaterial
  3
ObjectDBX Classes
 90
     1153
280
     0
281
     0
  0
CLASS
  1
SCALE
  2
AcDbScale
  3
ObjectDBX Classes
 90
     1153
280
     0
281
     0
  0
CLASS
  1
TABLESTYLE
  2
AcDbTableStyle
  3
ObjectDBX Classes
 90
     4095
280
     0
281
     0
  0
CLASS
  1
MLEADERSTYLE
  2
AcDbMLeaderStyle
  3
ACDB_MLEADERSTYLE_CLASS
 90
     4095
280
     0
281
     0
  0
CLASS
  1
SUN
  2
AcDbSun
  3
SCENEOE
 90
     1153
280
     0
281
     0
  0
CLASS
  1
ACDBPLACEHOLDER
  2
AcDbPlaceHolder
  3
ObjectDBX Classes
 90
        0
280
     0
281
     0
  0
CLASS
  1
LAYOUT
  2
AcDbLayout
  3
ObjectDBX Classes
 90
        0
280
     0
281
     0
  0
ENDSEC
  0
SECTION
  2
TABLES
  0
TABLE
  2
VPORT
  5
8
330
0
100
AcDbSymbolTable
 70
     1
  0
VPORT
  5
29
330
8
100
AcDbSymbolTableRecord
100
AcDbViewportTableRecord
  2
*Active
 70
     0
 10
0.0
 20
0.0
 11
1.0
 21
1.0
 12
2100.0
 22
2970.0
 13
0.0
 23
0.0
 14
10.0
 24
10.0
 15
10.0
 25
10.0
 16
0.0
 26
0.0
 36
1.0
 17
0.0
 27
0.0
 37
0.0
 40
5940.0
 41
0.7070707071
 42
50.0
 43
0.0
 44
0.0
 50
0.0
 51
0.0
 71
     0
 72
  2000
 73
     1
 74
     3
 75
     0
 76
     0
 77
     0
 78
     0
281
     0
 65
     1
110
0.0
120
0.0
130
0.0
111
1.0
121
0.0
131
0.0
112
0.0
122
1.0
132
0.0
 79
     0
146
0.0
  0
ENDTAB
  0
TABLE
  2
LTYPE
  5
5
330
0
100
AcDbSymbolTable
 70
     6
  0
LTYPE
  5
14
330
5
100
AcDbSymbolTableRecord
100
AcDbLinetypeTableRecord
  2
ByBlock
 70
     0
  3

 72
    65
 73
     0
 40
0.0
  0
LTYPE
  5
15
330
5
100
AcDbSymbolTableRecord
100
AcDbLinetypeTableRecord
  2
ByLayer
 70
     0
  3

 72
    65
 73
     0
 40
0.0
  0
LTYPE
  5
16
330
5
100
AcDbSymbolTableRecord
100
AcDbLinetypeTableRecord
  2
Continuous
 70
     0
  3
Solid line
 72
    65
 73
     0
 40
0.0
  0
LTYPE
  5
5E
330
5
100
AcDbSymbolTableRecord
100
AcDbLinetypeTableRecord
  2
HIDDEN
 70
     0
  3
Hidden __ __ __ __ __ __ __ __ __ __ __ __ __ __
 72
    65
 73
     2
 40
1.905
 49
1.27
 74
     0
 49
-0.635
 74
     0
  0
LTYPE
  5
5F
330
5
100
AcDbSymbolTableRecord
100
AcDbLinetypeTableRecord
  2
PHANTOM
 70
     0
  3
Phantom ______  __  __  ______  __  __  ______
 72
    65
 73
     6
 40
12.7
 49
6.35
 74
     0
 49
-1.27
 74
     0
 49
1.27
 74
     0
 49
-1.27
 74
     0
 49
1.27
 74
     0
 49
-1.27
 74
     0
  0
LTYPE
  5
60
330
5
100
AcDbSymbolTableRecord
100
AcDbLinetypeTableRecord
  2
CENTER
 70
     0
  3
Center ____ _ ____ _ ____ _ ____ _ ____ _ ____
 72
    65
 73
     4
 40
10.16
 49
6.35
 74
     0
 49
-1.27
 74
     0
 49
1.27
 74
     0
 49
-1.27
 74
     0
  0
LTYPE
  5
61
330
5
100
AcDbSymbolTableRecord
100
AcDbLinetypeTableRecord
  2
CENTERX2
 70
     0
  3
Center (2x) ________  __  ________  __  _____
 72
    65
 73
     4
 40
20.32
 49
12.7
 74
     0
 49
-2.54
 74
     0
 49
2.54
 74
     0
 49
-2.54
 74
     0
  0
LTYPE
  5
62
330
5
100
AcDbSymbolTableRecord
100
AcDbLinetypeTableRecord
  2
DOT2
 70
     0
  3
Dot (.5x) ........................................
 72
    65
 73
     2
 40
0.635
 49
0.0
 74
     0
 49
-0.635
 74
     0
  0
ENDTAB
  0
TABLE
  2
LAYER
  5
2
330
0
100
AcDbSymbolTable
 70
     6
  0
LAYER
  5
10
330
2
100
AcDbSymbolTableRecord
100
AcDbLayerTableRecord
  2
0
 70
     0
 62
     7
  6
Continuous
370
    -3
390
F
  0
LAYER
  5
63
330
2
100
AcDbSymbolTableRecord
100
AcDbLayerTableRecord
  2
1
 70
     0
 62
     4
  6
Continuous
370
    25
390
F
  0
LAYER
  5
64
330
2
100
AcDbSymbolTableRecord
100
AcDbLayerTableRecord
  2
2
 70
     0
 62
     3
  6
CENTERX2
370
    -3
390
F
  0
LAYER
  5
65
330
2
100
AcDbSymbolTableRecord
100
AcDbLayerTableRecord
  2
3
 70
     0
 62
     2
  6
Continuous
370
    -3
390
F
  0
LAYER
  5
66
330
2
100
AcDbSymbolTableRecord
100
AcDbLayerTableRecord
  2
4
 70
     0
 62
     7
  6
Continuous
370
    -3
390
F
  0
LAYER
  5
67
330
2
100
AcDbSymbolTableRecord
100
AcDbLayerTableRecord
  2
基礎穴
 70
     0
 62
     1
  6
PHANTOM
370
    35
390
F
  0
ENDTAB
  0
TABLE
  2
STYLE
  5
3
330
0
100
AcDbSymbolTable
 70
     2
  0
STYLE
  5
11
330
3
100
AcDbSymbolTableRecord
100
AcDbTextStyleTableRecord
  2
Standard
 70
     0
 40
0.0
 41
1.0
 50
0.0
 71
     0
 42
70.5555555556
  3
txt
  4
bigfont
  0
STYLE
  5
68
330
3
100
AcDbSymbolTableRecord
100
AcDbTextStyleTableRecord
  2
SLDTEXTSTYLE0
 70
     0
 40
0.0
 41
0.7
 50
0.0
 71
     0
 42
70.5555555556
  3
TXT
  4
bigfont
  0
ENDTAB
  0
TABLE
  2
VIEW
  5
6
330
0
100
AcDbSymbolTable
 70
     0
  0
ENDTAB
  0
TABLE
  2
UCS
  5
7
330
0
100
AcDbSymbolTable
 70
     0
  0
ENDTAB
  0
TABLE
  2
APPID
  5
9
330
0
100
AcDbSymbolTable
 70
     1
  0
APPID
  5
12
330
9
100
AcDbSymbolTableRecord
100
AcDbRegAppTableRecord
  2
ACAD
 70
     0
  0
ENDTAB
  0
TABLE
  2
DIMSTYLE
  5
A
330
0
100
AcDbSymbolTable
 70
     1
100
AcDbDimStyleTable
  0
DIMSTYLE
105
27
330
A
100
AcDbSymbolTableRecord
100
AcDbDimStyleTableRecord
  2
ISO-25
 70
     0
 41
2.5
 42
0.625
 43
3.75
 44
1.25
 73
     0
 74
     0
 77
     1
 78
     8
140
2.5
141
2.5
143
0.0393700787
147
0.625
171
     3
172
     1
178
     0
271
     2
272
     2
274
     3
278
    44
283
     0
284
     8
340
11
  0
ENDTAB
  0
TABLE
  2
BLOCK_RECORD
  5
1
330
0
100
AcDbSymbolTable
 70
     2
  0
BLOCK_RECORD
  5
1F
330
1
100
AcDbSymbolTableRecord
100
AcDbBlockTableRecord
  2
*Model_Space
340
22
  0
BLOCK_RECORD
  5
1B
330
1
100
AcDbSymbolTableRecord
100
AcDbBlockTableRecord
  2
*Paper_Space
340
1E
  0
BLOCK_RECORD
  5
23
330
1
100
AcDbSymbolTableRecord
100
AcDbBlockTableRecord
  2
*Paper_Space0
340
26
  0
BLOCK_RECORD
  5
DC
330
1
100
AcDbSymbolTableRecord
100
AcDbBlockTableRecord
  2
SW_CENTERMARKSYMBOL_0
340
0
102
{BLKREFS
331
E7
102
}
  0
ENDTAB
  0
ENDSEC
  0
SECTION
  2
BLOCKS
  0
BLOCK
  5
20
330
1F
100
AcDbEntity
  8
0
100
AcDbBlockBegin
  2
*Model_Space
 70
     0
 10
0.0
 20
0.0
 30
0.0
  3
*Model_Space
  1

  0
ENDBLK
  5
21
330
1F
100
AcDbEntity
  8
0
100
AcDbBlockEnd
  0
BLOCK
  5
1C
330
1B
100
AcDbEntity
 67
     1
  8
0
100
AcDbBlockBegin
  2
*Paper_Space
 70
     0
 10
0.0
 20
0.0
 30
0.0
  3
*Paper_Space
  1

  0
ENDBLK
  5
1D
330
1B
100
AcDbEntity
 67
     1
  8
0
100
AcDbBlockEnd
  0
BLOCK
  5
24
330
23
100
AcDbEntity
  8
0
100
AcDbBlockBegin
  2
*Paper_Space0
 70
     0
 10
0.0
 20
0.0
 30
0.0
  3
*Paper_Space0
  1

  0
ENDBLK
  5
25
330
23
100
AcDbEntity
  8
0
100
AcDbBlockEnd
  0
BLOCK
  5
DD
330
DC
100
AcDbEntity
  8
0
100
AcDbBlockBegin
  2
SW_CENTERMARKSYMBOL_0
 70
     0
 10
0.0
 20
0.0
 30
0.0
  3
SW_CENTERMARKSYMBOL_0
  1

  0
LINE
  5
DF
330
DC
100
AcDbEntity
  8
2
 62
     0
100
AcDbLine
 10
0.0
 20
0.0
 30
0.0
 11
0.0
 21
2.5
 31
0.0
  0
LINE
  5
E0
330
DC
100
AcDbEntity
  8
2
 62
     0
100
AcDbLine
 10
0.0
 20
0.0
 30
0.0
 11
-2.5
 21
0.0
 31
0.0
  0
LINE
  5
E1
330
DC
100
AcDbEntity
  8
2
 62
     0
100
AcDbLine
 10
0.0
 20
0.0
 30
0.0
 11
0.0
 21
-2.5
 31
0.0
  0
LINE
  5
E2
330
DC
100
AcDbEntity
  8
2
 62
     0
100
AcDbLine
 10
0.0
 20
0.0
 30
0.0
 11
2.5
 21
0.0
 31
0.0
  0
LINE
  5
E3
330
DC
100
AcDbEntity
  8
2
 62
     0
100
AcDbLine
 10
0.0
 20
5.0
 30
0.0
 11
0.0
 21
492.5
 31
0.0
  0
LINE
  5
E4
330
DC
100
AcDbEntity
  8
2
 62
     0
100
AcDbLine
 10
-5.0
 20
0.0
 30
0.0
 11
-492.5
 21
0.0
 31
0.0
  0
LINE
  5
E5
330
DC
100
AcDbEntity
  8
2
 62
     0
100
AcDbLine
 10
0.0
 20
-5.0
 30
0.0
 11
0.0
 21
-492.5
 31
0.0
  0
LINE
  5
E6
330
DC
100
AcDbEntity
  8
2
 62
     0
100
AcDbLine
 10
5.0
 20
0.0
 30
0.0
 11
492.5
 21
0.0
 31
0.0
  0
ENDBLK
  5
DE
330
DC
100
AcDbEntity
  8
0
100
AcDbBlockEnd
  0
ENDSEC
  0
SECTION
  2
ENTITIES
  0
MTEXT
  5
69
330
1F
100
AcDbEntity
  8
0
  6
Continuous
 62
     7
370
     0
100
AcDbMText
 10
2996.7239222895
 20
1298.0154007396
 30
0.0
 40
52.9166666667
 41
0.0
 71
     1
 72
     1
  1
LL05540YS01K-R2
  7
SLDTEXTSTYLE0
 73
     1
 44
1.0
  0
LINE
  5
6A
330
1F
100
AcDbEntity
  8
1
100
AcDbLine
 10
2068.0504814907
 20
1701.4425314349
 30
0.0
 11
2068.0504814907
 21
1596.4425314349
 31
0.0
  0
LINE
  5
6B
330
1F
100
AcDbEntity
  8
1
100
AcDbLine
 10
2103.0504814907
 20
1596.4425314349
 30
0.0
 11
2103.0504814907
 21
1701.4425314349
 31
0.0
  0
LINE
  5
6C
330
1F
100
AcDbEntity
  8
1
100
AcDbLine
 10
298.0504814907
 20
1701.4425314349
 30
0.0
 11
298.0504814907
 21
1596.4425314349
 31
0.0
  0
LINE
  5
6D
330
1F
100
AcDbEntity
  8
1
100
AcDbLine
 10
333.0504814907
 20
1596.4425314349
 30
0.0
 11
333.0504814907
 21
1701.4425314349
 31
0.0
  0
LINE
  5
6E
330
1F
100
AcDbEntity
  8
1
100
AcDbLine
 10
645.5504814907
 20
1826.4425314349
 30
0.0
 11
645.5504814907
 21
1830.9425314349
 31
0.0
  0
LINE
  5
6F
330
1F
100
AcDbEntity
  8
1
100
AcDbLine
 10
290.5504814907
 20
2185.9425314349
 30
0.0
 11
290.5504814907
 21
1830.9425314349
 31
0.0
  0
LINE
  5
70
330
1F
100
AcDbEntity
  8
1
100
AcDbLine
 10
1535.5504814907
 20
2830.9425314349
 30
0.0
 11
290.5504814907
 21
2185.9425314349
 31
0.0
  0
LINE
  5
71
330
1F
100
AcDbEntity
  8
1
100
AcDbLine
 10
1890.5504814907
 20
2830.9425314349
 30
0.0
 11
1535.5504814907
 21
2830.9425314349
 31
0.0
  0
LINE
  5
72
330
1F
100
AcDbEntity
  8
1
100
AcDbLine
 10
1890.5504814907
 20
1830.9425314349
 30
0.0
 11
1890.5504814907
 21
2830.9425314349
 31
0.0
  0
LINE
  5
73
330
1F
100
AcDbEntity
  8
1
100
AcDbLine
 10
290.5504814907
 20
1830.9425314349
 30
0.0
 11
1890.5504814907
 21
1830.9425314349
 31
0.0
  0
LINE
  5
74
330
1F
100
AcDbEntity
  8
1
100
AcDbLine
 10
250.5504814907
 20
1596.4425314349
 30
0.0
 11
2150.5504814907
 21
1596.4425314349
 31
0.0
  0
LINE
  5
75
330
1F
100
AcDbEntity
  8
1
100
AcDbLine
 10
2150.5504814907
 20
1590.4425314349
 30
0.0
 11
2150.5504814907
 21
1596.4425314349
 31
0.0
  0
LINE
  5
76
330
1F
100
AcDbEntity
  8
1
100
AcDbLine
 10
250.5504814907
 20
1590.4425314349
 30
0.0
 11
2150.5504814907
 21
1590.4425314349
 31
0.0
  0
LINE
  5
77
330
1F
100
AcDbEntity
  8
1
100
AcDbLine
 10
250.5504814907
 20
1590.4425314349
 30
0.0
 11
250.5504814907
 21
1596.4425314349
 31
0.0
  0
LINE
  5
78
330
1F
100
AcDbEntity
  8
1
100
AcDbLine
 10
2150.5504814907
 20
1537.4425314349
 30
0.0
 11
250.5504814907
 21
1537.4425314349
 31
0.0
  0
LINE
  5
79
330
1F
100
AcDbEntity
  8
1
100
AcDbLine
 10
250.5504814907
 20
1531.4425314349
 30
0.0
 11
250.5504814907
 21
1537.4425314349
 31
0.0
  0
LINE
  5
7A
330
1F
100
AcDbEntity
  8
1
100
AcDbLine
 10
2150.5504814907
 20
1531.4425314349
 30
0.0
 11
250.5504814907
 21
1531.4425314349
 31
0.0
  0
LINE
  5
7B
330
1F
100
AcDbEntity
  8
1
100
AcDbLine
 10
2150.5504814907
 20
1531.4425314349
 30
0.0
 11
2150.5504814907
 21
1537.4425314349
 31
0.0
  0
LINE
  5
7C
330
1F
100
AcDbEntity
  8
1
100
AcDbLine
 10
309.5504814907
 20
1537.4425314349
 30
0.0
 11
309.5504814907
 21
1590.4425314349
 31
0.0
  0
LINE
  5
7D
330
1F
100
AcDbEntity
  8
1
100
AcDbLine
 10
2091.5504814906
 20
1537.4425314349
 30
0.0
 11
2091.5504814906
 21
1590.4425314349
 31
0.0
  0
LINE
  5
7E
330
1F
100
AcDbEntity
  8
1
100
AcDbLine
 10
1825.5504814907
 20
1830.9425314349
 30
0.0
 11
1825.5504814907
 21
1826.4425314349
 31
0.0
  0
LINE
  5
7F
330
1F
100
AcDbEntity
  8
1
100
AcDbLine
 10
1890.5504814907
 20
1830.9425314349
 30
0.0
 11
1975.5504814907
 21
1830.9425314349
 31
0.0
  0
LINE
  5
80
330
1F
100
AcDbEntity
  8
1
100
AcDbLine
 10
1975.5504814907
 20
1830.9425314349
 30
0.0
 11
1975.5504814907
 21
1826.4425314349
 31
0.0
  0
LINE
  5
81
330
1F
100
AcDbEntity
  8
1
100
AcDbLine
 10
1825.5504814907
 20
1826.4425314349
 30
0.0
 11
1975.5504814907
 21
1826.4425314349
 31
0.0
  0
LINE
  5
82
330
1F
100
AcDbEntity
  8
1
100
AcDbLine
 10
205.5504814907
 20
1830.9425314349
 30
0.0
 11
205.5504814907
 21
1826.4425314349
 31
0.0
  0
LINE
  5
83
330
1F
100
AcDbEntity
  8
1
100
AcDbLine
 10
205.5504814907
 20
1830.9425314349
 30
0.0
 11
290.5504814907
 21
1830.9425314349
 31
0.0
  0
LINE
  5
84
330
1F
100
AcDbEntity
  8
1
100
AcDbLine
 10
205.5504814907
 20
1826.4425314349
 30
0.0
 11
355.5504814907
 21
1826.4425314349
 31
0.0
  0
LINE
  5
85
330
1F
100
AcDbEntity
  8
1
100
AcDbLine
 10
355.5504814907
 20
1830.9425314349
 30
0.0
 11
355.5504814907
 21
1826.4425314349
 31
0.0
  0
LINE
  5
86
330
1F
100
AcDbEntity
  8
1
100
AcDbLine
 10
355.5504814907
 20
1826.4425314349
 30
0.0
 11
1825.5504814907
 21
1826.4425314349
 31
0.0
  0
LINE
  5
87
330
1F
100
AcDbEntity
  8
1
100
AcDbLine
 10
1975.5504814907
 20
1826.4425314349
 30
0.0
 11
2150.5504814907
 21
1826.4425314349
 31
0.0
  0
LINE
  5
88
330
1F
100
AcDbEntity
  8
1
100
AcDbLine
 10
250.5504814907
 20
1820.4425314349
 30
0.0
 11
2150.5504814907
 21
1820.4425314349
 31
0.0
  0
LINE
  5
89
330
1F
100
AcDbEntity
  8
1
100
AcDbLine
 10
250.5504814907
 20
1826.4425314349
 30
0.0
 11
250.5504814907
 21
1820.4425314349
 31
0.0
  0
LINE
  5
8A
330
1F
100
AcDbEntity
  8
1
100
AcDbLine
 10
2150.5504814907
 20
1826.4425314349
 30
0.0
 11
2150.5504814907
 21
1820.4425314349
 31
0.0
  0
LINE
  5
8B
330
1F
100
AcDbEntity
  8
1
100
AcDbLine
 10
250.5504814907
 20
1707.4425314349
 30
0.0
 11
250.5504814907
 21
1701.4425314349
 31
0.0
  0
LINE
  5
8C
330
1F
100
AcDbEntity
  8
1
100
AcDbLine
 10
250.5504814907
 20
1707.4425314349
 30
0.0
 11
2150.5504814907
 21
1707.4425314349
 31
0.0
  0
LINE
  5
8D
330
1F
100
AcDbEntity
  8
1
100
AcDbLine
 10
2150.5504814907
 20
1707.4425314349
 30
0.0
 11
2150.5504814907
 21
1701.4425314349
 31
0.0
  0
LINE
  5
8E
330
1F
100
AcDbEntity
  8
1
100
AcDbLine
 10
250.5504814907
 20
1701.4425314349
 30
0.0
 11
2150.5504814907
 21
1701.4425314349
 31
0.0
  0
LINE
  5
8F
330
1F
100
AcDbEntity
  8
1
100
AcDbLine
 10
2091.5504814907
 20
1820.4425314349
 30
0.0
 11
2091.5504814907
 21
1707.4425314349
 31
0.0
  0
LINE
  5
90
330
1F
100
AcDbEntity
  8
1
100
AcDbLine
 10
309.5504814907
 20
1820.4425314349
 30
0.0
 11
309.5504814907
 21
1707.4425314349
 31
0.0
  0
LINE
  5
91
330
1F
100
AcDbEntity
  8
1
100
AcDbLine
 10
1597.0504814907
 20
3138.4425314349
 30
0.0
 11
1597.0504814907
 21
3141.4425314349
 31
0.0
  0
LINE
  5
92
330
1F
100
AcDbEntity
  8
1
100
AcDbLine
 10
587.0504814907
 20
3138.4425314349
 30
0.0
 11
1597.0504814907
 21
3138.4425314349
 31
0.0
  0
LINE
  5
93
330
1F
100
AcDbEntity
  8
1
100
AcDbLine
 10
587.0504814907
 20
3138.4425314349
 30
0.0
 11
587.0504814907
 21
3141.4425314349
 31
0.0
  0
LINE
  5
94
330
1F
100
AcDbEntity
  8
1
100
AcDbLine
 10
587.0504814907
 20
3141.4425314349
 30
0.0
 11
1597.0504814907
 21
3141.4425314349
 31
0.0
  0
ARC
  5
95
330
1F
100
AcDbEntity
  8
1
100
AcDbCircle
 10
1644.0504814907
 20
2467.9425314349
 30
0.0
 40
591.1000000000001
100
AcDbArc
 50
0.0
 51
90.0
  0
LINE
  5
96
330
1F
100
AcDbEntity
  8
1
100
AcDbLine
 10
2235.1504814907
 20
2454.4425314349
 30
0.0
 11
2235.1504814907
 21
2467.9425314349
 31
0.0
  0
ARC
  5
97
330
1F
100
AcDbEntity
  8
1
100
AcDbCircle
 10
1523.5504814907
 20
2454.4425314349
 30
0.0
 40
711.6000000000001
100
AcDbArc
 50
301.0468755677
 51
0.0
  0
ARC
  5
98
330
1F
100
AcDbEntity
  8
1
100
AcDbCircle
 10
1523.5504814907
 20
2588.4425314349
 30
0.0
 40
845.6
100
AcDbArc
 50
184.8540481449
 51
193.0218726884
  0
LINE
  5
99
330
1F
100
AcDbEntity
  8
1
100
AcDbLine
 10
1147.7405428248
 20
1830.9425314349
 30
0.0
 11
1156.9507542676
 21
1826.4425314349
 31
0.0
  0
LINE
  5
9A
330
1F
100
AcDbEntity
  8
1
100
AcDbLine
 10
628.1994895797
 20
3138.4425314349
 30
0.0
 11
680.9832418942
 21
2516.8897064815
 31
0.0
  0
LINE
  5
9B
330
1F
100
AcDbEntity
  8
1
100
AcDbLine
 10
1644.0504814907
 20
3059.0425314349
 30
0.0
 11
1556.1504814907
 21
3059.0425314349
 31
0.0
  0
LINE
  5
9C
330
1F
100
AcDbEntity
  8
1
100
AcDbLine
 10
1556.1504814907
 20
3059.0425314349
 30
0.0
 11
1556.1504814907
 21
3138.4425314349
 31
0.0
  0
CIRCLE
  5
9D
330
1F
100
AcDbEntity
  8
0
  6
HIDDEN
 62
     7
370
    18
100
AcDbCircle
 10
470.5504814907
 20
2003.4425314349
 30
0.0
 40
18.99999999999989
  0
ARC
  5
9E
330
1F
100
AcDbEntity
  8
0
  6
HIDDEN
 62
     7
370
    18
100
AcDbCircle
 10
470.5504814907
 20
2003.4425314349
 30
0.0
 40
142.5000000000003
100
AcDbArc
 50
298.3576365763
 51
241.6423634237
  0
LINE
  5
9F
330
1F
100
AcDbEntity
  8
0
  6
HIDDEN
 62
     7
370
    18
100
AcDbLine
 10
538.2342313868
 20
1878.0425314349
 30
0.0
 11
402.8667315945
 21
1878.0425314349
 31
0.0
  0
LINE
  5
A0
330
1F
100
AcDbEntity
  8
0
  6
HIDDEN
 62
     7
370
    18
100
AcDbLine
 10
645.5504814907
 20
1830.9425314349
 30
0.0
 11
645.5504814907
 21
1871.4425314349
 31
0.0
  0
LINE
  5
A1
330
1F
100
AcDbEntity
  8
0
  6
HIDDEN
 62
     7
370
    18
100
AcDbLine
 10
645.5504814907
 20
1871.4425314349
 30
0.0
 11
295.5504814907
 21
1871.4425314349
 31
0.0
  0
LINE
  5
A2
330
1F
100
AcDbEntity
  8
0
  6
HIDDEN
 62
     7
370
    18
100
AcDbLine
 10
295.5504814907
 20
1826.4425314349
 30
0.0
 11
295.5504814907
 21
1871.4425314349
 31
0.0
  0
LINE
  5
A3
330
1F
100
AcDbEntity
  8
0
  6
HIDDEN
 62
     7
370
    18
100
AcDbLine
 10
391.8560725406
 20
1884.6425314349
 30
0.0
 11
383.0504814907
 21
1884.6425314349
 31
0.0
  0
LINE
  5
A4
330
1F
100
AcDbEntity
  8
0
  6
HIDDEN
 62
     7
370
    18
100
AcDbLine
 10
558.0504814907
 20
1884.6425314349
 30
0.0
 11
549.2448904407
 21
1884.6425314349
 31
0.0
  0
LINE
  5
A5
330
1F
100
AcDbEntity
  8
0
  6
HIDDEN
 62
     7
370
    18
100
AcDbLine
 10
558.0504814907
 20
1871.4425314349
 30
0.0
 11
558.0504814907
 21
1884.6425314349
 31
0.0
  0
LINE
  5
A6
330
1F
100
AcDbEntity
  8
0
  6
HIDDEN
 62
     7
370
    18
100
AcDbLine
 10
383.0504814907
 20
1884.6425314349
 30
0.0
 11
383.0504814907
 21
1871.4425314349
 31
0.0
  0
CIRCLE
  5
A7
330
1F
100
AcDbEntity
  8
0
  6
HIDDEN
 62
     7
370
    18
100
AcDbCircle
 10
470.5504814907
 20
2003.4425314349
 30
0.0
 40
75.00000000000023
  0
CIRCLE
  5
A8
330
1F
100
AcDbEntity
  8
0
  6
HIDDEN
 62
     7
370
    18
100
AcDbCircle
 10
1590.5504814907
 20
2521.4425314349
 30
0.0
 40
112.5000000000005
  0
LINE
  5
A9
330
1F
100
AcDbEntity
  8
0
  6
HIDDEN
 62
     7
370
    18
100
AcDbLine
 10
315.5504814907
 20
1531.4425314349
 30
0.0
 11
315.5504814907
 21
1596.4425314349
 31
0.0
  0
LINE
  5
AA
330
1F
100
AcDbEntity
  8
0
  6
HIDDEN
 62
     7
370
    18
100
AcDbLine
 10
2085.5504814907
 20
1531.4425314349
 30
0.0
 11
2085.5504814906
 21
1596.4425314349
 31
0.0
  0
LINE
  5
AB
330
1F
100
AcDbEntity
  8
0
  6
HIDDEN
 62
     7
370
    18
100
AcDbLine
 10
2085.5504814907
 20
1826.4425314349
 30
0.0
 11
2085.5504814907
 21
1701.4425314349
 31
0.0
  0
LINE
  5
AC
330
1F
100
AcDbEntity
  8
0
  6
HIDDEN
 62
     7
370
    18
100
AcDbLine
 10
315.5504814907
 20
1826.4425314349
 30
0.0
 11
315.5504814907
 21
1701.4425314349
 31
0.0
  0
ARC
  5
AD
330
1F
100
AcDbEntity
  8
0
  6
HIDDEN
 62
     7
370
    18
100
AcDbCircle
 10
1523.5504814907
 20
2454.4425314349
 30
0.0
 40
711.6000000000001
100
AcDbArc
 50
270.0
 51
301.0468755677
  0
ARC
  5
AE
330
1F
100
AcDbEntity
  8
0
  6
HIDDEN
 62
     7
370
    18
100
AcDbCircle
 10
1523.5504814907
 20
2588.4425314349
 30
0.0
 40
845.6
100
AcDbArc
 50
193.0218726884
 51
243.613129146
  0
ARC
  5
AF
330
1F
100
AcDbEntity
  8
0
  6
HIDDEN
 62
     7
370
    18
100
AcDbCircle
 10
1523.5504814907
 20
2588.4425314349
 30
0.0
 40
845.6000000000001
100
AcDbArc
 50
244.307699441
 51
270.0
  0
LINE
  5
B0
330
1F
100
AcDbEntity
  8
0
  6
HIDDEN
 62
     7
370
    18
100
AcDbLine
 10
1554.5504814907
 20
3057.4425314349
 30
0.0
 11
1554.5504814907
 21
3141.4425314349
 31
0.0
  0
ARC
  5
B1
330
1F
100
AcDbEntity
  8
0
  6
HIDDEN
 62
     7
370
    18
100
AcDbCircle
 10
1523.5504814907
 20
2588.4425314349
 30
0.0
 40
844.0000000000001
100
AcDbArc
 50
184.8540481449
 51
270.0
  0
ARC
  5
B2
330
1F
100
AcDbEntity
  8
0
  6
HIDDEN
 62
     7
370
    18
100
AcDbCircle
 10
1523.5504814907
 20
2454.4425314349
 30
0.0
 40
710.0
100
AcDbArc
 50
270.0
 51
0.0
  0
ARC
  5
B3
330
1F
100
AcDbEntity
  8
0
  6
HIDDEN
 62
     7
370
    18
100
AcDbCircle
 10
1644.0504814907
 20
2467.9425314349
 30
0.0
 40
589.5
100
AcDbArc
 50
0.0
 51
90.0
  0
LINE
  5
B4
330
1F
100
AcDbEntity
  8
0
  6
HIDDEN
 62
     7
370
    18
100
AcDbLine
 10
629.5504814907
 20
3141.4425314349
 30
0.0
 11
682.5775034639
 21
2517.0250949866
 31
0.0
  0
LINE
  5
B5
330
1F
100
AcDbEntity
  8
0
  6
HIDDEN
 62
     7
370
    18
100
AcDbLine
 10
1644.0504814907
 20
3057.4425314349
 30
0.0
 11
1554.5504814907
 21
3057.4425314349
 31
0.0
  0
LINE
  5
B6
330
1F
100
AcDbEntity
  8
0
  6
HIDDEN
 62
     7
370
    18
100
AcDbLine
 10
2233.5504814907
 20
2454.4425314349
 30
0.0
 11
2233.5504814907
 21
2467.9425314349
 31
0.0
  0
CIRCLE
  5
B7
330
1F
100
AcDbEntity
  8
0
  6
HIDDEN
 62
     7
370
    18
100
AcDbCircle
 10
1590.5504814907
 20
2521.4425314349
 30
0.0
 40
450.0000000000005
  0
CIRCLE
  5
B8
330
1F
100
AcDbEntity
  8
0
  6
HIDDEN
 62
     7
370
    18
100
AcDbCircle
 10
1590.5504814907
 20
2521.4425314349
 30
0.0
 40
489.9999999999995
  0
CIRCLE
  5
B9
330
1F
100
AcDbEntity
  8
0
  6
HIDDEN
 62
     7
370
    18
100
AcDbCircle
 10
1590.5504814907
 20
2521.4425314349
 30
0.0
 40
452.3000000000006
  0
CIRCLE
  5
BA
330
1F
100
AcDbEntity
  8
0
  6
HIDDEN
 62
     7
370
    18
100
AcDbCircle
 10
1197.6810896777
 20
2783.9494665366
 30
0.0
 40
5.0
  0
CIRCLE
  5
BB
330
1F
100
AcDbEntity
  8
0
  6
HIDDEN
 62
     7
370
    18
100
AcDbCircle
 10
1328.0435463889
 20
2914.3119232478
 30
0.0
 40
5.0
  0
CIRCLE
  5
BC
330
1F
100
AcDbEntity
  8
0
  6
HIDDEN
 62
     7
370
    18
100
AcDbCircle
 10
1498.370304338
 20
2984.8635764254
 30
0.0
 40
5.0
  0
CIRCLE
  5
BD
330
1F
100
AcDbEntity
  8
0
  6
HIDDEN
 62
     7
370
    18
100
AcDbCircle
 10
1682.7306586433
 20
2984.8635764254
 30
0.0
 40
5.0
  0
CIRCLE
  5
BE
330
1F
100
AcDbEntity
  8
0
  6
HIDDEN
 62
     7
370
    18
100
AcDbCircle
 10
1853.0574165924
 20
2914.3119232478
 30
0.0
 40
5.0
  0
CIRCLE
  5
BF
330
1F
100
AcDbEntity
  8
0
  6
HIDDEN
 62
     7
370
    18
100
AcDbCircle
 10
1983.4198733036
 20
2783.9494665366
 30
0.0
 40
5.0
  0
CIRCLE
  5
C0
330
1F
100
AcDbEntity
  8
0
  6
HIDDEN
 62
     7
370
    18
100
AcDbCircle
 10
2053.9715264812
 20
2613.6227085875
 30
0.0
 40
5.0
  0
CIRCLE
  5
C1
330
1F
100
AcDbEntity
  8
0
  6
HIDDEN
 62
     7
370
    18
100
AcDbCircle
 10
2053.9715264812
 20
2429.2623542822
 30
0.0
 40
5.0
  0
CIRCLE
  5
C2
330
1F
100
AcDbEntity
  8
0
  6
HIDDEN
 62
     7
370
    18
100
AcDbCircle
 10
1983.4198733036
 20
2258.9355963331
 30
0.0
 40
5.0
  0
CIRCLE
  5
C3
330
1F
100
AcDbEntity
  8
0
  6
HIDDEN
 62
     7
370
    18
100
AcDbCircle
 10
1853.0574165924
 20
2128.5731396219
 30
0.0
 40
5.0
  0
CIRCLE
  5
C4
330
1F
100
AcDbEntity
  8
0
  6
HIDDEN
 62
     7
370
    18
100
AcDbCircle
 10
1682.7306586433
 20
2058.0214864443
 30
0.0
 40
5.0
  0
CIRCLE
  5
C5
330
1F
100
AcDbEntity
  8
0
  6
HIDDEN
 62
     7
370
    18
100
AcDbCircle
 10
1328.0435463889
 20
2128.5731396219
 30
0.0
 40
5.0
  0
CIRCLE
  5
C6
330
1F
100
AcDbEntity
  8
0
  6
HIDDEN
 62
     7
370
    18
100
AcDbCircle
 10
1197.6810896777
 20
2258.9355963331
 30
0.0
 40
5.0
  0
CIRCLE
  5
C7
330
1F
100
AcDbEntity
  8
0
  6
HIDDEN
 62
     7
370
    18
100
AcDbCircle
 10
1127.1294365001
 20
2429.2623542822
 30
0.0
 40
5.0
  0
CIRCLE
  5
C8
330
1F
100
AcDbEntity
  8
0
  6
HIDDEN
 62
     7
370
    18
100
AcDbCircle
 10
1127.1294365001
 20
2613.6227085875
 30
0.0
 40
5.0
  0
CIRCLE
  5
C9
330
1F
100
AcDbEntity
  8
0
  6
HIDDEN
 62
     7
370
    18
100
AcDbCircle
 10
1498.370304338
 20
2058.0214864443
 30
0.0
 40
5.0
  0
LINE
  5
CA
330
1F
100
AcDbEntity
  8
0
  6
HIDDEN
 62
     7
370
    18
100
AcDbLine
 10
349.5504814907
 20
1531.4425314349
 30
0.0
 11
349.5504814907
 21
1537.4425314349
 31
0.0
  0
LINE
  5
CB
330
1F
100
AcDbEntity
  8
0
  6
HIDDEN
 62
     7
370
    18
100
AcDbLine
 10
331.5504814907
 20
1537.4425314349
 30
0.0
 11
331.5504814907
 21
1531.4425314349
 31
0.0
  0
LINE
  5
CC
330
1F
100
AcDbEntity
  8
0
  6
HIDDEN
 62
     7
370
    18
100
AcDbLine
 10
1209.5504814907
 20
1531.4425314349
 30
0.0
 11
1209.5504814907
 21
1537.4425314349
 31
0.0
  0
LINE
  5
CD
330
1F
100
AcDbEntity
  8
0
  6
HIDDEN
 62
     7
370
    18
100
AcDbLine
 10
1191.5504814907
 20
1537.4425314349
 30
0.0
 11
1191.5504814907
 21
1531.4425314349
 31
0.0
  0
LINE
  5
CE
330
1F
100
AcDbEntity
  8
0
  6
HIDDEN
 62
     7
370
    18
100
AcDbLine
 10
2069.5504814907
 20
1531.4425314349
 30
0.0
 11
2069.5504814907
 21
1537.4425314349
 31
0.0
  0
LINE
  5
CF
330
1F
100
AcDbEntity
  8
0
  6
HIDDEN
 62
     7
370
    18
100
AcDbLine
 10
2051.5504814907
 20
1537.4425314349
 30
0.0
 11
2051.5504814907
 21
1531.4425314349
 31
0.0
  0
LINE
  5
D0
330
1F
100
AcDbEntity
  8
0
  6
HIDDEN
 62
     7
370
    18
100
AcDbLine
 10
1574.0504814907
 20
3141.4425314349
 30
0.0
 11
1574.0504814907
 21
3138.4425314349
 31
0.0
  0
LINE
  5
D1
330
1F
100
AcDbEntity
  8
0
  6
HIDDEN
 62
     7
370
    18
100
AcDbLine
 10
1584.0504814907
 20
3138.4425314349
 30
0.0
 11
1584.0504814907
 21
3141.4425314349
 31
0.0
  0
LINE
  5
D2
330
1F
100
AcDbEntity
  8
0
  6
HIDDEN
 62
     7
370
    18
100
AcDbLine
 10
1387.0504814907
 20
3141.4425314349
 30
0.0
 11
1387.0504814907
 21
3138.4425314349
 31
0.0
  0
LINE
  5
D3
330
1F
100
AcDbEntity
  8
0
  6
HIDDEN
 62
     7
370
    18
100
AcDbLine
 10
1397.0504814907
 20
3138.4425314349
 30
0.0
 11
1397.0504814907
 21
3141.4425314349
 31
0.0
  0
LINE
  5
D4
330
1F
100
AcDbEntity
  8
0
  6
HIDDEN
 62
     7
370
    18
100
AcDbLine
 10
600.0504814907
 20
3141.4425314349
 30
0.0
 11
600.0504814907
 21
3138.4425314349
 31
0.0
  0
LINE
  5
D5
330
1F
100
AcDbEntity
  8
0
  6
HIDDEN
 62
     7
370
    18
100
AcDbLine
 10
610.0504814907
 20
3138.4425314349
 30
0.0
 11
610.0504814907
 21
3141.4425314349
 31
0.0
  0
LINE
  5
D6
330
1F
100
AcDbEntity
  8
0
  6
HIDDEN
 62
     7
370
    18
100
AcDbLine
 10
1187.0504814907
 20
3141.4425314349
 30
0.0
 11
1187.0504814907
 21
3138.4425314349
 31
0.0
  0
LINE
  5
D7
330
1F
100
AcDbEntity
  8
0
  6
HIDDEN
 62
     7
370
    18
100
AcDbLine
 10
1197.0504814907
 20
3138.4425314349
 30
0.0
 11
1197.0504814907
 21
3141.4425314349
 31
0.0
  0
LINE
  5
D8
330
1F
100
AcDbEntity
  8
0
  6
HIDDEN
 62
     7
370
    18
100
AcDbLine
 10
787.0504814907
 20
3141.4425314349
 30
0.0
 11
787.0504814907
 21
3138.4425314349
 31
0.0
  0
LINE
  5
D9
330
1F
100
AcDbEntity
  8
0
  6
HIDDEN
 62
     7
370
    18
100
AcDbLine
 10
797.0504814907
 20
3138.4425314349
 30
0.0
 11
797.0504814907
 21
3141.4425314349
 31
0.0
  0
LINE
  5
DA
330
1F
100
AcDbEntity
  8
0
  6
HIDDEN
 62
     7
370
    18
100
AcDbLine
 10
987.0504814907
 20
3141.4425314349
 30
0.0
 11
987.0504814907
 21
3138.4425314349
 31
0.0
  0
LINE
  5
DB
330
1F
100
AcDbEntity
  8
0
  6
HIDDEN
 62
     7
370
    18
100
AcDbLine
 10
997.0504814907
 20
3138.4425314349
 30
0.0
 11
997.0504814907
 21
3141.4425314349
 31
0.0
  0
INSERT
  5
E7
330
1F
100
AcDbEntity
  8
2
100
AcDbBlockReference
  2
SW_CENTERMARKSYMBOL_0
 10
1590.5504814907
 20
2521.4425314349
 30
0.0
  0
LINE
  5
E8
330
1F
100
AcDbEntity
  8
1
100
AcDbLine
 10
3076.3910119872
 20
2145.9425314349
 30
0.0
 11
2871.1910119872
 21
2145.9425314349
 31
0.0
  0
LINE
  5
E9
330
1F
100
AcDbEntity
  8
1
100
AcDbLine
 10
2833.6910119872
 20
1984.4425314349
 30
0.0
 11
2871.1910119872
 21
1984.4425314349
 31
0.0
  0
LINE
  5
EA
330
1F
100
AcDbEntity
  8
1
100
AcDbLine
 10
2871.1910119872
 20
2022.4425314349
 30
0.0
 11
2833.6910119872
 21
2022.4425314349
 31
0.0
  0
LINE
  5
EB
330
1F
100
AcDbEntity
  8
1
100
AcDbLine
 10
3766.6910119872
 20
1701.4425314349
 30
0.0
 11
3766.6910119872
 21
1596.4425314349
 31
0.0
  0
LINE
  5
EC
330
1F
100
AcDbEntity
  8
1
100
AcDbLine
 10
3801.6910119872
 20
1596.4425314349
 30
0.0
 11
3801.6910119872
 21
1701.4425314349
 31
0.0
  0
LINE
  5
ED
330
1F
100
AcDbEntity
  8
1
100
AcDbLine
 10
2881.6910119872
 20
1701.4425314349
 30
0.0
 11
2881.6910119872
 21
1596.4425314349
 31
0.0
  0
LINE
  5
EE
330
1F
100
AcDbEntity
  8
1
100
AcDbLine
 10
2916.6910119872
 20
1596.4425314349
 30
0.0
 11
2916.6910119872
 21
1701.4425314349
 31
0.0
  0
LINE
  5
EF
330
1F
100
AcDbEntity
  8
1
100
AcDbLine
 10
3831.6910119872
 20
3011.4425314349
 30
0.0
 11
3829.3910119872
 21
3011.4425314349
 31
0.0
  0
LINE
  5
F0
330
1F
100
AcDbEntity
  8
1
100
AcDbLine
 10
3829.3910119872
 20
2031.4425314349
 30
0.0
 11
3831.6910119872
 21
2031.4425314349
 31
0.0
  0
LINE
  5
F1
330
1F
100
AcDbEntity
  8
1
100
AcDbLine
 10
3750.9910119872
 20
2031.4425314349
 30
0.0
 11
3751.6910119872
 21
2031.4425314349
 31
0.0
  0
LINE
  5
F2
330
1F
100
AcDbEntity
  8
1
100
AcDbLine
 10
3751.6910119872
 20
3011.4425314349
 30
0.0
 11
3750.9910119872
 21
3011.4425314349
 31
0.0
  0
LINE
  5
F3
330
1F
100
AcDbEntity
  8
1
100
AcDbLine
 10
3829.3910119872
 20
2973.7425314349
 30
0.0
 11
3751.6910119872
 21
2973.7425314349
 31
0.0
  0
LINE
  5
F4
330
1F
100
AcDbEntity
  8
1
100
AcDbLine
 10
3751.6910119872
 20
2069.1425314349
 30
0.0
 11
3829.3910119872
 21
2069.1425314349
 31
0.0
  0
LINE
  5
F5
330
1F
100
AcDbEntity
  8
1
100
AcDbLine
 10
2890.1910119872
 20
1830.9425314349
 30
0.0
 11
2890.1910119872
 21
1871.4425314349
 31
0.0
  0
LINE
  5
F6
330
1F
100
AcDbEntity
  8
1
100
AcDbLine
 10
3076.3910119872
 20
1871.4425314349
 30
0.0
 11
2890.1910119872
 21
1871.4425314349
 31
0.0
  0
LINE
  5
F7
330
1F
100
AcDbEntity
  8
1
100
AcDbLine
 10
2900.1910119872
 20
1878.0425314349
 30
0.0
 11
2871.1910119872
 21
1878.0425314349
 31
0.0
  0
LINE
  5
F8
330
1F
100
AcDbEntity
  8
1
100
AcDbLine
 10
2871.1910119872
 20
2145.9425314349
 30
0.0
 11
2871.1910119872
 21
1878.0425314349
 31
0.0
  0
LINE
  5
F9
330
1F
100
AcDbEntity
  8
1
100
AcDbLine
 10
2900.1910119872
 20
1871.4425314349
 30
0.0
 11
2900.1910119872
 21
1884.6425314349
 31
0.0
  0
LINE
  5
FA
330
1F
100
AcDbEntity
  8
1
100
AcDbLine
 10
2900.1910119872
 20
1884.6425314349
 30
0.0
 11
3076.3910119872
 21
1884.6425314349
 31
0.0
  0
LINE
  5
FB
330
1F
100
AcDbEntity
  8
1
100
AcDbLine
 10
2673.6910119872
 20
1830.9425314349
 30
0.0
 11
2778.6910119872
 21
1830.9425314349
 31
0.0
  0
LINE
  5
FC
330
1F
100
AcDbEntity
  8
1
100
AcDbLine
 10
2673.6910119872
 20
1830.9425314349
 30
0.0
 11
2673.6910119872
 21
2830.9425314349
 31
0.0
  0
LINE
  5
FD
330
1F
100
AcDbEntity
  8
1
100
AcDbLine
 10
2673.6910119872
 20
2830.9425314349
 30
0.0
 11
2833.6910119872
 21
2830.9425314349
 31
0.0
  0
LINE
  5
FE
330
1F
100
AcDbEntity
  8
1
100
AcDbLine
 10
2833.6910119872
 20
1830.9425314349
 30
0.0
 11
2833.6910119872
 21
2830.9425314349
 31
0.0
  0
LINE
  5
FF
330
1F
100
AcDbEntity
  8
1
100
AcDbLine
 10
2866.6910119872
 20
1531.4425314349
 30
0.0
 11
2866.6910119872
 21
1537.4425314349
 31
0.0
  0
LINE
  5
100
330
1F
100
AcDbEntity
  8
1
100
AcDbLine
 10
3816.6910119872
 20
1537.4425314349
 30
0.0
 11
2866.6910119872
 21
1537.4425314349
 31
0.0
  0
LINE
  5
101
330
1F
100
AcDbEntity
  8
1
100
AcDbLine
 10
3816.6910119872
 20
1531.4425314349
 30
0.0
 11
3816.6910119872
 21
1537.4425314349
 31
0.0
  0
LINE
  5
102
330
1F
100
AcDbEntity
  8
1
100
AcDbLine
 10
3816.6910119872
 20
1531.4425314349
 30
0.0
 11
2866.6910119872
 21
1531.4425314349
 31
0.0
  0
LINE
  5
103
330
1F
100
AcDbEntity
  8
1
100
AcDbLine
 10
2866.6910119872
 20
1596.4425314349
 30
0.0
 11
3816.6910119872
 21
1596.4425314349
 31
0.0
  0
LINE
  5
104
330
1F
100
AcDbEntity
  8
1
100
AcDbLine
 10
3816.6910119872
 20
1590.4425314349
 30
0.0
 11
3816.6910119872
 21
1596.4425314349
 31
0.0
  0
LINE
  5
105
330
1F
100
AcDbEntity
  8
1
100
AcDbLine
 10
2866.6910119872
 20
1590.4425314349
 30
0.0
 11
3816.6910119872
 21
1590.4425314349
 31
0.0
  0
LINE
  5
106
330
1F
100
AcDbEntity
  8
1
100
AcDbLine
 10
2866.6910119872
 20
1590.4425314349
 30
0.0
 11
2866.6910119872
 21
1596.4425314349
 31
0.0
  0
LINE
  5
107
330
1F
100
AcDbEntity
  8
1
100
AcDbLine
 10
2925.6910119872
 20
1537.4425314349
 30
0.0
 11
2925.6910119872
 21
1590.4425314349
 31
0.0
  0
LINE
  5
108
330
1F
100
AcDbEntity
  8
1
100
AcDbLine
 10
3757.6910119872
 20
1537.4425314349
 30
0.0
 11
3757.6910119872
 21
1590.4425314349
 31
0.0
  0
LINE
  5
109
330
1F
100
AcDbEntity
  8
1
100
AcDbLine
 10
3816.6910119872
 20
1707.4425314349
 30
0.0
 11
3816.6910119872
 21
1701.4425314349
 31
0.0
  0
LINE
  5
10A
330
1F
100
AcDbEntity
  8
1
100
AcDbLine
 10
2866.6910119872
 20
1701.4425314349
 30
0.0
 11
3816.6910119872
 21
1701.4425314349
 31
0.0
  0
LINE
  5
10B
330
1F
100
AcDbEntity
  8
1
100
AcDbLine
 10
2866.6910119872
 20
1707.4425314349
 30
0.0
 11
2866.6910119872
 21
1701.4425314349
 31
0.0
  0
LINE
  5
10C
330
1F
100
AcDbEntity
  8
1
100
AcDbLine
 10
2866.6910119872
 20
1707.4425314349
 30
0.0
 11
3816.6910119872
 21
1707.4425314349
 31
0.0
  0
LINE
  5
10D
330
1F
100
AcDbEntity
  8
1
100
AcDbLine
 10
3816.6910119872
 20
1826.4425314349
 30
0.0
 11
3816.6910119872
 21
1820.4425314349
 31
0.0
  0
LINE
  5
10E
330
1F
100
AcDbEntity
  8
1
100
AcDbLine
 10
2866.6910119872
 20
1820.4425314349
 30
0.0
 11
3816.6910119872
 21
1820.4425314349
 31
0.0
  0
LINE
  5
10F
330
1F
100
AcDbEntity
  8
1
100
AcDbLine
 10
2866.6910119872
 20
1826.4425314349
 30
0.0
 11
2866.6910119872
 21
1820.4425314349
 31
0.0
  0
LINE
  5
110
330
1F
100
AcDbEntity
  8
1
100
AcDbLine
 10
2866.6910119872
 20
1826.4425314349
 30
0.0
 11
3816.6910119872
 21
1826.4425314349
 31
0.0
  0
LINE
  5
111
330
1F
100
AcDbEntity
  8
1
100
AcDbLine
 10
3757.6910119872
 20
1820.4425314349
 30
0.0
 11
3757.6910119872
 21
1707.4425314349
 31
0.0
  0
LINE
  5
112
330
1F
100
AcDbEntity
  8
1
100
AcDbLine
 10
2925.6910119872
 20
1820.4425314349
 30
0.0
 11
2925.6910119872
 21
1707.4425314349
 31
0.0
  0
LINE
  5
113
330
1F
100
AcDbEntity
  8
1
100
AcDbLine
 10
2778.6910119872
 20
1830.9425314349
 30
0.0
 11
2778.6910119872
 21
1826.4425314349
 31
0.0
  0
LINE
  5
114
330
1F
100
AcDbEntity
  8
1
100
AcDbLine
 10
2908.6910119872
 20
1830.9425314349
 30
0.0
 11
2908.6910119872
 21
1826.4425314349
 31
0.0
  0
LINE
  5
115
330
1F
100
AcDbEntity
  8
1
100
AcDbLine
 10
2778.6910119872
 20
1826.4425314349
 30
0.0
 11
2866.6910119872
 21
1826.4425314349
 31
0.0
  0
LINE
  5
116
330
1F
100
AcDbEntity
  8
1
100
AcDbLine
 10
2778.6910119872
 20
1830.9425314349
 30
0.0
 11
2908.6910119872
 21
1830.9425314349
 31
0.0
  0
LINE
  5
117
330
1F
100
AcDbEntity
  8
1
100
AcDbLine
 10
3076.3910119872
 20
2454.4425314349
 30
0.0
 11
3076.3910119872
 21
2467.9425314349
 31
0.0
  0
LINE
  5
118
330
1F
100
AcDbEntity
  8
1
100
AcDbLine
 10
3750.9910119872
 20
2454.4425314349
 30
0.0
 11
3750.9910119872
 21
2467.9425314349
 31
0.0
  0
LINE
  5
119
330
1F
100
AcDbEntity
  8
1
100
AcDbLine
 10
3076.3910119872
 20
2467.9425314349
 30
0.0
 11
3076.3910119872
 21
3059.0425314349
 31
0.0
  0
LINE
  5
11A
330
1F
100
AcDbEntity
  8
1
100
AcDbLine
 10
3076.3910119872
 20
3059.0425314349
 30
0.0
 11
3750.9910119872
 21
3059.0425314349
 31
0.0
  0
LINE
  5
11B
330
1F
100
AcDbEntity
  8
1
100
AcDbLine
 10
3750.9910119872
 20
2467.9425314349
 30
0.0
 11
3750.9910119872
 21
3059.0425314349
 31
0.0
  0
LINE
  5
11C
330
1F
100
AcDbEntity
  8
1
100
AcDbLine
 10
3076.3910119872
 20
1826.4425314349
 30
0.0
 11
3076.3910119872
 21
2454.4425314349
 31
0.0
  0
LINE
  5
11D
330
1F
100
AcDbEntity
  8
1
100
AcDbLine
 10
3750.9910119872
 20
1826.4425314349
 30
0.0
 11
3750.9910119872
 21
2454.4425314349
 31
0.0
  0
LINE
  5
11E
330
1F
100
AcDbEntity
  8
1
100
AcDbLine
 10
3829.3910119872
 20
3011.4425314349
 30
0.0
 11
3829.3910119872
 21
2031.4425314349
 31
0.0
  0
LINE
  5
11F
330
1F
100
AcDbEntity
  8
1
100
AcDbLine
 10
3831.6910119872
 20
3011.4425314349
 30
0.0
 11
3831.6910119872
 21
2031.4425314349
 31
0.0
  0
LINE
  5
120
330
1F
100
AcDbEntity
  8
1
100
AcDbLine
 10
3751.6910119872
 20
2031.4425314349
 30
0.0
 11
3751.6910119872
 21
3011.4425314349
 31
0.0
  0
LINE
  5
121
330
1F
100
AcDbEntity
  8
1
100
AcDbLine
 10
3036.6910119872
 20
3138.4425314349
 30
0.0
 11
3790.6910119872
 21
3138.4425314349
 31
0.0
  0
LINE
  5
122
330
1F
100
AcDbEntity
  8
1
100
AcDbLine
 10
3036.6910119872
 20
3138.4425314349
 30
0.0
 11
3036.6910119872
 21
3141.4425314349
 31
0.0
  0
LINE
  5
123
330
1F
100
AcDbEntity
  8
1
100
AcDbLine
 10
3036.6910119872
 20
3141.4425314349
 30
0.0
 11
3790.6910119872
 21
3141.4425314349
 31
0.0
  0
LINE
  5
124
330
1F
100
AcDbEntity
  8
1
100
AcDbLine
 10
3790.6910119872
 20
3138.4425314349
 30
0.0
 11
3790.6910119872
 21
3141.4425314349
 31
0.0
  0
LINE
  5
125
330
1F
100
AcDbEntity
  8
1
100
AcDbLine
 10
3076.3910119872
 20
3059.0425314349
 30
0.0
 11
3076.3910119872
 21
3138.4425314349
 31
0.0
  0
LINE
  5
126
330
1F
100
AcDbEntity
  8
1
100
AcDbLine
 10
3750.9910119872
 20
3059.0425314349
 30
0.0
 11
3750.9910119872
 21
3138.4425314349
 31
0.0
  0
LINE
  5
127
330
1F
100
AcDbEntity
  8
0
  6
HIDDEN
 62
     7
370
    18
100
AcDbLine
 10
3170.1910119872
 20
1826.4425314349
 30
0.0
 11
3170.1910119872
 21
1871.4425314349
 31
0.0
  0
LINE
  5
128
330
1F
100
AcDbEntity
  8
0
  6
HIDDEN
 62
     7
370
    18
100
AcDbLine
 10
2890.1910119872
 20
1826.4425314349
 30
0.0
 11
2890.1910119872
 21
1830.9425314349
 31
0.0
  0
LINE
  5
129
330
1F
100
AcDbEntity
  8
0
  6
HIDDEN
 62
     7
370
    18
100
AcDbLine
 10
3170.1910119872
 20
1871.4425314349
 30
0.0
 11
3076.3910119872
 21
1871.4425314349
 31
0.0
  0
LINE
  5
12A
330
1F
100
AcDbEntity
  8
0
  6
HIDDEN
 62
     7
370
    18
100
AcDbLine
 10
3240.6910119872
 20
1878.0425314349
 30
0.0
 11
3240.6910119872
 21
2145.9425314349
 31
0.0
  0
LINE
  5
12B
330
1F
100
AcDbEntity
  8
0
  6
HIDDEN
 62
     7
370
    18
100
AcDbLine
 10
3240.6910119872
 20
1878.0425314349
 30
0.0
 11
3160.1910119872
 21
1878.0425314349
 31
0.0
  0
LINE
  5
12C
330
1F
100
AcDbEntity
  8
0
  6
HIDDEN
 62
     7
370
    18
100
AcDbLine
 10
3160.1910119872
 20
1871.4425314349
 30
0.0
 11
3160.1910119872
 21
1884.6425314349
 31
0.0
  0
LINE
  5
12D
330
1F
100
AcDbEntity
  8
0
  6
HIDDEN
 62
     7
370
    18
100
AcDbLine
 10
3076.3910119872
 20
1884.6425314349
 30
0.0
 11
3160.1910119872
 21
1884.6425314349
 31
0.0
  0
LINE
  5
12E
330
1F
100
AcDbEntity
  8
0
  6
HIDDEN
 62
     7
370
    18
100
AcDbLine
 10
2716.1910119872
 20
1928.6819034323
 30
0.0
 11
2716.1910119872
 21
1928.4425314349
 31
0.0
  0
LINE
  5
12F
330
1F
100
AcDbEntity
  8
0
  6
HIDDEN
 62
     7
370
    18
100
AcDbLine
 10
2716.1910119872
 20
2078.4425314349
 30
0.0
 11
2716.1910119872
 21
1928.6819034323
 31
0.0
  0
LINE
  5
130
330
1F
100
AcDbEntity
  8
0
  6
HIDDEN
 62
     7
370
    18
100
AcDbLine
 10
2791.1910119872
 20
1928.6819034323
 30
0.0
 11
2791.1910119872
 21
1928.4425314349
 31
0.0
  0
LINE
  5
131
330
1F
100
AcDbEntity
  8
0
  6
HIDDEN
 62
     7
370
    18
100
AcDbLine
 10
2791.1910119872
 20
2078.4425314349
 30
0.0
 11
2791.1910119872
 21
1928.6819034323
 31
0.0
  0
LINE
  5
132
330
1F
100
AcDbEntity
  8
0
  6
HIDDEN
 62
     7
370
    18
100
AcDbLine
 10
2716.1910119872
 20
2633.9425314349
 30
0.0
 11
2716.1910119872
 21
2408.9425314349
 31
0.0
  0
LINE
  5
133
330
1F
100
AcDbEntity
  8
0
  6
HIDDEN
 62
     7
370
    18
100
AcDbLine
 10
2791.1910119872
 20
2633.9425314349
 30
0.0
 11
2791.1910119872
 21
2408.9425314349
 31
0.0
  0
LINE
  5
134
330
1F
100
AcDbEntity
  8
0
  6
HIDDEN
 62
     7
370
    18
100
AcDbLine
 10
2673.6910119872
 20
2185.9425314349
 30
0.0
 11
2833.6910119872
 21
2185.9425314349
 31
0.0
  0
LINE
  5
135
330
1F
100
AcDbEntity
  8
0
  6
HIDDEN
 62
     7
370
    18
100
AcDbLine
 10
3751.6910119872
 20
1531.4425314349
 30
0.0
 11
3751.6910119872
 21
1596.4425314349
 31
0.0
  0
LINE
  5
136
330
1F
100
AcDbEntity
  8
0
  6
HIDDEN
 62
     7
370
    18
100
AcDbLine
 10
2931.6910119872
 20
1531.4425314349
 30
0.0
 11
2931.6910119872
 21
1596.4425314349
 31
0.0
  0
LINE
  5
137
330
1F
100
AcDbEntity
  8
0
  6
HIDDEN
 62
     7
370
    18
100
AcDbLine
 10
3751.6910119872
 20
1826.4425314349
 30
0.0
 11
3751.6910119872
 21
1701.4425314349
 31
0.0
  0
LINE
  5
138
330
1F
100
AcDbEntity
  8
0
  6
HIDDEN
 62
     7
370
    18
100
AcDbLine
 10
2931.6910119872
 20
1826.4425314349
 30
0.0
 11
2931.6910119872
 21
1701.4425314349
 31
0.0
  0
LINE
  5
139
330
1F
100
AcDbEntity
  8
0
  6
HIDDEN
 62
     7
370
    18
100
AcDbLine
 10
3076.3910119872
 20
1742.8425314349
 30
0.0
 11
3750.9910119872
 21
1742.8425314349
 31
0.0
  0
LINE
  5
13A
330
1F
100
AcDbEntity
  8
0
  6
HIDDEN
 62
     7
370
    18
100
AcDbLine
 10
3076.3910119872
 20
1742.8425314349
 30
0.0
 11
3076.3910119872
 21
1826.4425314349
 31
0.0
  0
LINE
  5
13B
330
1F
100
AcDbEntity
  8
0
  6
HIDDEN
 62
     7
370
    18
100
AcDbLine
 10
3750.9910119872
 20
1742.8425314349
 30
0.0
 11
3750.9910119872
 21
1826.4425314349
 31
0.0
  0
LINE
  5
13C
330
1F
100
AcDbEntity
  8
0
  6
HIDDEN
 62
     7
370
    18
100
AcDbLine
 10
3078.6910119872
 20
1744.4425314349
 30
0.0
 11
3078.6910119872
 21
2454.4425314349
 31
0.0
  0
LINE
  5
13D
330
1F
100
AcDbEntity
  8
0
  6
HIDDEN
 62
     7
370
    18
100
AcDbLine
 10
3078.6910119872
 20
1744.4425314349
 30
0.0
 11
3748.6910119872
 21
1744.4425314349
 31
0.0
  0
LINE
  5
13E
330
1F
100
AcDbEntity
  8
0
  6
HIDDEN
 62
     7
370
    18
100
AcDbLine
 10
3748.6910119872
 20
1744.4425314349
 30
0.0
 11
3748.6910119872
 21
2454.4425314349
 31
0.0
  0
LINE
  5
13F
330
1F
100
AcDbEntity
  8
0
  6
HIDDEN
 62
     7
370
    18
100
AcDbLine
 10
3748.6910119872
 20
2454.4425314349
 30
0.0
 11
3748.6910119872
 21
2467.9425314349
 31
0.0
  0
LINE
  5
140
330
1F
100
AcDbEntity
  8
0
  6
HIDDEN
 62
     7
370
    18
100
AcDbLine
 10
3078.6910119872
 20
3057.4425314349
 30
0.0
 11
3748.6910119872
 21
3057.4425314349
 31
0.0
  0
LINE
  5
141
330
1F
100
AcDbEntity
  8
0
  6
HIDDEN
 62
     7
370
    18
100
AcDbLine
 10
3078.6910119872
 20
2467.9425314349
 30
0.0
 11
3078.6910119872
 21
3057.4425314349
 31
0.0
  0
LINE
  5
142
330
1F
100
AcDbEntity
  8
0
  6
HIDDEN
 62
     7
370
    18
100
AcDbLine
 10
3748.6910119872
 20
2467.9425314349
 30
0.0
 11
3748.6910119872
 21
3057.4425314349
 31
0.0
  0
LINE
  5
143
330
1F
100
AcDbEntity
  8
0
  6
HIDDEN
 62
     7
370
    18
100
AcDbLine
 10
3078.6910119872
 20
2454.4425314349
 30
0.0
 11
3078.6910119872
 21
2467.9425314349
 31
0.0
  0
LINE
  5
144
330
1F
100
AcDbEntity
  8
0
  6
HIDDEN
 62
     7
370
    18
100
AcDbLine
 10
3078.6910119872
 20
3057.4425314349
 30
0.0
 11
3078.6910119872
 21
3141.4425314349
 31
0.0
  0
LINE
  5
145
330
1F
100
AcDbEntity
  8
0
  6
HIDDEN
 62
     7
370
    18
100
AcDbLine
 10
3748.6910119872
 20
3057.4425314349
 30
0.0
 11
3748.6910119872
 21
3141.4425314349
 31
0.0
  0
LINE
  5
146
330
1F
100
AcDbEntity
  8
0
  6
HIDDEN
 62
     7
370
    18
100
AcDbLine
 10
3240.6910119872
 20
2145.9425314349
 30
0.0
 11
3076.3910119872
 21
2145.9425314349
 31
0.0
  0
LINE
  5
147
330
1F
100
AcDbEntity
  8
0
  6
HIDDEN
 62
     7
370
    18
100
AcDbLine
 10
2791.1910119872
 20
1984.4425314349
 30
0.0
 11
2833.6910119872
 21
1984.4425314349
 31
0.0
  0
LINE
  5
148
330
1F
100
AcDbEntity
  8
0
  6
HIDDEN
 62
     7
370
    18
100
AcDbLine
 10
2833.6910119872
 20
2022.4425314349
 30
0.0
 11
2791.1910119872
 21
2022.4425314349
 31
0.0
  0
LINE
  5
149
330
1F
100
AcDbEntity
  8
0
  6
HIDDEN
 62
     7
370
    18
100
AcDbLine
 10
2716.1910119872
 20
1928.4425314349
 30
0.0
 11
2791.1910119872
 21
1928.4425314349
 31
0.0
  0
LINE
  5
14A
330
1F
100
AcDbEntity
  8
0
  6
HIDDEN
 62
     7
370
    18
100
AcDbLine
 10
2791.1910119872
 20
2078.4425314349
 30
0.0
 11
2716.1910119872
 21
2078.4425314349
 31
0.0
  0
LINE
  5
14B
330
1F
100
AcDbEntity
  8
0
  6
HIDDEN
 62
     7
370
    18
100
AcDbLine
 10
2716.1910119872
 20
2408.9425314349
 30
0.0
 11
2791.1910119872
 21
2408.9425314349
 31
0.0
  0
LINE
  5
14C
330
1F
100
AcDbEntity
  8
0
  6
HIDDEN
 62
     7
370
    18
100
AcDbLine
 10
2791.1910119872
 20
2633.9425314349
 30
0.0
 11
2716.1910119872
 21
2633.9425314349
 31
0.0
  0
LINE
  5
14D
330
1F
100
AcDbEntity
  8
0
  6
HIDDEN
 62
     7
370
    18
100
AcDbLine
 10
3795.6910119872
 20
1531.4425314349
 30
0.0
 11
3795.6910119872
 21
1537.4425314349
 31
0.0
  0
LINE
  5
14E
330
1F
100
AcDbEntity
  8
0
  6
HIDDEN
 62
     7
370
    18
100
AcDbLine
 10
3777.6910119872
 20
1537.4425314349
 30
0.0
 11
3777.6910119872
 21
1531.4425314349
 31
0.0
  0
LINE
  5
14F
330
1F
100
AcDbEntity
  8
0
  6
HIDDEN
 62
     7
370
    18
100
AcDbLine
 10
2905.6910119872
 20
1531.4425314349
 30
0.0
 11
2905.6910119872
 21
1537.4425314349
 31
0.0
  0
LINE
  5
150
330
1F
100
AcDbEntity
  8
0
  6
HIDDEN
 62
     7
370
    18
100
AcDbLine
 10
2887.6910119872
 20
1537.4425314349
 30
0.0
 11
2887.6910119872
 21
1531.4425314349
 31
0.0
  0
LINE
  5
151
330
1F
100
AcDbEntity
  8
0
  6
HIDDEN
 62
     7
370
    18
100
AcDbLine
 10
3831.6910119872
 20
2618.6227085875
 30
0.0
 11
3829.3910119872
 21
2618.6227085875
 31
0.0
  0
LINE
  5
152
330
1F
100
AcDbEntity
  8
0
  6
HIDDEN
 62
     7
370
    18
100
AcDbLine
 10
3829.3910119872
 20
2608.6227085875
 30
0.0
 11
3831.6910119872
 21
2608.6227085875
 31
0.0
  0
LINE
  5
153
330
1F
100
AcDbEntity
  8
0
  6
HIDDEN
 62
     7
370
    18
100
AcDbLine
 10
3831.6910119872
 20
2434.2623542822
 30
0.0
 11
3829.3910119872
 21
2434.2623542822
 31
0.0
  0
LINE
  5
154
330
1F
100
AcDbEntity
  8
0
  6
HIDDEN
 62
     7
370
    18
100
AcDbLine
 10
3829.3910119872
 20
2424.2623542822
 30
0.0
 11
3831.6910119872
 21
2424.2623542822
 31
0.0
  0
LINE
  5
155
330
1F
100
AcDbEntity
  8
0
  6
HIDDEN
 62
     7
370
    18
100
AcDbLine
 10
3748.6910119872
 20
2071.4425314349
 30
0.0
 11
3831.6910119872
 21
2071.4425314349
 31
0.0
  0
LINE
  5
156
330
1F
100
AcDbEntity
  8
0
  6
HIDDEN
 62
     7
370
    18
100
AcDbLine
 10
3831.6910119872
 20
2971.4425314349
 30
0.0
 11
3748.6910119872
 21
2971.4425314349
 31
0.0
  0
LINE
  5
157
330
1F
100
AcDbEntity
  8
0
  6
HIDDEN
 62
     7
370
    18
100
AcDbLine
 10
3831.6910119872
 20
2788.9494665366
 30
0.0
 11
3829.3910119872
 21
2788.9494665366
 31
0.0
  0
LINE
  5
158
330
1F
100
AcDbEntity
  8
0
  6
HIDDEN
 62
     7
370
    18
100
AcDbLine
 10
3829.3910119872
 20
2778.9494665366
 30
0.0
 11
3831.6910119872
 21
2778.9494665366
 31
0.0
  0
LINE
  5
159
330
1F
100
AcDbEntity
  8
0
  6
HIDDEN
 62
     7
370
    18
100
AcDbLine
 10
3831.6910119872
 20
2263.9355963331
 30
0.0
 11
3829.3910119872
 21
2263.9355963331
 31
0.0
  0
LINE
  5
15A
330
1F
100
AcDbEntity
  8
0
  6
HIDDEN
 62
     7
370
    18
100
AcDbLine
 10
3829.3910119872
 20
2253.9355963331
 30
0.0
 11
3831.6910119872
 21
2253.9355963331
 31
0.0
  0
LINE
  5
15B
330
1F
100
AcDbEntity
  8
0
  6
HIDDEN
 62
     7
370
    18
100
AcDbLine
 10
3831.6910119872
 20
2919.3119232478
 30
0.0
 11
3829.3910119872
 21
2919.3119232478
 31
0.0
  0
LINE
  5
15C
330
1F
100
AcDbEntity
  8
0
  6
HIDDEN
 62
     7
370
    18
100
AcDbLine
 10
3829.3910119872
 20
2909.3119232478
 30
0.0
 11
3831.6910119872
 21
2909.3119232478
 31
0.0
  0
LINE
  5
15D
330
1F
100
AcDbEntity
  8
0
  6
HIDDEN
 62
     7
370
    18
100
AcDbLine
 10
3831.6910119872
 20
2133.5731396219
 30
0.0
 11
3829.3910119872
 21
2133.5731396219
 31
0.0
  0
LINE
  5
15E
330
1F
100
AcDbEntity
  8
0
  6
HIDDEN
 62
     7
370
    18
100
AcDbLine
 10
3829.3910119872
 20
2123.5731396219
 30
0.0
 11
3831.6910119872
 21
2123.5731396219
 31
0.0
  0
LINE
  5
15F
330
1F
100
AcDbEntity
  8
0
  6
HIDDEN
 62
     7
370
    18
100
AcDbLine
 10
3831.6910119872
 20
2989.8635764254
 30
0.0
 11
3829.3910119872
 21
2989.8635764254
 31
0.0
  0
LINE
  5
160
330
1F
100
AcDbEntity
  8
0
  6
HIDDEN
 62
     7
370
    18
100
AcDbLine
 10
3829.3910119872
 20
2979.8635764254
 30
0.0
 11
3831.6910119872
 21
2979.8635764254
 31
0.0
  0
LINE
  5
161
330
1F
100
AcDbEntity
  8
0
  6
HIDDEN
 62
     7
370
    18
100
AcDbLine
 10
3831.6910119872
 20
2063.0214864443
 30
0.0
 11
3829.3910119872
 21
2063.0214864443
 31
0.0
  0
LINE
  5
162
330
1F
100
AcDbEntity
  8
0
  6
HIDDEN
 62
     7
370
    18
100
AcDbLine
 10
3829.3910119872
 20
2053.0214864443
 30
0.0
 11
3831.6910119872
 21
2053.0214864443
 31
0.0
  0
LINE
  5
163
330
1F
100
AcDbEntity
  8
0
  6
HIDDEN
 62
     7
370
    18
100
AcDbLine
 10
3767.6910119872
 20
3141.4425314349
 30
0.0
 11
3767.6910119872
 21
3138.4425314349
 31
0.0
  0
LINE
  5
164
330
1F
100
AcDbEntity
  8
0
  6
HIDDEN
 62
     7
370
    18
100
AcDbLine
 10
3777.6910119872
 20
3138.4425314349
 30
0.0
 11
3777.6910119872
 21
3141.4425314349
 31
0.0
  0
LINE
  5
165
330
1F
100
AcDbEntity
  8
0
  6
HIDDEN
 62
     7
370
    18
100
AcDbLine
 10
3608.6910119872
 20
3141.4425314349
 30
0.0
 11
3608.6910119872
 21
3138.4425314349
 31
0.0
  0
LINE
  5
166
330
1F
100
AcDbEntity
  8
0
  6
HIDDEN
 62
     7
370
    18
100
AcDbLine
 10
3618.6910119872
 20
3138.4425314349
 30
0.0
 11
3618.6910119872
 21
3141.4425314349
 31
0.0
  0
LINE
  5
167
330
1F
100
AcDbEntity
  8
0
  6
HIDDEN
 62
     7
370
    18
100
AcDbLine
 10
3408.6910119872
 20
3141.4425314349
 30
0.0
 11
3408.6910119872
 21
3138.4425314349
 31
0.0
  0
LINE
  5
168
330
1F
100
AcDbEntity
  8
0
  6
HIDDEN
 62
     7
370
    18
100
AcDbLine
 10
3418.6910119872
 20
3138.4425314349
 30
0.0
 11
3418.6910119872
 21
3141.4425314349
 31
0.0
  0
LINE
  5
169
330
1F
100
AcDbEntity
  8
0
  6
HIDDEN
 62
     7
370
    18
100
AcDbLine
 10
3208.6910119872
 20
3141.4425314349
 30
0.0
 11
3208.6910119872
 21
3138.4425314349
 31
0.0
  0
LINE
  5
16A
330
1F
100
AcDbEntity
  8
0
  6
HIDDEN
 62
     7
370
    18
100
AcDbLine
 10
3218.6910119872
 20
3138.4425314349
 30
0.0
 11
3218.6910119872
 21
3141.4425314349
 31
0.0
  0
LINE
  5
16B
330
1F
100
AcDbEntity
  8
0
  6
HIDDEN
 62
     7
370
    18
100
AcDbLine
 10
3049.6910119872
 20
3141.4425314349
 30
0.0
 11
3049.6910119872
 21
3138.4425314349
 31
0.0
  0
LINE
  5
16C
330
1F
100
AcDbEntity
  8
0
  6
HIDDEN
 62
     7
370
    18
100
AcDbLine
 10
3059.6910119872
 20
3138.4425314349
 30
0.0
 11
3059.6910119872
 21
3141.4425314349
 31
0.0
  0
LINE
  5
16D
330
1F
100
AcDbEntity
  8
2
100
AcDbLine
 10
2874.0170305125
 20
2521.4425314349
 30
0.0
 11
3637.9427618783
 21
2521.4425314349
 31
0.0
  0
LINE
  5
16E
330
1F
100
AcDbEntity
  8
2
100
AcDbLine
 10
3413.6910119872
 20
1988.4794782791
 30
0.0
 11
3413.6910119872
 21
2874.7912441273
 31
0.0
  0
LINE
  5
16F
330
1F
100
AcDbEntity
  8
1
100
AcDbLine
 10
613.0504814907
 20
3921.8857552499
 30
0.0
 11
613.0504814907
 21
4087.3857552499
 31
0.0
  0
LINE
  5
170
330
1F
100
AcDbEntity
  8
1
100
AcDbLine
 10
328.0504814907
 20
4291.3857552499
 30
0.0
 11
328.0504814907
 21
3921.8857552499
 31
0.0
  0
LINE
  5
171
330
1F
100
AcDbEntity
  8
1
100
AcDbLine
 10
489.5504814907
 20
3884.3857552499
 30
0.0
 11
489.5504814907
 21
3921.8857552499
 31
0.0
  0
LINE
  5
172
330
1F
100
AcDbEntity
  8
1
100
AcDbLine
 10
451.5504814907
 20
3921.8857552499
 30
0.0
 11
451.5504814907
 21
3884.3857552499
 31
0.0
  0
LINE
  5
173
330
1F
100
AcDbEntity
  8
1
100
AcDbLine
 10
1100.5504814907
 20
4882.3857552499
 30
0.0
 11
1100.5504814907
 21
4880.0857552499
 31
0.0
  0
LINE
  5
174
330
1F
100
AcDbEntity
  8
1
100
AcDbLine
 10
2080.5504814907
 20
4880.0857552499
 30
0.0
 11
2080.5504814907
 21
4882.3857552499
 31
0.0
  0
LINE
  5
175
330
1F
100
AcDbEntity
  8
1
100
AcDbLine
 10
2080.5504814907
 20
4801.6857552499
 30
0.0
 11
2080.5504814907
 21
4802.3857552499
 31
0.0
  0
LINE
  5
176
330
1F
100
AcDbEntity
  8
1
100
AcDbLine
 10
1138.2504814907
 20
4880.0857552499
 30
0.0
 11
1138.2504814907
 21
4841.3857552499
 31
0.0
  0
LINE
  5
177
330
1F
100
AcDbEntity
  8
1
100
AcDbLine
 10
2042.8504814907
 20
4802.3857552499
 30
0.0
 11
2042.8504814907
 21
4880.0857552499
 31
0.0
  0
LINE
  5
178
330
1F
100
AcDbEntity
  8
1
100
AcDbLine
 10
587.0504814907
 20
4291.3857552499
 30
0.0
 11
328.0504814907
 21
4291.3857552499
 31
0.0
  0
LINE
  5
179
330
1F
100
AcDbEntity
  8
1
100
AcDbLine
 10
328.0504814907
 20
3921.8857552499
 30
0.0
 11
613.0504814907
 21
3921.8857552499
 31
0.0
  0
LINE
  5
17A
330
1F
100
AcDbEntity
  8
1
100
AcDbLine
 10
295.5504814907
 20
4220.8857552499
 30
0.0
 11
328.0504814907
 21
4220.8857552499
 31
0.0
  0
LINE
  5
17B
330
1F
100
AcDbEntity
  8
1
100
AcDbLine
 10
645.5504814907
 20
3940.8857552499
 30
0.0
 11
613.0504814907
 21
3940.8857552499
 31
0.0
  0
LINE
  5
17C
330
1F
100
AcDbEntity
  8
1
100
AcDbLine
 10
328.0504814907
 20
3940.8857552499
 30
0.0
 11
295.5504814907
 21
3940.8857552499
 31
0.0
  0
LINE
  5
17D
330
1F
100
AcDbEntity
  8
1
100
AcDbLine
 10
645.5504814907
 20
4087.3857552499
 30
0.0
 11
645.5504814907
 21
3940.8857552499
 31
0.0
  0
LINE
  5
17E
330
1F
100
AcDbEntity
  8
1
100
AcDbLine
 10
295.5504814907
 20
3940.8857552499
 30
0.0
 11
295.5504814907
 21
4220.8857552499
 31
0.0
  0
LINE
  5
17F
330
1F
100
AcDbEntity
  8
1
100
AcDbLine
 10
1890.5504814907
 20
3724.3857552499
 30
0.0
 11
1890.5504814907
 21
3884.3857552499
 31
0.0
  0
LINE
  5
180
330
1F
100
AcDbEntity
  8
1
100
AcDbLine
 10
1890.5504814907
 20
3724.3857552499
 30
0.0
 11
1535.5504814907
 21
3724.3857552499
 31
0.0
  0
LINE
  5
181
330
1F
100
AcDbEntity
  8
1
100
AcDbLine
 10
1535.5504814907
 20
3724.3857552499
 30
0.0
 11
1535.5504814907
 21
3884.3857552499
 31
0.0
  0
LINE
  5
182
330
1F
100
AcDbEntity
  8
1
100
AcDbLine
 10
1890.5504814907
 20
3884.3857552499
 30
0.0
 11
1535.5504814907
 21
3884.3857552499
 31
0.0
  0
LINE
  5
183
330
1F
100
AcDbEntity
  8
1
100
AcDbLine
 10
1535.5504814907
 20
3724.3857552499
 30
0.0
 11
290.5504814907
 21
3724.3857552499
 31
0.0
  0
LINE
  5
184
330
1F
100
AcDbEntity
  8
1
100
AcDbLine
 10
290.5504814907
 20
3724.3857552499
 30
0.0
 11
290.5504814907
 21
3884.3857552499
 31
0.0
  0
LINE
  5
185
330
1F
100
AcDbEntity
  8
1
100
AcDbLine
 10
1535.5504814907
 20
3884.3857552499
 30
0.0
 11
290.5504814907
 21
3884.3857552499
 31
0.0
  0
LINE
  5
186
330
1F
100
AcDbEntity
  8
1
100
AcDbLine
 10
1975.5504814907
 20
3959.3857552499
 30
0.0
 11
1825.5504814907
 21
3959.3857552499
 31
0.0
  0
LINE
  5
187
330
1F
100
AcDbEntity
  8
1
100
AcDbLine
 10
1975.5504814907
 20
3829.3857552499
 30
0.0
 11
1975.5504814907
 21
3959.3857552499
 31
0.0
  0
LINE
  5
188
330
1F
100
AcDbEntity
  8
1
100
AcDbLine
 10
1890.5504814907
 20
3829.3857552499
 30
0.0
 11
1975.5504814907
 21
3829.3857552499
 31
0.0
  0
LINE
  5
189
330
1F
100
AcDbEntity
  8
1
100
AcDbLine
 10
1825.5504814907
 20
3959.3857552499
 30
0.0
 11
1825.5504814907
 21
3884.3857552499
 31
0.0
  0
LINE
  5
18A
330
1F
100
AcDbEntity
  8
1
100
AcDbLine
 10
295.5504814907
 20
3959.3857552499
 30
0.0
 11
205.5504814907
 21
3959.3857552499
 31
0.0
  0
LINE
  5
18B
330
1F
100
AcDbEntity
  8
1
100
AcDbLine
 10
355.5504814907
 20
3884.3857552499
 30
0.0
 11
355.5504814907
 21
3921.8857552499
 31
0.0
  0
LINE
  5
18C
330
1F
100
AcDbEntity
  8
1
100
AcDbLine
 10
205.5504814907
 20
3829.3857552499
 30
0.0
 11
290.5504814907
 21
3829.3857552499
 31
0.0
  0
LINE
  5
18D
330
1F
100
AcDbEntity
  8
1
100
AcDbLine
 10
205.5504814907
 20
3959.3857552499
 30
0.0
 11
205.5504814907
 21
3829.3857552499
 31
0.0
  0
LINE
  5
18E
330
1F
100
AcDbEntity
  8
1
100
AcDbLine
 10
250.5504814907
 20
4867.3857552499
 30
0.0
 11
250.5504814907
 21
3959.3857552499
 31
0.0
  0
LINE
  5
18F
330
1F
100
AcDbEntity
  8
1
100
AcDbLine
 10
2150.5504814907
 20
4867.3857552499
 30
0.0
 11
2042.8504814907
 21
4867.3857552499
 31
0.0
  0
LINE
  5
190
330
1F
100
AcDbEntity
  8
1
100
AcDbLine
 10
1138.2504814907
 20
4867.3857552499
 30
0.0
 11
250.5504814907
 21
4867.3857552499
 31
0.0
  0
LINE
  5
191
330
1F
100
AcDbEntity
  8
1
100
AcDbLine
 10
2150.5504814907
 20
3917.3857552499
 30
0.0
 11
2150.5504814907
 21
4127.0857552499
 31
0.0
  0
LINE
  5
192
330
1F
100
AcDbEntity
  8
1
100
AcDbLine
 10
2150.5504814907
 20
4801.6857552499
 30
0.0
 11
2150.5504814907
 21
4867.3857552499
 31
0.0
  0
LINE
  5
193
330
1F
100
AcDbEntity
  8
1
100
AcDbLine
 10
1975.5504814907
 20
3917.3857552499
 30
0.0
 11
2150.5504814907
 21
3917.3857552499
 31
0.0
  0
LINE
  5
194
330
1F
100
AcDbEntity
  8
1
100
AcDbLine
 10
355.5504814907
 20
3917.3857552499
 30
0.0
 11
451.5504814907
 21
3917.3857552499
 31
0.0
  0
LINE
  5
195
330
1F
100
AcDbEntity
  8
1
100
AcDbLine
 10
489.5504814907
 20
3917.3857552499
 30
0.0
 11
1825.5504814907
 21
3917.3857552499
 31
0.0
  0
LINE
  5
196
330
1F
100
AcDbEntity
  8
1
100
AcDbLine
 10
645.5504814907
 20
3982.3857552499
 30
0.0
 11
2085.5504814907
 21
3982.3857552499
 31
0.0
  0
LINE
  5
197
330
1F
100
AcDbEntity
  8
1
100
AcDbLine
 10
2085.5504814907
 20
3982.3857552499
 30
0.0
 11
2085.5504814907
 21
4127.0857552499
 31
0.0
  0
LINE
  5
198
330
1F
100
AcDbEntity
  8
1
100
AcDbLine
 10
2085.5504814907
 20
4801.6857552499
 30
0.0
 11
2085.5504814907
 21
4802.3857552499
 31
0.0
  0
LINE
  5
199
330
1F
100
AcDbEntity
  8
1
100
AcDbLine
 10
2085.5504814907
 20
4802.3857552499
 30
0.0
 11
2080.5504814907
 21
4802.3857552499
 31
0.0
  0
LINE
  5
19A
330
1F
100
AcDbEntity
  8
1
100
AcDbLine
 10
587.0504814907
 20
4802.3857552499
 30
0.0
 11
315.5504814907
 21
4802.3857552499
 31
0.0
  0
LINE
  5
19B
330
1F
100
AcDbEntity
  8
1
100
AcDbLine
 10
315.5504814907
 20
4802.3857552499
 30
0.0
 11
315.5504814907
 21
4220.8857552499
 31
0.0
  0
CIRCLE
  5
19C
330
1F
100
AcDbEntity
  8
1
100
AcDbCircle
 10
605.0504814907
 20
4105.3857552499
 30
0.0
 40
5.0
  0
CIRCLE
  5
19D
330
1F
100
AcDbEntity
  8
1
100
AcDbCircle
 10
605.0504814907
 20
4264.3857552499
 30
0.0
 40
5.0
  0
CIRCLE
  5
19E
330
1F
100
AcDbEntity
  8
1
100
AcDbCircle
 10
605.0504814907
 20
4464.3857552499
 30
0.0
 40
5.0
  0
CIRCLE
  5
19F
330
1F
100
AcDbEntity
  8
1
100
AcDbCircle
 10
792.0504814907
 20
4105.3857552499
 30
0.0
 40
5.0
  0
CIRCLE
  5
1A0
330
1F
100
AcDbEntity
  8
1
100
AcDbCircle
 10
992.0504814907
 20
4105.3857552499
 30
0.0
 40
5.0
  0
CIRCLE
  5
1A1
330
1F
100
AcDbEntity
  8
1
100
AcDbCircle
 10
992.0504814907
 20
4823.3857552499
 30
0.0
 40
5.0
  0
CIRCLE
  5
1A2
330
1F
100
AcDbEntity
  8
1
100
AcDbCircle
 10
792.0504814907
 20
4823.3857552499
 30
0.0
 40
5.0
  0
CIRCLE
  5
1A3
330
1F
100
AcDbEntity
  8
1
100
AcDbCircle
 10
605.0504814907
 20
4664.3857552499
 30
0.0
 40
5.0
  0
CIRCLE
  5
1A4
330
1F
100
AcDbEntity
  8
1
100
AcDbCircle
 10
1579.0504814907
 20
4823.3857552499
 30
0.0
 40
5.0
  0
CIRCLE
  5
1A5
330
1F
100
AcDbEntity
  8
1
100
AcDbCircle
 10
1579.0504814907
 20
4664.3857552499
 30
0.0
 40
5.0
  0
CIRCLE
  5
1A6
330
1F
100
AcDbEntity
  8
1
100
AcDbCircle
 10
1392.0504814907
 20
4823.3857552499
 30
0.0
 40
5.0
  0
CIRCLE
  5
1A7
330
1F
100
AcDbEntity
  8
1
100
AcDbCircle
 10
1192.0504814907
 20
4823.3857552499
 30
0.0
 40
5.0
  0
CIRCLE
  5
1A8
330
1F
100
AcDbEntity
  8
1
100
AcDbCircle
 10
1192.0504814907
 20
4105.3857552499
 30
0.0
 40
5.0
  0
CIRCLE
  5
1A9
330
1F
100
AcDbEntity
  8
1
100
AcDbCircle
 10
1392.0504814907
 20
4105.3857552499
 30
0.0
 40
5.0
  0
CIRCLE
  5
1AA
330
1F
100
AcDbEntity
  8
1
100
AcDbCircle
 10
1579.0504814907
 20
4464.3857552499
 30
0.0
 40
5.0
  0
CIRCLE
  5
1AB
330
1F
100
AcDbEntity
  8
1
100
AcDbCircle
 10
1579.0504814907
 20
4264.3857552499
 30
0.0
 40
5.0
  0
CIRCLE
  5
1AC
330
1F
100
AcDbEntity
  8
1
100
AcDbCircle
 10
1579.0504814907
 20
4105.3857552499
 30
0.0
 40
5.0
  0
LINE
  5
1AD
330
1F
100
AcDbEntity
  8
1
100
AcDbLine
 10
587.0504814907
 20
4087.3857552499
 30
0.0
 11
1597.0504814907
 21
4087.3857552499
 31
0.0
  0
LINE
  5
1AE
330
1F
100
AcDbEntity
  8
1
100
AcDbLine
 10
629.5504814907
 20
4129.3857552499
 30
0.0
 11
629.5504814907
 21
4799.3857552499
 31
0.0
  0
LINE
  5
1AF
330
1F
100
AcDbEntity
  8
1
100
AcDbLine
 10
1554.5504814907
 20
4129.3857552499
 30
0.0
 11
629.5504814907
 21
4129.3857552499
 31
0.0
  0
LINE
  5
1B0
330
1F
100
AcDbEntity
  8
1
100
AcDbLine
 10
1554.5504814907
 20
4129.3857552499
 30
0.0
 11
1554.5504814907
 21
4799.3857552499
 31
0.0
  0
LINE
  5
1B1
330
1F
100
AcDbEntity
  8
1
100
AcDbLine
 10
1554.5504814907
 20
4799.3857552499
 30
0.0
 11
629.5504814907
 21
4799.3857552499
 31
0.0
  0
CIRCLE
  5
1B2
330
1F
100
AcDbEntity
  8
1
100
AcDbCircle
 10
605.0504814907
 20
4823.3857552499
 30
0.0
 40
5.0
  0
LINE
  5
1B3
330
1F
100
AcDbEntity
  8
1
100
AcDbLine
 10
1597.0504814907
 20
4087.3857552499
 30
0.0
 11
1597.0504814907
 21
4841.3857552499
 31
0.0
  0
LINE
  5
1B4
330
1F
100
AcDbEntity
  8
1
100
AcDbLine
 10
1597.0504814907
 20
4841.3857552499
 30
0.0
 11
587.0504814907
 21
4841.3857552499
 31
0.0
  0
LINE
  5
1B5
330
1F
100
AcDbEntity
  8
1
100
AcDbLine
 10
587.0504814907
 20
4841.3857552499
 30
0.0
 11
587.0504814907
 21
4087.3857552499
 31
0.0
  0
LINE
  5
1B6
330
1F
100
AcDbEntity
  8
1
100
AcDbLine
 10
1644.0504814907
 20
4127.0857552499
 30
0.0
 11
1597.0504814907
 21
4127.0857552499
 31
0.0
  0
LINE
  5
1B7
330
1F
100
AcDbEntity
  8
1
100
AcDbLine
 10
1644.0504814907
 20
4801.6857552499
 30
0.0
 11
1597.0504814907
 21
4801.6857552499
 31
0.0
  0
LINE
  5
1B8
330
1F
100
AcDbEntity
  8
1
100
AcDbLine
 10
2235.1504814907
 20
4127.0857552499
 30
0.0
 11
2235.1504814907
 21
4801.6857552499
 31
0.0
  0
LINE
  5
1B9
330
1F
100
AcDbEntity
  8
1
100
AcDbLine
 10
2235.1504814907
 20
4127.0857552499
 30
0.0
 11
1644.0504814907
 21
4127.0857552499
 31
0.0
  0
LINE
  5
1BA
330
1F
100
AcDbEntity
  8
1
100
AcDbLine
 10
2235.1504814907
 20
4801.6857552499
 30
0.0
 11
1644.0504814907
 21
4801.6857552499
 31
0.0
  0
LINE
  5
1BB
330
1F
100
AcDbEntity
  8
1
100
AcDbLine
 10
1100.5504814907
 20
4882.3857552499
 30
0.0
 11
2080.5504814907
 21
4882.3857552499
 31
0.0
  0
LINE
  5
1BC
330
1F
100
AcDbEntity
  8
1
100
AcDbLine
 10
1100.5504814907
 20
4880.0857552499
 30
0.0
 11
2080.5504814907
 21
4880.0857552499
 31
0.0
  0
LINE
  5
1BD
330
1F
100
AcDbEntity
  8
1
100
AcDbLine
 10
2080.5504814907
 20
4802.3857552499
 30
0.0
 11
1597.0504814907
 21
4802.3857552499
 31
0.0
  0
LINE
  5
1BE
330
1F
100
AcDbEntity
  8
0
  6
HIDDEN
 62
     7
370
    18
100
AcDbLine
 10
391.8560725406
 20
3950.8857552499
 30
0.0
 11
402.8667315945
 21
3950.8857552499
 31
0.0
  0
LINE
  5
1BF
330
1F
100
AcDbEntity
  8
0
  6
HIDDEN
 62
     7
370
    18
100
AcDbLine
 10
391.8560725406
 20
3950.8857552499
 30
0.0
 11
391.8560725406
 21
4210.8857552499
 31
0.0
  0
LINE
  5
1C0
330
1F
100
AcDbEntity
  8
0
  6
HIDDEN
 62
     7
370
    18
100
AcDbLine
 10
391.8560725406
 20
4210.8857552499
 30
0.0
 11
402.8667315945
 21
4210.8857552499
 31
0.0
  0
LINE
  5
1C1
330
1F
100
AcDbEntity
  8
0
  6
HIDDEN
 62
     7
370
    18
100
AcDbLine
 10
402.8667315945
 20
4291.3857552499
 30
0.0
 11
402.8667315945
 21
4210.8857552499
 31
0.0
  0
LINE
  5
1C2
330
1F
100
AcDbEntity
  8
0
  6
HIDDEN
 62
     7
370
    18
100
AcDbLine
 10
613.0504814907
 20
4291.3857552499
 30
0.0
 11
587.0504814907
 21
4291.3857552499
 31
0.0
  0
LINE
  5
1C3
330
1F
100
AcDbEntity
  8
0
  6
HIDDEN
 62
     7
370
    18
100
AcDbLine
 10
538.2342313868
 20
4291.3857552499
 30
0.0
 11
538.2342313868
 21
4210.8857552499
 31
0.0
  0
LINE
  5
1C4
330
1F
100
AcDbEntity
  8
0
  6
HIDDEN
 62
     7
370
    18
100
AcDbLine
 10
538.2342313868
 20
4210.8857552499
 30
0.0
 11
549.2448904407
 21
4210.8857552499
 31
0.0
  0
LINE
  5
1C5
330
1F
100
AcDbEntity
  8
0
  6
HIDDEN
 62
     7
370
    18
100
AcDbLine
 10
549.2448904407
 20
4210.8857552499
 30
0.0
 11
549.2448904407
 21
3950.8857552499
 31
0.0
  0
LINE
  5
1C6
330
1F
100
AcDbEntity
  8
0
  6
HIDDEN
 62
     7
370
    18
100
AcDbLine
 10
538.2342313868
 20
3950.8857552499
 30
0.0
 11
549.2448904407
 21
3950.8857552499
 31
0.0
  0
LINE
  5
1C7
330
1F
100
AcDbEntity
  8
0
  6
HIDDEN
 62
     7
370
    18
100
AcDbLine
 10
538.2342313868
 20
3950.8857552499
 30
0.0
 11
538.2342313868
 21
3921.8857552499
 31
0.0
  0
LINE
  5
1C8
330
1F
100
AcDbEntity
  8
0
  6
HIDDEN
 62
     7
370
    18
100
AcDbLine
 10
402.8667315945
 20
3950.8857552499
 30
0.0
 11
402.8667315945
 21
3921.8857552499
 31
0.0
  0
LINE
  5
1C9
330
1F
100
AcDbEntity
  8
0
  6
HIDDEN
 62
     7
370
    18
100
AcDbLine
 10
391.8560725406
 20
3950.8857552499
 30
0.0
 11
383.0504814907
 21
3950.8857552499
 31
0.0
  0
LINE
  5
1CA
330
1F
100
AcDbEntity
  8
0
  6
HIDDEN
 62
     7
370
    18
100
AcDbLine
 10
391.8560725406
 20
4210.8857552499
 30
0.0
 11
383.0504814907
 21
4210.8857552499
 31
0.0
  0
LINE
  5
1CB
330
1F
100
AcDbEntity
  8
0
  6
HIDDEN
 62
     7
370
    18
100
AcDbLine
 10
383.0504814907
 20
3950.8857552499
 30
0.0
 11
383.0504814907
 21
4210.8857552499
 31
0.0
  0
LINE
  5
1CC
330
1F
100
AcDbEntity
  8
0
  6
HIDDEN
 62
     7
370
    18
100
AcDbLine
 10
558.0504814907
 20
3950.8857552499
 30
0.0
 11
549.2448904407
 21
3950.8857552499
 31
0.0
  0
LINE
  5
1CD
330
1F
100
AcDbEntity
  8
0
  6
HIDDEN
 62
     7
370
    18
100
AcDbLine
 10
558.0504814907
 20
3950.8857552499
 30
0.0
 11
558.0504814907
 21
4210.8857552499
 31
0.0
  0
LINE
  5
1CE
330
1F
100
AcDbEntity
  8
0
  6
HIDDEN
 62
     7
370
    18
100
AcDbLine
 10
558.0504814907
 20
4210.8857552499
 30
0.0
 11
549.2448904407
 21
4210.8857552499
 31
0.0
  0
LINE
  5
1CF
330
1F
100
AcDbEntity
  8
0
  6
HIDDEN
 62
     7
370
    18
100
AcDbLine
 10
402.8667315945
 20
4210.8857552499
 30
0.0
 11
538.2342313868
 21
4210.8857552499
 31
0.0
  0
LINE
  5
1D0
330
1F
100
AcDbEntity
  8
0
  6
HIDDEN
 62
     7
370
    18
100
AcDbLine
 10
402.8667315945
 20
3950.8857552499
 30
0.0
 11
538.2342313868
 21
3950.8857552499
 31
0.0
  0
LINE
  5
1D1
330
1F
100
AcDbEntity
  8
0
  6
HIDDEN
 62
     7
370
    18
100
AcDbLine
 10
328.0504814907
 20
4220.8857552499
 30
0.0
 11
645.5504814907
 21
4220.8857552499
 31
0.0
  0
LINE
  5
1D2
330
1F
100
AcDbEntity
  8
0
  6
HIDDEN
 62
     7
370
    18
100
AcDbLine
 10
613.0504814907
 20
3940.8857552499
 30
0.0
 11
328.0504814907
 21
3940.8857552499
 31
0.0
  0
LINE
  5
1D3
330
1F
100
AcDbEntity
  8
0
  6
HIDDEN
 62
     7
370
    18
100
AcDbLine
 10
645.5504814907
 20
4220.8857552499
 30
0.0
 11
645.5504814907
 21
4087.3857552499
 31
0.0
  0
LINE
  5
1D4
330
1F
100
AcDbEntity
  8
0
  6
HIDDEN
 62
     7
370
    18
100
AcDbLine
 10
395.5504814907
 20
3766.8857552499
 30
0.0
 11
545.5504814907
 21
3766.8857552499
 31
0.0
  0
LINE
  5
1D5
330
1F
100
AcDbEntity
  8
0
  6
HIDDEN
 62
     7
370
    18
100
AcDbLine
 10
395.5504814907
 20
3841.8857552499
 30
0.0
 11
545.5504814907
 21
3841.8857552499
 31
0.0
  0
LINE
  5
1D6
330
1F
100
AcDbEntity
  8
0
  6
HIDDEN
 62
     7
370
    18
100
AcDbLine
 10
1592.5386302586
 20
3766.8857552499
 30
0.0
 11
1703.0504814907
 21
3766.8857552499
 31
0.0
  0
LINE
  5
1D7
330
1F
100
AcDbEntity
  8
0
  6
HIDDEN
 62
     7
370
    18
100
AcDbLine
 10
1478.0504814907
 20
3766.8857552499
 30
0.0
 11
1592.5386302586
 21
3766.8857552499
 31
0.0
  0
LINE
  5
1D8
330
1F
100
AcDbEntity
  8
0
  6
HIDDEN
 62
     7
370
    18
100
AcDbLine
 10
1592.5386302586
 20
3841.8857552499
 30
0.0
 11
1703.0504814907
 21
3841.8857552499
 31
0.0
  0
LINE
  5
1D9
330
1F
100
AcDbEntity
  8
0
  6
HIDDEN
 62
     7
370
    18
100
AcDbLine
 10
1478.0504814907
 20
3841.8857552499
 30
0.0
 11
1592.5386302586
 21
3841.8857552499
 31
0.0
  0
CIRCLE
  5
1DA
330
1F
100
AcDbEntity
  8
0
  6
HIDDEN
 62
     7
370
    18
100
AcDbCircle
 10
340.5504814907
 20
4837.3857552499
 30
0.0
 40
9.00000000000091
  0
CIRCLE
  5
1DB
330
1F
100
AcDbEntity
  8
0
  6
HIDDEN
 62
     7
370
    18
100
AcDbCircle
 10
1200.5504814907
 20
4837.3857552499
 30
0.0
 40
9.00000000000091
  0
CIRCLE
  5
1DC
330
1F
100
AcDbEntity
  8
0
  6
HIDDEN
 62
     7
370
    18
100
AcDbCircle
 10
2060.5504814907
 20
4837.3857552499
 30
0.0
 40
9.00000000000091
  0
CIRCLE
  5
1DD
330
1F
100
AcDbEntity
  8
0
  6
HIDDEN
 62
     7
370
    18
100
AcDbCircle
 10
2060.5504814907
 20
3947.3857552499
 30
0.0
 40
9.000000000000455
  0
CIRCLE
  5
1DE
330
1F
100
AcDbEntity
  8
0
  6
HIDDEN
 62
     7
370
    18
100
AcDbCircle
 10
1200.5504814907
 20
3947.3857552499
 30
0.0
 40
9.000000000000455
  0
CIRCLE
  5
1DF
330
1F
100
AcDbEntity
  8
0
  6
HIDDEN
 62
     7
370
    18
100
AcDbCircle
 10
340.5504814907
 20
3947.3857552499
 30
0.0
 40
9.0
  0
LINE
  5
1E0
330
1F
100
AcDbEntity
  8
0
  6
HIDDEN
 62
     7
370
    18
100
AcDbLine
 10
1825.5504814907
 20
3829.3857552499
 30
0.0
 11
1890.5504814907
 21
3829.3857552499
 31
0.0
  0
LINE
  5
1E1
330
1F
100
AcDbEntity
  8
0
  6
HIDDEN
 62
     7
370
    18
100
AcDbLine
 10
1825.5504814907
 20
3884.3857552499
 30
0.0
 11
1825.5504814907
 21
3829.3857552499
 31
0.0
  0
LINE
  5
1E2
330
1F
100
AcDbEntity
  8
0
  6
HIDDEN
 62
     7
370
    18
100
AcDbLine
 10
355.5504814907
 20
3959.3857552499
 30
0.0
 11
295.5504814907
 21
3959.3857552499
 31
0.0
  0
LINE
  5
1E3
330
1F
100
AcDbEntity
  8
0
  6
HIDDEN
 62
     7
370
    18
100
AcDbLine
 10
355.5504814907
 20
3829.3857552499
 30
0.0
 11
355.5504814907
 21
3884.3857552499
 31
0.0
  0
LINE
  5
1E4
330
1F
100
AcDbEntity
  8
0
  6
HIDDEN
 62
     7
370
    18
100
AcDbLine
 10
355.5504814907
 20
3921.8857552499
 30
0.0
 11
355.5504814907
 21
3959.3857552499
 31
0.0
  0
LINE
  5
1E5
330
1F
100
AcDbEntity
  8
0
  6
HIDDEN
 62
     7
370
    18
100
AcDbLine
 10
290.5504814907
 20
3829.3857552499
 30
0.0
 11
355.5504814907
 21
3829.3857552499
 31
0.0
  0
LINE
  5
1E6
330
1F
100
AcDbEntity
  8
0
  6
HIDDEN
 62
     7
370
    18
100
AcDbLine
 10
2042.8504814907
 20
4867.3857552499
 30
0.0
 11
1138.2504814907
 21
4867.3857552499
 31
0.0
  0
LINE
  5
1E7
330
1F
100
AcDbEntity
  8
0
  6
HIDDEN
 62
     7
370
    18
100
AcDbLine
 10
2150.5504814907
 20
4127.0857552499
 30
0.0
 11
2150.5504814907
 21
4801.6857552499
 31
0.0
  0
LINE
  5
1E8
330
1F
100
AcDbEntity
  8
0
  6
HIDDEN
 62
     7
370
    18
100
AcDbLine
 10
451.5504814907
 20
3917.3857552499
 30
0.0
 11
489.5504814907
 21
3917.3857552499
 31
0.0
  0
LINE
  5
1E9
330
1F
100
AcDbEntity
  8
0
  6
HIDDEN
 62
     7
370
    18
100
AcDbLine
 10
315.5504814907
 20
3982.3857552499
 30
0.0
 11
645.5504814907
 21
3982.3857552499
 31
0.0
  0
LINE
  5
1EA
330
1F
100
AcDbEntity
  8
0
  6
HIDDEN
 62
     7
370
    18
100
AcDbLine
 10
2085.5504814907
 20
4127.0857552499
 30
0.0
 11
2085.5504814907
 21
4801.6857552499
 31
0.0
  0
LINE
  5
1EB
330
1F
100
AcDbEntity
  8
0
  6
HIDDEN
 62
     7
370
    18
100
AcDbLine
 10
1100.5504814907
 20
4802.3857552499
 30
0.0
 11
587.0504814907
 21
4802.3857552499
 31
0.0
  0
LINE
  5
1EC
330
1F
100
AcDbEntity
  8
0
  6
HIDDEN
 62
     7
370
    18
100
AcDbLine
 10
315.5504814907
 20
4220.8857552499
 30
0.0
 11
315.5504814907
 21
3982.3857552499
 31
0.0
  0
LINE
  5
1ED
330
1F
100
AcDbEntity
  8
0
  6
HIDDEN
 62
     7
370
    18
100
AcDbLine
 10
250.5504814907
 20
3959.3857552499
 30
0.0
 11
250.5504814907
 21
3917.3857552499
 31
0.0
  0
LINE
  5
1EE
330
1F
100
AcDbEntity
  8
0
  6
HIDDEN
 62
     7
370
    18
100
AcDbLine
 10
250.5504814907
 20
3917.3857552499
 30
0.0
 11
355.5504814907
 21
3917.3857552499
 31
0.0
  0
LINE
  5
1EF
330
1F
100
AcDbEntity
  8
0
  6
HIDDEN
 62
     7
370
    18
100
AcDbLine
 10
1825.5504814907
 20
3917.3857552499
 30
0.0
 11
1975.5504814907
 21
3917.3857552499
 31
0.0
  0
LINE
  5
1F0
330
1F
100
AcDbEntity
  8
0
  6
HIDDEN
 62
     7
370
    18
100
AcDbLine
 10
2091.5504814907
 20
4808.3857552499
 30
0.0
 11
309.5504814907
 21
4808.3857552499
 31
0.0
  0
LINE
  5
1F1
330
1F
100
AcDbEntity
  8
0
  6
HIDDEN
 62
     7
370
    18
100
AcDbLine
 10
2091.5504814907
 20
3976.3857552499
 30
0.0
 11
2091.5504814907
 21
4808.3857552499
 31
0.0
  0
LINE
  5
1F2
330
1F
100
AcDbEntity
  8
0
  6
HIDDEN
 62
     7
370
    18
100
AcDbLine
 10
309.5504814907
 20
4808.3857552499
 30
0.0
 11
309.5504814907
 21
3976.3857552499
 31
0.0
  0
LINE
  5
1F3
330
1F
100
AcDbEntity
  8
0
  6
HIDDEN
 62
     7
370
    18
100
AcDbLine
 10
309.5504814907
 20
3976.3857552499
 30
0.0
 11
2091.5504814907
 21
3976.3857552499
 31
0.0
  0
CIRCLE
  5
1F4
330
1F
100
AcDbEntity
  8
0
  6
HIDDEN
 62
     7
370
    18
100
AcDbCircle
 10
2085.5504814907
 20
4834.8857552499
 30
0.0
 40
17.50000000000091
  0
CIRCLE
  5
1F5
330
1F
100
AcDbEntity
  8
0
  6
HIDDEN
 62
     7
370
    18
100
AcDbCircle
 10
315.5504814907
 20
4834.8857552499
 30
0.0
 40
17.50000000000091
  0
CIRCLE
  5
1F6
330
1F
100
AcDbEntity
  8
0
  6
HIDDEN
 62
     7
370
    18
100
AcDbCircle
 10
2085.5504814907
 20
3949.8857552499
 30
0.0
 40
17.49999999999955
  0
CIRCLE
  5
1F7
330
1F
100
AcDbEntity
  8
0
  6
HIDDEN
 62
     7
370
    18
100
AcDbCircle
 10
315.5504814907
 20
3949.8857552499
 30
0.0
 40
17.49999999999955
  0
LINE
  5
1F8
330
1F
100
AcDbEntity
  8
0
  6
HIDDEN
 62
     7
370
    18
100
AcDbLine
 10
628.1994895797
 20
4801.6857552499
 30
0.0
 11
628.1994895797
 21
4127.0857552499
 31
0.0
  0
LINE
  5
1F9
330
1F
100
AcDbEntity
  8
0
  6
HIDDEN
 62
     7
370
    18
100
AcDbLine
 10
1556.1504814907
 20
4127.0857552499
 30
0.0
 11
1556.1504814907
 21
4801.6857552499
 31
0.0
  0
LINE
  5
1FA
330
1F
100
AcDbEntity
  8
0
  6
HIDDEN
 62
     7
370
    18
100
AcDbLine
 10
628.1994895797
 20
4801.6857552499
 30
0.0
 11
1556.1504814907
 21
4801.6857552499
 31
0.0
  0
LINE
  5
1FB
330
1F
100
AcDbEntity
  8
0
  6
HIDDEN
 62
     7
370
    18
100
AcDbLine
 10
628.1994895797
 20
4127.0857552499
 30
0.0
 11
1556.1504814907
 21
4127.0857552499
 31
0.0
  0
LINE
  5
1FC
330
1F
100
AcDbEntity
  8
0
  6
HIDDEN
 62
     7
370
    18
100
AcDbLine
 10
1597.0504814907
 20
4127.0857552499
 30
0.0
 11
1556.1504814907
 21
4127.0857552499
 31
0.0
  0
LINE
  5
1FD
330
1F
100
AcDbEntity
  8
0
  6
HIDDEN
 62
     7
370
    18
100
AcDbLine
 10
1597.0504814907
 20
4801.6857552499
 30
0.0
 11
1556.1504814907
 21
4801.6857552499
 31
0.0
  0
LINE
  5
1FE
330
1F
100
AcDbEntity
  8
0
  6
HIDDEN
 62
     7
370
    18
100
AcDbLine
 10
2233.5504814907
 20
4129.3857552499
 30
0.0
 11
2233.5504814907
 21
4799.3857552499
 31
0.0
  0
LINE
  5
1FF
330
1F
100
AcDbEntity
  8
0
  6
HIDDEN
 62
     7
370
    18
100
AcDbLine
 10
2233.5504814907
 20
4129.3857552499
 30
0.0
 11
1644.0504814907
 21
4129.3857552499
 31
0.0
  0
LINE
  5
200
330
1F
100
AcDbEntity
  8
0
  6
HIDDEN
 62
     7
370
    18
100
AcDbLine
 10
2233.5504814907
 20
4799.3857552499
 30
0.0
 11
1644.0504814907
 21
4799.3857552499
 31
0.0
  0
LINE
  5
201
330
1F
100
AcDbEntity
  8
0
  6
HIDDEN
 62
     7
370
    18
100
AcDbLine
 10
1644.0504814907
 20
4129.3857552499
 30
0.0
 11
1554.5504814907
 21
4129.3857552499
 31
0.0
  0
LINE
  5
202
330
1F
100
AcDbEntity
  8
0
  6
HIDDEN
 62
     7
370
    18
100
AcDbLine
 10
1644.0504814907
 20
4799.3857552499
 30
0.0
 11
1554.5504814907
 21
4799.3857552499
 31
0.0
  0
LINE
  5
203
330
1F
100
AcDbEntity
  8
0
  6
HIDDEN
 62
     7
370
    18
100
AcDbLine
 10
1597.0504814907
 20
4802.3857552499
 30
0.0
 11
1100.5504814907
 21
4802.3857552499
 31
0.0
  0
LINE
  5
204
330
1F
100
AcDbEntity
  8
0
  6
HIDDEN
 62
     7
370
    18
100
AcDbLine
 10
613.0504814907
 20
4087.3857552499
 30
0.0
 11
613.0504814907
 21
4291.3857552499
 31
0.0
  0
LINE
  5
205
330
1F
100
AcDbEntity
  8
0
  6
HIDDEN
 62
     7
370
    18
100
AcDbLine
 10
489.5504814907
 20
3841.8857552499
 30
0.0
 11
489.5504814907
 21
3884.3857552499
 31
0.0
  0
LINE
  5
206
330
1F
100
AcDbEntity
  8
0
  6
HIDDEN
 62
     7
370
    18
100
AcDbLine
 10
451.5504814907
 20
3884.3857552499
 30
0.0
 11
451.5504814907
 21
3841.8857552499
 31
0.0
  0
LINE
  5
207
330
1F
100
AcDbEntity
  8
0
  6
HIDDEN
 62
     7
370
    18
100
AcDbLine
 10
545.5504814907
 20
3766.8857552499
 30
0.0
 11
545.5504814907
 21
3841.8857552499
 31
0.0
  0
LINE
  5
208
330
1F
100
AcDbEntity
  8
0
  6
HIDDEN
 62
     7
370
    18
100
AcDbLine
 10
395.5504814907
 20
3841.8857552499
 30
0.0
 11
395.5504814907
 21
3766.8857552499
 31
0.0
  0
LINE
  5
209
330
1F
100
AcDbEntity
  8
0
  6
HIDDEN
 62
     7
370
    18
100
AcDbLine
 10
1703.0504814907
 20
3766.8857552499
 30
0.0
 11
1703.0504814907
 21
3841.8857552499
 31
0.0
  0
LINE
  5
20A
330
1F
100
AcDbEntity
  8
0
  6
HIDDEN
 62
     7
370
    18
100
AcDbLine
 10
1478.0504814907
 20
3841.8857552499
 30
0.0
 11
1478.0504814907
 21
3766.8857552499
 31
0.0
  0
LINE
  5
20B
330
1F
100
AcDbEntity
  8
0
  6
HIDDEN
 62
     7
370
    18
100
AcDbLine
 10
1100.5504814907
 20
4802.3857552499
 30
0.0
 11
1100.5504814907
 21
4801.6857552499
 31
0.0
  0
LINE
  5
20C
330
1F
100
AcDbEntity
  8
0
  6
HIDDEN
 62
     7
370
    18
100
AcDbLine
 10
1493.370304338
 20
4882.3857552499
 30
0.0
 11
1493.370304338
 21
4880.0857552499
 31
0.0
  0
LINE
  5
20D
330
1F
100
AcDbEntity
  8
0
  6
HIDDEN
 62
     7
370
    18
100
AcDbLine
 10
1503.370304338
 20
4880.0857552499
 30
0.0
 11
1503.370304338
 21
4882.3857552499
 31
0.0
  0
LINE
  5
20E
330
1F
100
AcDbEntity
  8
0
  6
HIDDEN
 62
     7
370
    18
100
AcDbLine
 10
1677.7306586433
 20
4882.3857552499
 30
0.0
 11
1677.7306586433
 21
4880.0857552499
 31
0.0
  0
LINE
  5
20F
330
1F
100
AcDbEntity
  8
0
  6
HIDDEN
 62
     7
370
    18
100
AcDbLine
 10
1687.7306586433
 20
4880.0857552499
 30
0.0
 11
1687.7306586433
 21
4882.3857552499
 31
0.0
  0
LINE
  5
210
330
1F
100
AcDbEntity
  8
0
  6
HIDDEN
 62
     7
370
    18
100
AcDbLine
 10
1138.2504814907
 20
4841.3857552499
 30
0.0
 11
1138.2504814907
 21
4802.3857552499
 31
0.0
  0
LINE
  5
211
330
1F
100
AcDbEntity
  8
0
  6
HIDDEN
 62
     7
370
    18
100
AcDbLine
 10
2040.5504814907
 20
4799.3857552499
 30
0.0
 11
2040.5504814907
 21
4882.3857552499
 31
0.0
  0
LINE
  5
212
330
1F
100
AcDbEntity
  8
0
  6
HIDDEN
 62
     7
370
    18
100
AcDbLine
 10
1140.5504814907
 20
4882.3857552499
 30
0.0
 11
1140.5504814907
 21
4799.3857552499
 31
0.0
  0
LINE
  5
213
330
1F
100
AcDbEntity
  8
0
  6
HIDDEN
 62
     7
370
    18
100
AcDbLine
 10
1323.0435463889
 20
4882.3857552499
 30
0.0
 11
1323.0435463889
 21
4880.0857552499
 31
0.0
  0
LINE
  5
214
330
1F
100
AcDbEntity
  8
0
  6
HIDDEN
 62
     7
370
    18
100
AcDbLine
 10
1333.0435463889
 20
4880.0857552499
 30
0.0
 11
1333.0435463889
 21
4882.3857552499
 31
0.0
  0
LINE
  5
215
330
1F
100
AcDbEntity
  8
0
  6
HIDDEN
 62
     7
370
    18
100
AcDbLine
 10
1848.0574165924
 20
4882.3857552499
 30
0.0
 11
1848.0574165924
 21
4880.0857552499
 31
0.0
  0
LINE
  5
216
330
1F
100
AcDbEntity
  8
0
  6
HIDDEN
 62
     7
370
    18
100
AcDbLine
 10
1858.0574165924
 20
4880.0857552499
 30
0.0
 11
1858.0574165924
 21
4882.3857552499
 31
0.0
  0
LINE
  5
217
330
1F
100
AcDbEntity
  8
0
  6
HIDDEN
 62
     7
370
    18
100
AcDbLine
 10
1192.6810896777
 20
4882.3857552499
 30
0.0
 11
1192.6810896777
 21
4880.0857552499
 31
0.0
  0
LINE
  5
218
330
1F
100
AcDbEntity
  8
0
  6
HIDDEN
 62
     7
370
    18
100
AcDbLine
 10
1202.6810896777
 20
4880.0857552499
 30
0.0
 11
1202.6810896777
 21
4882.3857552499
 31
0.0
  0
LINE
  5
219
330
1F
100
AcDbEntity
  8
0
  6
HIDDEN
 62
     7
370
    18
100
AcDbLine
 10
1978.4198733036
 20
4882.3857552499
 30
0.0
 11
1978.4198733036
 21
4880.0857552499
 31
0.0
  0
LINE
  5
21A
330
1F
100
AcDbEntity
  8
0
  6
HIDDEN
 62
     7
370
    18
100
AcDbLine
 10
1988.4198733036
 20
4880.0857552499
 30
0.0
 11
1988.4198733036
 21
4882.3857552499
 31
0.0
  0
LINE
  5
21B
330
1F
100
AcDbEntity
  8
0
  6
HIDDEN
 62
     7
370
    18
100
AcDbLine
 10
2048.9715264812
 20
4882.3857552499
 30
0.0
 11
2048.9715264812
 21
4880.0857552499
 31
0.0
  0
LINE
  5
21C
330
1F
100
AcDbEntity
  8
0
  6
HIDDEN
 62
     7
370
    18
100
AcDbLine
 10
2058.9715264812
 20
4880.0857552499
 30
0.0
 11
2058.9715264812
 21
4882.3857552499
 31
0.0
  0
LINE
  5
21D
330
1F
100
AcDbEntity
  8
0
  6
HIDDEN
 62
     7
370
    18
100
AcDbLine
 10
1122.1294365001
 20
4882.3857552499
 30
0.0
 11
1122.1294365001
 21
4880.0857552499
 31
0.0
  0
LINE
  5
21E
330
1F
100
AcDbEntity
  8
0
  6
HIDDEN
 62
     7
370
    18
100
AcDbLine
 10
1132.1294365001
 20
4880.0857552499
 30
0.0
 11
1132.1294365001
 21
4882.3857552499
 31
0.0
  0
CIRCLE
  5
21F
330
1F
100
AcDbEntity
  8
基礎穴
100
AcDbCircle
 10
340.5504814907
 20
3947.3857552499
 30
0.0
 40
8.999999999999872
  0
CIRCLE
  5
220
330
1F
100
AcDbEntity
  8
基礎穴
100
AcDbCircle
 10
1200.5504814907
 20
3947.3857552499
 30
0.0
 40
9.000000000000089
  0
CIRCLE
  5
221
330
1F
100
AcDbEntity
  8
基礎穴
100
AcDbCircle
 10
2060.5504814907
 20
3947.3857552499
 30
0.0
 40
8.999999999999872
  0
CIRCLE
  5
222
330
1F
100
AcDbEntity
  8
基礎穴
100
AcDbCircle
 10
2060.5504814907
 20
4837.3857552499
 30
0.0
 40
8.999999999999872
  0
CIRCLE
  5
223
330
1F
100
AcDbEntity
  8
基礎穴
100
AcDbCircle
 10
1200.5504814907
 20
4837.3857552499
 30
0.0
 40
9.000000000000089
  0
CIRCLE
  5
224
330
1F
100
AcDbEntity
  8
基礎穴
100
AcDbCircle
 10
340.5504814907
 20
4837.3857552499
 30
0.0
 40
8.999999999999872
  0
LINE
  5
225
330
1F
100
AcDbEntity
  8
2
100
AcDbLine
 10
1092.0504814907
 20
4190.1869919197
 30
0.0
 11
1092.0504814907
 21
4671.2632956068
 31
0.0
  0
LINE
  5
226
330
1F
100
AcDbEntity
  8
2
100
AcDbLine
 10
860.2504814907
 20
4464.38575525
 30
0.0
 11
1916.0110941263
 21
4464.38575525
 31
0.0
  0
LINE
  5
227
330
1F
100
AcDbEntity
  8
2
100
AcDbLine
 10
1590.5504814907
 20
3922.494317946
 30
0.0
 11
1590.5504814907
 21
4690.2989532979
 31
0.0
  0
ENDSEC
  0
SECTION
  2
OBJECTS
  0
DICTIONARY
  5
C
330
0
100
AcDbDictionary
281
     1
  3
ACAD_GROUP
350
D
  3
ACAD_LAYOUT
350
1A
  3
ACAD_MLINESTYLE
350
17
  3
ACAD_PLOTSETTINGS
350
19
  3
ACAD_PLOTSTYLENAME
350
E
  3
ACAD_SCALELIST
350
47
  3
DWGPROPS
350
228
  0
DICTIONARY
  5
D
102
{ACAD_REACTORS
330
C
102
}
330
C
100
AcDbDictionary
281
     1
  0
DICTIONARY
  5
1A
102
{ACAD_REACTORS
330
C
102
}
330
C
100
AcDbDictionary
281
     1
  3
Layout1
350
1E
  3
Layout2
350
26
  3
Model
350
22
  0
DICTIONARY
  5
17
102
{ACAD_REACTORS
330
C
102
}
330
C
100
AcDbDictionary
281
     1
  3
Standard
350
18
  0
DICTIONARY
  5
19
102
{ACAD_REACTORS
330
C
102
}
330
C
100
AcDbDictionary
281
     1
  0
ACDBDICTIONARYWDFLT
  5
E
102
{ACAD_REACTORS
330
C
102
}
330
C
100
AcDbDictionary
281
     1
  3
Normal
350
F
100
AcDbDictionaryWithDefault
340
F
  0
DICTIONARY
  5
47
102
{ACAD_REACTORS
330
C
102
}
330
C
100
AcDbDictionary
281
     1
  3
A0
350
48
  3
A1
350
49
  3
A2
350
4A
  3
A3
350
4B
  3
A4
350
4C
  3
A5
350
4D
  3
A6
350
4E
  3
A7
350
4F
  3
A8
350
50
  3
A9
350
51
  3
B0
350
52
  3
B1
350
53
  3
B2
350
54
  3
B3
350
55
  3
B4
350
56
  3
B5
350
57
  3
B6
350
58
  0
XRECORD
  5
228
102
{ACAD_REACTORS
330
C
102
}
330
C
100
AcDbXrecord
280
     1
  1
DWGPROPS COOKIE
  2

  3

  4

  6

  7

  8
yuta.kunimatsu
  9

300
=
301
=
302
=
303
=
304
=
305
=
306
=
307
=
308
=
309
=
 40
0.0
 41
2460153.266394792
 42
2460153.266395336
  1

 90
        0
  0
LAYOUT
  5
1E
102
{ACAD_REACTORS
330
1A
102
}
330
1A
100
AcDbPlotSettings
  1

  2
none_device
  4

  6

 40
0.0
 41
0.0
 42
0.0
 43
0.0
 44
0.0
 45
0.0
 46
0.0
 47
0.0
 48
0.0
 49
0.0
140
0.0
141
0.0
142
1.0
143
1.0
 70
   688
 72
     1
 73
     0
 74
     5
  7

 75
    16
147
1.0
148
0.0
149
0.0
100
AcDbLayout
  1
Layout1
 70
     1
 71
     1
 10
0.0
 20
0.0
 11
420.0
 21
297.0
 12
0.0
 22
0.0
 32
0.0
 14
1.0000000000E+20
 24
1.0000000000E+20
 34
1.0000000000E+20
 15
-1.0000000000E+20
 25
-1.0000000000E+20
 35
-1.0000000000E+20
146
0.0
 13
0.0
 23
0.0
 33
0.0
 16
1.0
 26
0.0
 36
0.0
 17
0.0
 27
1.0
 37
0.0
 76
     0
330
1B
  0
LAYOUT
  5
26
102
{ACAD_REACTORS
330
1A
102
}
330
1A
100
AcDbPlotSettings
  1

  2
none_device
  4

  6

 40
0.0
 41
0.0
 42
0.0
 43
0.0
 44
0.0
 45
0.0
 46
0.0
 47
0.0
 48
0.0
 49
0.0
140
0.0
141
0.0
142
1.0
143
1.0
 70
   688
 72
     1
 73
     0
 74
     5
  7

 75
    16
147
1.0
148
0.0
149
0.0
100
AcDbLayout
  1
Layout2
 70
     1
 71
     2
 10
0.0
 20
0.0
 11
0.0
 21
0.0
 12
0.0
 22
0.0
 32
0.0
 14
0.0
 24
0.0
 34
0.0
 15
0.0
 25
0.0
 35
0.0
146
0.0
 13
0.0
 23
0.0
 33
0.0
 16
1.0
 26
0.0
 36
0.0
 17
0.0
 27
1.0
 37
0.0
 76
     0
330
23
  0
LAYOUT
  5
22
102
{ACAD_REACTORS
330
1A
102
}
330
1A
100
AcDbPlotSettings
  1

  2
none_device
  4
Letter_(8.50_x_11.00_Inches)
  6

 40
6.35
 41
6.35
 42
6.35000508
 43
6.35000508
 44
215.9
 45
279.4
 46
0.0
 47
0.0
 48
0.0
 49
0.0
140
0.0
141
0.0
142
1.0
143
1.0
 70
  1712
 72
     1
 73
     0
 74
     0
  7

 75
     0
147
1.0
148
0.0
149
0.0
100
AcDbLayout
  1
Model
 70
     1
 71
     0
 10
0.0
 20
0.0
 11
4200.0
 21
5940.0
 12
0.0
 22
0.0
 32
0.0
 14
0.0
 24
0.0
 34
0.0
 15
4200.0
 25
5940.0
 35
0.0
146
0.0
 13
0.0
 23
0.0
 33
0.0
 16
1.0
 26
0.0
 36
0.0
 17
0.0
 27
1.0
 37
0.0
 76
     0
330
1F
331
29
  0
MLINESTYLE
  5
18
102
{ACAD_REACTORS
330
17
102
}
330
17
100
AcDbMlineStyle
  2
Standard
 70
     0
  3

 62
   256
 51
90.0
 52
90.0
 71
     2
 49
0.5
 62
   256
  6
BYLAYER
 49
-0.5
 62
   256
  6
BYLAYER
  0
ACDBPLACEHOLDER
  5
F
102
{ACAD_REACTORS
330
E
102
}
330
E
  0
SCALE
  5
48
102
{ACAD_REACTORS
330
47
102
}
330
47
100
AcDbScale
 70
     0
300
1:1
140
1.0
141
1.0
290
     1
  0
SCALE
  5
49
102
{ACAD_REACTORS
330
47
102
}
330
47
100
AcDbScale
 70
     0
300
1:2
140
1.0
141
2.0
290
     0
  0
SCALE
  5
4A
102
{ACAD_REACTORS
330
47
102
}
330
47
100
AcDbScale
 70
     0
300
1:4
140
1.0
141
4.0
290
     0
  0
SCALE
  5
4B
102
{ACAD_REACTORS
330
47
102
}
330
47
100
AcDbScale
 70
     0
300
1:5
140
1.0
141
5.0
290
     0
  0
SCALE
  5
4C
102
{ACAD_REACTORS
330
47
102
}
330
47
100
AcDbScale
 70
     0
300
1:8
140
1.0
141
8.0
290
     0
  0
SCALE
  5
4D
102
{ACAD_REACTORS
330
47
102
}
330
47
100
AcDbScale
 70
     0
300
1:10
140
1.0
141
10.0
290
     0
  0
SCALE
  5
4E
102
{ACAD_REACTORS
330
47
102
}
330
47
100
AcDbScale
 70
     0
300
1:16
140
1.0
141
16.0
290
     0
  0
SCALE
  5
4F
102
{ACAD_REACTORS
330
47
102
}
330
47
100
AcDbScale
 70
     0
300
1:20
140
1.0
141
20.0
290
     0
  0
SCALE
  5
50
102
{ACAD_REACTORS
330
47
102
}
330
47
100
AcDbScale
 70
     0
300
1:30
140
1.0
141
30.0
290
     0
  0
SCALE
  5
51
102
{ACAD_REACTORS
330
47
102
}
330
47
100
AcDbScale
 70
     0
300
1:40
140
1.0
141
40.0
290
     0
  0
SCALE
  5
52
102
{ACAD_REACTORS
330
47
102
}
330
47
100
AcDbScale
 70
     0
300
1:50
140
1.0
141
50.0
290
     0
  0
SCALE
  5
53
102
{ACAD_REACTORS
330
47
102
}
330
47
100
AcDbScale
 70
     0
300
1:100
140
1.0
141
100.0
290
     0
  0
SCALE
  5
54
102
{ACAD_REACTORS
330
47
102
}
330
47
100
AcDbScale
 70
     0
300
2:1
140
2.0
141
1.0
290
     0
  0
SCALE
  5
55
102
{ACAD_REACTORS
330
47
102
}
330
47
100
AcDbScale
 70
     0
300
4:1
140
4.0
141
1.0
290
     0
  0
SCALE
  5
56
102
{ACAD_REACTORS
330
47
102
}
330
47
100
AcDbScale
 70
     0
300
8:1
140
8.0
141
1.0
290
     0
  0
SCALE
  5
57
102
{ACAD_REACTORS
330
47
102
}
330
47
100
AcDbScale
 70
     0
300
10:1
140
10.0
141
1.0
290
     0
  0
SCALE
  5
58
102
{ACAD_REACTORS
330
47
102
}
330
47
100
AcDbScale
 70
     0
300
100:1
140
100.0
141
1.0
290
     0
  0
ENDSEC
  0
EOF
