  0
SECTION
  2
HEADER
  9
$ACADVER
  1
AC1015
  9
$ACADMAINTVER
 70
     6
  9
$DWGCODEPAGE
  3
DOS932
  9
$INSBASE
 10
0.0
 20
0.0
 30
0.0
  9
$EXTMIN
 10
0.0
 20
0.0
 30
0.0
  9
$EXTMAX
 10
4200.0
 20
5940.0
 30
0.0
  9
$LIMMIN
 10
0.0
 20
0.0
  9
$LIMMAX
 10
4200.0
 20
5940.0
  9
$ORTHOMODE
 70
     0
  9
$REGENMODE
 70
     1
  9
$FILLMODE
 70
     1
  9
$QTEXTMODE
 70
     0
  9
$MIRRTEXT
 70
     1
  9
$LTSCALE
 40
20.0
  9
$ATTMODE
 70
     1
  9
$TEXTSIZE
 40
70.5555555556
  9
$TRACEWID
 40
1.0
  9
$TEXTSTYLE
  7
Standard
  9
$CLAYER
  8
0
  9
$CELTYPE
  6
ByLayer
  9
$CECOLOR
 62
   256
  9
$CELTSCALE
 40
1.0
  9
$DISPSILH
 70
     0
  9
$DIMSCALE
 40
1.0
  9
$DIMASZ
 40
30.0
  9
$DIMEXO
 40
20.0
  9
$DIMDLI
 40
3.75
  9
$DIMRND
 40
0.0
  9
$DIMDLE
 40
0.0
  9
$DIMEXE
 40
20.0
  9
$DIMTP
 40
0.0
  9
$DIMTM
 40
0.0
  9
$DIMTXT
 40
70.5555555556
  9
$DIMCEN
 40
2.5
  9
$DIMTSZ
 40
0.0
  9
$DIMTOL
 70
     0
  9
$DIMLIM
 70
     0
  9
$DIMTIH
 70
     1
  9
$DIMTOH
 70
     1
  9
$DIMSE1
 70
     0
  9
$DIMSE2
 70
     0
  9
$DIMTAD
 70
     1
  9
$DIMZIN
 70
     0
  9
$DIMBLK
  1

  9
$DIMASO
 70
     1
  9
$DIMSHO
 70
     1
  9
$DIMPOST
  1

  9
$DIMAPOST
  1

  9
$DIMALT
 70
     0
  9
$DIMALTD
 70
     3
  9
$DIMALTF
 40
0.0393700787
  9
$DIMLFAC
 40
1.0
  9
$DIMTOFL
 70
     1
  9
$DIMTVP
 40
0.0
  9
$DIMTIX
 70
     0
  9
$DIMSOXD
 70
     0
  9
$DIMSAH
 70
     0
  9
$DIMBLK1
  1

  9
$DIMBLK2
  1

  9
$DIMSTYLE
  2
ISO-25
  9
$DIMCLRD
 70
     0
  9
$DIMCLRE
 70
     0
  9
$DIMCLRT
 70
     0
  9
$DIMTFAC
 40
1.0
  9
$DIMGAP
 40
30.48
  9
$DIMJUST
 70
     0
  9
$DIMSD1
 70
     0
  9
$DIMSD2
 70
     0
  9
$DIMTOLJ
 70
     0
  9
$DIMTZIN
 70
     0
  9
$DIMALTZ
 70
     0
  9
$DIMALTTZ
 70
     0
  9
$DIMUPT
 70
     0
  9
$DIMDEC
 70
     0
  9
$DIMTDEC
 70
     0
  9
$DIMALTU
 70
     2
  9
$DIMALTTD
 70
     3
  9
$DIMTXSTY
  7
Standard
  9
$DIMAUNIT
 70
     0
  9
$DIMADEC
 70
     2
  9
$DIMALTRND
 40
0.0
  9
$DIMAZIN
 70
     0
  9
$DIMDSEP
 70
    44
  9
$DIMATFIT
 70
     3
  9
$DIMFRAC
 70
     0
  9
$DIMLDRBLK
  1

  9
$DIMLUNIT
 70
     2
  9
$DIMLWD
 70
    -2
  9
$DIMLWE
 70
    -2
  9
$DIMTMOVE
 70
     0
  9
$LUNITS
 70
     2
  9
$LUPREC
 70
     2
  9
$SKETCHINC
 40
1.0
  9
$FILLETRAD
 40
0.0
  9
$AUNITS
 70
     0
  9
$AUPREC
 70
     2
  9
$MENU
  1
.
  9
$ELEVATION
 40
0.0
  9
$PELEVATION
 40
0.0
  9
$THICKNESS
 40
0.0
  9
$LIMCHECK
 70
     0
  9
$CHAMFERA
 40
0.0
  9
$CHAMFERB
 40
0.0
  9
$CHAMFERC
 40
0.0
  9
$CHAMFERD
 40
0.0
  9
$SKPOLY
 70
     0
  9
$TDCREATE
 40
2460153.640945567
  9
$TDUCREATE
 40
2460153.265945567
  9
$TDUPDATE
 40
2460153.640946019
  9
$TDUUPDATE
 40
2460153.265946019
  9
$TDINDWG
 40
0.0000000116
  9
$TDUSRTIMER
 40
0.0000000116
  9
$USRTIMER
 70
     1
  9
$ANGBASE
 50
0.0
  9
$ANGDIR
 70
     0
  9
$PDMODE
 70
     0
  9
$PDSIZE
 40
-1.0
  9
$PLINEWID
 40
0.0
  9
$SPLFRAME
 70
     0
  9
$SPLINETYPE
 70
     6
  9
$SPLINESEGS
 70
     8
  9
$HANDSEED
  5
22A
  9
$SURFTAB1
 70
     6
  9
$SURFTAB2
 70
     6
  9
$SURFTYPE
 70
     6
  9
$SURFU
 70
     6
  9
$SURFV
 70
     6
  9
$UCSBASE
  2

  9
$UCSNAME
  2

  9
$UCSORG
 10
0.0
 20
0.0
 30
0.0
  9
$UCSXDIR
 10
1.0
 20
0.0
 30
0.0
  9
$UCSYDIR
 10
0.0
 20
1.0
 30
0.0
  9
$UCSORTHOREF
  2

  9
$UCSORTHOVIEW
 70
     0
  9
$UCSORGTOP
 10
0.0
 20
0.0
 30
0.0
  9
$UCSORGBOTTOM
 10
0.0
 20
0.0
 30
0.0
  9
$UCSORGLEFT
 10
0.0
 20
0.0
 30
0.0
  9
$UCSORGRIGHT
 10
0.0
 20
0.0
 30
0.0
  9
$UCSORGFRONT
 10
0.0
 20
0.0
 30
0.0
  9
$UCSORGBACK
 10
0.0
 20
0.0
 30
0.0
  9
$PUCSBASE
  2

  9
$PUCSNAME
  2

  9
$PUCSORG
 10
0.0
 20
0.0
 30
0.0
  9
$PUCSXDIR
 10
1.0
 20
0.0
 30
0.0
  9
$PUCSYDIR
 10
0.0
 20
1.0
 30
0.0
  9
$PUCSORTHOREF
  2

  9
$PUCSORTHOVIEW
 70
     0
  9
$PUCSORGTOP
 10
0.0
 20
0.0
 30
0.0
  9
$PUCSORGBOTTOM
 10
0.0
 20
0.0
 30
0.0
  9
$PUCSORGLEFT
 10
0.0
 20
0.0
 30
0.0
  9
$PUCSORGRIGHT
 10
0.0
 20
0.0
 30
0.0
  9
$PUCSORGFRONT
 10
0.0
 20
0.0
 30
0.0
  9
$PUCSORGBACK
 10
0.0
 20
0.0
 30
0.0
  9
$USERI1
 70
     0
  9
$USERI2
 70
     0
  9
$USERI3
 70
     0
  9
$USERI4
 70
     0
  9
$USERI5
 70
     0
  9
$USERR1
 40
0.0
  9
$USERR2
 40
0.0
  9
$USERR3
 40
0.0
  9
$USERR4
 40
0.0
  9
$USERR5
 40
0.0
  9
$WORLDVIEW
 70
     1
  9
$SHADEDGE
 70
     3
  9
$SHADEDIF
 70
    70
  9
$TILEMODE
 70
     1
  9
$MAXACTVP
 70
    64
  9
$PINSBASE
 10
0.0
 20
0.0
 30
0.0
  9
$PLIMCHECK
 70
     0
  9
$PEXTMIN
 10
1.0000000000E+20
 20
1.0000000000E+20
 30
1.0000000000E+20
  9
$PEXTMAX
 10
-1.0000000000E+20
 20
-1.0000000000E+20
 30
-1.0000000000E+20
  9
$PLIMMIN
 10
0.0
 20
0.0
  9
$PLIMMAX
 10
420.0
 20
297.0
  9
$UNITMODE
 70
     0
  9
$VISRETAIN
 70
     1
  9
$PLINEGEN
 70
     0
  9
$PSLTSCALE
 70
     1
  9
$TREEDEPTH
 70
  3020
  9
$CMLSTYLE
  2
Standard
  9
$CMLJUST
 70
     0
  9
$CMLSCALE
 40
20.0
  9
$PROXYGRAPHICS
 70
     1
  9
$MEASUREMENT
 70
     1
  9
$CELWEIGHT
370
    -1
  9
$ENDCAPS
280
     0
  9
$JOINSTYLE
280
     0
  9
$LWDISPLAY
290
     1
  9
$INSUNITS
 70
     4
  9
$HYPERLINKBASE
  1

  9
$STYLESHEET
  1

  9
$XEDIT
290
     1
  9
$CEPSNTYPE
380
     0
  9
$PSTYLEMODE
290
     1
  9
$FINGERPRINTGUID
  2
{22eb416b-56fd-4cca-90dc-ec329d3cbf61}
  9
$VERSIONGUID
  2
{FAEB1C32-E019-11D5-929B-00C0DF256EC4}
  9
$EXTNAMES
290
     1
  9
$PSVPSCALE
 40
0.0
  9
$OLESTARTUP
290
     0
  0
ENDSEC
  0
SECTION
  2
CLASSES
  0
CLASS
  1
ACDBDICTIONARYWDFLT
  2
AcDbDictionaryWithDefault
  3
ObjectDBX Classes
 90
        0
280
     0
281
     0
  0
CLASS
  1
VISUALSTYLE
  2
AcDbVisualStyle
  3
ObjectDBX Classes
 90
     4095
280
     0
281
     0
  0
CLASS
  1
MATERIAL
  2
AcDbMaterial
  3
ObjectDBX Classes
 90
     1153
280
     0
281
     0
  0
CLASS
  1
SCALE
  2
AcDbScale
  3
ObjectDBX Classes
 90
     1153
280
     0
281
     0
  0
CLASS
  1
TABLESTYLE
  2
AcDbTableStyle
  3
ObjectDBX Classes
 90
     4095
280
     0
281
     0
  0
CLASS
  1
MLEADERSTYLE
  2
AcDbMLeaderStyle
  3
ACDB_MLEADERSTYLE_CLASS
 90
     4095
280
     0
281
     0
  0
CLASS
  1
SUN
  2
AcDbSun
  3
SCENEOE
 90
     1153
280
     0
281
     0
  0
CLASS
  1
ACDBPLACEHOLDER
  2
AcDbPlaceHolder
  3
ObjectDBX Classes
 90
        0
280
     0
281
     0
  0
CLASS
  1
LAYOUT
  2
AcDbLayout
  3
ObjectDBX Classes
 90
        0
280
     0
281
     0
  0
ENDSEC
  0
SECTION
  2
TABLES
  0
TABLE
  2
VPORT
  5
8
330
0
100
AcDbSymbolTable
 70
     1
  0
VPORT
  5
29
330
8
100
AcDbSymbolTableRecord
100
AcDbViewportTableRecord
  2
*Active
 70
     0
 10
0.0
 20
0.0
 11
1.0
 21
1.0
 12
2100.0
 22
2970.0
 13
0.0
 23
0.0
 14
10.0
 24
10.0
 15
10.0
 25
10.0
 16
0.0
 26
0.0
 36
1.0
 17
0.0
 27
0.0
 37
0.0
 40
5940.0
 41
0.7070707071
 42
50.0
 43
0.0
 44
0.0
 50
0.0
 51
0.0
 71
     0
 72
  2000
 73
     1
 74
     3
 75
     0
 76
     0
 77
     0
 78
     0
281
     0
 65
     1
110
0.0
120
0.0
130
0.0
111
1.0
121
0.0
131
0.0
112
0.0
122
1.0
132
0.0
 79
     0
146
0.0
  0
ENDTAB
  0
TABLE
  2
LTYPE
  5
5
330
0
100
AcDbSymbolTable
 70
     6
  0
LTYPE
  5
14
330
5
100
AcDbSymbolTableRecord
100
AcDbLinetypeTableRecord
  2
ByBlock
 70
     0
  3

 72
    65
 73
     0
 40
0.0
  0
LTYPE
  5
15
330
5
100
AcDbSymbolTableRecord
100
AcDbLinetypeTableRecord
  2
ByLayer
 70
     0
  3

 72
    65
 73
     0
 40
0.0
  0
LTYPE
  5
16
330
5
100
AcDbSymbolTableRecord
100
AcDbLinetypeTableRecord
  2
Continuous
 70
     0
  3
Solid line
 72
    65
 73
     0
 40
0.0
  0
LTYPE
  5
5E
330
5
100
AcDbSymbolTableRecord
100
AcDbLinetypeTableRecord
  2
HIDDEN
 70
     0
  3
Hidden __ __ __ __ __ __ __ __ __ __ __ __ __ __
 72
    65
 73
     2
 40
1.905
 49
1.27
 74
     0
 49
-0.635
 74
     0
  0
LTYPE
  5
5F
330
5
100
AcDbSymbolTableRecord
100
AcDbLinetypeTableRecord
  2
PHANTOM
 70
     0
  3
Phantom ______  __  __  ______  __  __  ______
 72
    65
 73
     6
 40
12.7
 49
6.35
 74
     0
 49
-1.27
 74
     0
 49
1.27
 74
     0
 49
-1.27
 74
     0
 49
1.27
 74
     0
 49
-1.27
 74
     0
  0
LTYPE
  5
60
330
5
100
AcDbSymbolTableRecord
100
AcDbLinetypeTableRecord
  2
CENTER
 70
     0
  3
Center ____ _ ____ _ ____ _ ____ _ ____ _ ____
 72
    65
 73
     4
 40
10.16
 49
6.35
 74
     0
 49
-1.27
 74
     0
 49
1.27
 74
     0
 49
-1.27
 74
     0
  0
LTYPE
  5
61
330
5
100
AcDbSymbolTableRecord
100
AcDbLinetypeTableRecord
  2
CENTERX2
 70
     0
  3
Center (2x) ________  __  ________  __  _____
 72
    65
 73
     4
 40
20.32
 49
12.7
 74
     0
 49
-2.54
 74
     0
 49
2.54
 74
     0
 49
-2.54
 74
     0
  0
LTYPE
  5
62
330
5
100
AcDbSymbolTableRecord
100
AcDbLinetypeTableRecord
  2
DOT2
 70
     0
  3
Dot (.5x) ........................................
 72
    65
 73
     2
 40
0.635
 49
0.0
 74
     0
 49
-0.635
 74
     0
  0
ENDTAB
  0
TABLE
  2
LAYER
  5
2
330
0
100
AcDbSymbolTable
 70
     6
  0
LAYER
  5
10
330
2
100
AcDbSymbolTableRecord
100
AcDbLayerTableRecord
  2
0
 70
     0
 62
     7
  6
Continuous
370
    -3
390
F
  0
LAYER
  5
63
330
2
100
AcDbSymbolTableRecord
100
AcDbLayerTableRecord
  2
1
 70
     0
 62
     4
  6
Continuous
370
    25
390
F
  0
LAYER
  5
64
330
2
100
AcDbSymbolTableRecord
100
AcDbLayerTableRecord
  2
2
 70
     0
 62
     3
  6
CENTERX2
370
    -3
390
F
  0
LAYER
  5
65
330
2
100
AcDbSymbolTableRecord
100
AcDbLayerTableRecord
  2
3
 70
     0
 62
     2
  6
Continuous
370
    -3
390
F
  0
LAYER
  5
66
330
2
100
AcDbSymbolTableRecord
100
AcDbLayerTableRecord
  2
4
 70
     0
 62
     7
  6
Continuous
370
    -3
390
F
  0
LAYER
  5
67
330
2
100
AcDbSymbolTableRecord
100
AcDbLayerTableRecord
  2
基礎穴
 70
     0
 62
     1
  6
PHANTOM
370
    35
390
F
  0
ENDTAB
  0
TABLE
  2
STYLE
  5
3
330
0
100
AcDbSymbolTable
 70
     2
  0
STYLE
  5
11
330
3
100
AcDbSymbolTableRecord
100
AcDbTextStyleTableRecord
  2
Standard
 70
     0
 40
0.0
 41
1.0
 50
0.0
 71
     0
 42
70.5555555556
  3
txt
  4
bigfont
  0
STYLE
  5
68
330
3
100
AcDbSymbolTableRecord
100
AcDbTextStyleTableRecord
  2
SLDTEXTSTYLE0
 70
     0
 40
0.0
 41
0.7
 50
0.0
 71
     0
 42
70.5555555556
  3
TXT
  4
bigfont
  0
ENDTAB
  0
TABLE
  2
VIEW
  5
6
330
0
100
AcDbSymbolTable
 70
     0
  0
ENDTAB
  0
TABLE
  2
UCS
  5
7
330
0
100
AcDbSymbolTable
 70
     0
  0
ENDTAB
  0
TABLE
  2
APPID
  5
9
330
0
100
AcDbSymbolTable
 70
     1
  0
APPID
  5
12
330
9
100
AcDbSymbolTableRecord
100
AcDbRegAppTableRecord
  2
ACAD
 70
     0
  0
ENDTAB
  0
TABLE
  2
DIMSTYLE
  5
A
330
0
100
AcDbSymbolTable
 70
     1
100
AcDbDimStyleTable
  0
DIMSTYLE
105
27
330
A
100
AcDbSymbolTableRecord
100
AcDbDimStyleTableRecord
  2
ISO-25
 70
     0
 41
2.5
 42
0.625
 43
3.75
 44
1.25
 73
     0
 74
     0
 77
     1
 78
     8
140
2.5
141
2.5
143
0.0393700787
147
0.625
171
     3
172
     1
178
     0
271
     2
272
     2
274
     3
278
    44
283
     0
284
     8
340
11
  0
ENDTAB
  0
TABLE
  2
BLOCK_RECORD
  5
1
330
0
100
AcDbSymbolTable
 70
     2
  0
BLOCK_RECORD
  5
1F
330
1
100
AcDbSymbolTableRecord
100
AcDbBlockTableRecord
  2
*Model_Space
340
22
  0
BLOCK_RECORD
  5
1B
330
1
100
AcDbSymbolTableRecord
100
AcDbBlockTableRecord
  2
*Paper_Space
340
1E
  0
BLOCK_RECORD
  5
23
330
1
100
AcDbSymbolTableRecord
100
AcDbBlockTableRecord
  2
*Paper_Space0
340
26
  0
BLOCK_RECORD
  5
DC
330
1
100
AcDbSymbolTableRecord
100
AcDbBlockTableRecord
  2
SW_CENTERMARKSYMBOL_0
340
0
102
{BLKREFS
331
E7
102
}
  0
ENDTAB
  0
ENDSEC
  0
SECTION
  2
BLOCKS
  0
BLOCK
  5
20
330
1F
100
AcDbEntity
  8
0
100
AcDbBlockBegin
  2
*Model_Space
 70
     0
 10
0.0
 20
0.0
 30
0.0
  3
*Model_Space
  1

  0
ENDBLK
  5
21
330
1F
100
AcDbEntity
  8
0
100
AcDbBlockEnd
  0
BLOCK
  5
1C
330
1B
100
AcDbEntity
 67
     1
  8
0
100
AcDbBlockBegin
  2
*Paper_Space
 70
     0
 10
0.0
 20
0.0
 30
0.0
  3
*Paper_Space
  1

  0
ENDBLK
  5
1D
330
1B
100
AcDbEntity
 67
     1
  8
0
100
AcDbBlockEnd
  0
BLOCK
  5
24
330
23
100
AcDbEntity
  8
0
100
AcDbBlockBegin
  2
*Paper_Space0
 70
     0
 10
0.0
 20
0.0
 30
0.0
  3
*Paper_Space0
  1

  0
ENDBLK
  5
25
330
23
100
AcDbEntity
  8
0
100
AcDbBlockEnd
  0
BLOCK
  5
DD
330
DC
100
AcDbEntity
  8
0
100
AcDbBlockBegin
  2
SW_CENTERMARKSYMBOL_0
 70
     0
 10
0.0
 20
0.0
 30
0.0
  3
SW_CENTERMARKSYMBOL_0
  1

  0
LINE
  5
DF
330
DC
100
AcDbEntity
  8
2
 62
     0
100
AcDbLine
 10
0.0
 20
0.0
 30
0.0
 11
0.0
 21
2.5
 31
0.0
  0
LINE
  5
E0
330
DC
100
AcDbEntity
  8
2
 62
     0
100
AcDbLine
 10
0.0
 20
0.0
 30
0.0
 11
-2.5
 21
0.0
 31
0.0
  0
LINE
  5
E1
330
DC
100
AcDbEntity
  8
2
 62
     0
100
AcDbLine
 10
0.0
 20
0.0
 30
0.0
 11
0.0
 21
-2.5
 31
0.0
  0
LINE
  5
E2
330
DC
100
AcDbEntity
  8
2
 62
     0
100
AcDbLine
 10
0.0
 20
0.0
 30
0.0
 11
2.5
 21
0.0
 31
0.0
  0
LINE
  5
E3
330
DC
100
AcDbEntity
  8
2
 62
     0
100
AcDbLine
 10
0.0
 20
5.0
 30
0.0
 11
0.0
 21
492.5
 31
0.0
  0
LINE
  5
E4
330
DC
100
AcDbEntity
  8
2
 62
     0
100
AcDbLine
 10
-5.0
 20
0.0
 30
0.0
 11
-492.5
 21
0.0
 31
0.0
  0
LINE
  5
E5
330
DC
100
AcDbEntity
  8
2
 62
     0
100
AcDbLine
 10
0.0
 20
-5.0
 30
0.0
 11
0.0
 21
-492.5
 31
0.0
  0
LINE
  5
E6
330
DC
100
AcDbEntity
  8
2
 62
     0
100
AcDbLine
 10
5.0
 20
0.0
 30
0.0
 11
492.5
 21
0.0
 31
0.0
  0
ENDBLK
  5
DE
330
DC
100
AcDbEntity
  8
0
100
AcDbBlockEnd
  0
ENDSEC
  0
SECTION
  2
ENTITIES
  0
MTEXT
  5
69
330
1F
100
AcDbEntity
  8
0
  6
Continuous
 62
     7
370
     0
100
AcDbMText
 10
3094.0006110487
 20
1182.565461842
 30
0.0
 40
52.9166666667
 41
0.0
 71
     1
 72
     1
  1
LL05540YG01K-R1
  7
SLDTEXTSTYLE0
 73
     1
 44
1.0
  0
LINE
  5
6A
330
1F
100
AcDbEntity
  8
1
100
AcDbLine
 10
2153.8757001082
 20
1480.9081130405
 30
0.0
 11
2153.8757001082
 21
1435.9081130405
 31
0.0
  0
LINE
  5
6B
330
1F
100
AcDbEntity
  8
1
100
AcDbLine
 10
2188.8757001082
 20
1435.9081130405
 30
0.0
 11
2188.8757001082
 21
1480.9081130405
 31
0.0
  0
LINE
  5
6C
330
1F
100
AcDbEntity
  8
1
100
AcDbLine
 10
383.8757001082
 20
1480.9081130405
 30
0.0
 11
383.8757001082
 21
1435.9081130405
 31
0.0
  0
LINE
  5
6D
330
1F
100
AcDbEntity
  8
1
100
AcDbLine
 10
418.8757001082
 20
1435.9081130405
 30
0.0
 11
418.8757001082
 21
1480.9081130405
 31
0.0
  0
LINE
  5
6E
330
1F
100
AcDbEntity
  8
1
100
AcDbLine
 10
731.3757001082
 20
1605.9081130405
 30
0.0
 11
731.3757001082
 21
1610.4081130405
 31
0.0
  0
LINE
  5
6F
330
1F
100
AcDbEntity
  8
1
100
AcDbLine
 10
376.3757001082
 20
1965.4081130405
 30
0.0
 11
376.3757001082
 21
1610.4081130405
 31
0.0
  0
LINE
  5
70
330
1F
100
AcDbEntity
  8
1
100
AcDbLine
 10
1621.3757001082
 20
2610.4081130405
 30
0.0
 11
376.3757001082
 21
1965.4081130405
 31
0.0
  0
LINE
  5
71
330
1F
100
AcDbEntity
  8
1
100
AcDbLine
 10
1976.3757001082
 20
2610.4081130405
 30
0.0
 11
1621.3757001082
 21
2610.4081130405
 31
0.0
  0
LINE
  5
72
330
1F
100
AcDbEntity
  8
1
100
AcDbLine
 10
1976.3757001082
 20
1610.4081130405
 30
0.0
 11
1976.3757001082
 21
2610.4081130405
 31
0.0
  0
LINE
  5
73
330
1F
100
AcDbEntity
  8
1
100
AcDbLine
 10
376.3757001082
 20
1610.4081130405
 30
0.0
 11
1976.3757001082
 21
1610.4081130405
 31
0.0
  0
LINE
  5
74
330
1F
100
AcDbEntity
  8
1
100
AcDbLine
 10
336.3757001083
 20
1435.9081130405
 30
0.0
 11
2236.3757001083
 21
1435.9081130405
 31
0.0
  0
LINE
  5
75
330
1F
100
AcDbEntity
  8
1
100
AcDbLine
 10
2236.3757001083
 20
1429.9081130405
 30
0.0
 11
2236.3757001083
 21
1435.9081130405
 31
0.0
  0
LINE
  5
76
330
1F
100
AcDbEntity
  8
1
100
AcDbLine
 10
336.3757001083
 20
1429.9081130405
 30
0.0
 11
2236.3757001083
 21
1429.9081130405
 31
0.0
  0
LINE
  5
77
330
1F
100
AcDbEntity
  8
1
100
AcDbLine
 10
336.3757001083
 20
1429.9081130405
 30
0.0
 11
336.3757001083
 21
1435.9081130405
 31
0.0
  0
LINE
  5
78
330
1F
100
AcDbEntity
  8
1
100
AcDbLine
 10
2236.3757001083
 20
1376.9081130405
 30
0.0
 11
336.3757001083
 21
1376.9081130405
 31
0.0
  0
LINE
  5
79
330
1F
100
AcDbEntity
  8
1
100
AcDbLine
 10
336.3757001083
 20
1370.9081130405
 30
0.0
 11
336.3757001083
 21
1376.9081130405
 31
0.0
  0
LINE
  5
7A
330
1F
100
AcDbEntity
  8
1
100
AcDbLine
 10
2236.3757001083
 20
1370.9081130405
 30
0.0
 11
336.3757001083
 21
1370.9081130405
 31
0.0
  0
LINE
  5
7B
330
1F
100
AcDbEntity
  8
1
100
AcDbLine
 10
2236.3757001083
 20
1370.9081130405
 30
0.0
 11
2236.3757001083
 21
1376.9081130405
 31
0.0
  0
LINE
  5
7C
330
1F
100
AcDbEntity
  8
1
100
AcDbLine
 10
395.3757001083
 20
1376.9081130405
 30
0.0
 11
395.3757001083
 21
1429.9081130405
 31
0.0
  0
LINE
  5
7D
330
1F
100
AcDbEntity
  8
1
100
AcDbLine
 10
2177.3757001082
 20
1376.9081130405
 30
0.0
 11
2177.3757001082
 21
1429.9081130405
 31
0.0
  0
LINE
  5
7E
330
1F
100
AcDbEntity
  8
1
100
AcDbLine
 10
1911.3757001082
 20
1610.4081130405
 30
0.0
 11
1911.3757001082
 21
1605.9081130405
 31
0.0
  0
LINE
  5
7F
330
1F
100
AcDbEntity
  8
1
100
AcDbLine
 10
1976.3757001082
 20
1610.4081130405
 30
0.0
 11
2061.3757001082
 21
1610.4081130405
 31
0.0
  0
LINE
  5
80
330
1F
100
AcDbEntity
  8
1
100
AcDbLine
 10
2061.3757001082
 20
1610.4081130405
 30
0.0
 11
2061.3757001082
 21
1605.9081130405
 31
0.0
  0
LINE
  5
81
330
1F
100
AcDbEntity
  8
1
100
AcDbLine
 10
1911.3757001082
 20
1605.9081130405
 30
0.0
 11
2061.3757001082
 21
1605.9081130405
 31
0.0
  0
LINE
  5
82
330
1F
100
AcDbEntity
  8
1
100
AcDbLine
 10
291.3757001082
 20
1610.4081130405
 30
0.0
 11
291.3757001082
 21
1605.9081130405
 31
0.0
  0
LINE
  5
83
330
1F
100
AcDbEntity
  8
1
100
AcDbLine
 10
291.3757001082
 20
1610.4081130405
 30
0.0
 11
376.3757001082
 21
1610.4081130405
 31
0.0
  0
LINE
  5
84
330
1F
100
AcDbEntity
  8
1
100
AcDbLine
 10
291.3757001082
 20
1605.9081130405
 30
0.0
 11
441.3757001082
 21
1605.9081130405
 31
0.0
  0
LINE
  5
85
330
1F
100
AcDbEntity
  8
1
100
AcDbLine
 10
441.3757001082
 20
1610.4081130405
 30
0.0
 11
441.3757001082
 21
1605.9081130405
 31
0.0
  0
LINE
  5
86
330
1F
100
AcDbEntity
  8
1
100
AcDbLine
 10
441.3757001082
 20
1605.9081130405
 30
0.0
 11
1911.3757001082
 21
1605.9081130405
 31
0.0
  0
LINE
  5
87
330
1F
100
AcDbEntity
  8
1
100
AcDbLine
 10
2061.3757001082
 20
1605.9081130405
 30
0.0
 11
2236.3757001082
 21
1605.9081130405
 31
0.0
  0
LINE
  5
88
330
1F
100
AcDbEntity
  8
1
100
AcDbLine
 10
336.3757001082
 20
1599.9081130405
 30
0.0
 11
2236.3757001082
 21
1599.9081130405
 31
0.0
  0
LINE
  5
89
330
1F
100
AcDbEntity
  8
1
100
AcDbLine
 10
336.3757001082
 20
1605.9081130405
 30
0.0
 11
336.3757001082
 21
1599.9081130405
 31
0.0
  0
LINE
  5
8A
330
1F
100
AcDbEntity
  8
1
100
AcDbLine
 10
2236.3757001082
 20
1605.9081130405
 30
0.0
 11
2236.3757001082
 21
1599.9081130405
 31
0.0
  0
LINE
  5
8B
330
1F
100
AcDbEntity
  8
1
100
AcDbLine
 10
336.3757001082
 20
1486.9081130405
 30
0.0
 11
336.3757001082
 21
1480.9081130405
 31
0.0
  0
LINE
  5
8C
330
1F
100
AcDbEntity
  8
1
100
AcDbLine
 10
336.3757001082
 20
1486.9081130405
 30
0.0
 11
2236.3757001082
 21
1486.9081130405
 31
0.0
  0
LINE
  5
8D
330
1F
100
AcDbEntity
  8
1
100
AcDbLine
 10
2236.3757001082
 20
1486.9081130405
 30
0.0
 11
2236.3757001082
 21
1480.9081130405
 31
0.0
  0
LINE
  5
8E
330
1F
100
AcDbEntity
  8
1
100
AcDbLine
 10
336.3757001082
 20
1480.9081130405
 30
0.0
 11
2236.3757001082
 21
1480.9081130405
 31
0.0
  0
LINE
  5
8F
330
1F
100
AcDbEntity
  8
1
100
AcDbLine
 10
2177.3757001082
 20
1599.9081130405
 30
0.0
 11
2177.3757001082
 21
1486.9081130405
 31
0.0
  0
LINE
  5
90
330
1F
100
AcDbEntity
  8
1
100
AcDbLine
 10
395.3757001082
 20
1599.9081130405
 30
0.0
 11
395.3757001082
 21
1486.9081130405
 31
0.0
  0
LINE
  5
91
330
1F
100
AcDbEntity
  8
1
100
AcDbLine
 10
2293.3757001082
 20
2154.4081130405
 30
0.0
 11
2296.3757001082
 21
2154.4081130405
 31
0.0
  0
LINE
  5
92
330
1F
100
AcDbEntity
  8
1
100
AcDbLine
 10
2293.3757001082
 20
3164.4081130405
 30
0.0
 11
2293.3757001082
 21
2154.4081130405
 31
0.0
  0
LINE
  5
93
330
1F
100
AcDbEntity
  8
1
100
AcDbLine
 10
2293.3757001082
 20
3164.4081130405
 30
0.0
 11
2296.3757001082
 21
3164.4081130405
 31
0.0
  0
LINE
  5
94
330
1F
100
AcDbEntity
  8
1
100
AcDbLine
 10
2296.3757001082
 20
3164.4081130405
 30
0.0
 11
2296.3757001082
 21
2154.4081130405
 31
0.0
  0
ARC
  5
95
330
1F
100
AcDbEntity
  8
1
100
AcDbCircle
 10
1622.8757001082
 20
2107.4081130405
 30
0.0
 40
591.1000000000001
100
AcDbArc
 50
306.7294769392
 51
0.0
  0
LWPOLYLINE
  5
96
330
1F
100
AcDbEntity
  8
1
100
AcDbPolyline
 90
        3
 70
   128
 43
0.0
 10
1255.7257177811
 20
1610.4081130405
 10
1258.1952521336
 20
1609.0003226869
 10
1263.7016339708
 20
1605.9081130405
  0
ARC
  5
97
330
1F
100
AcDbEntity
  8
1
100
AcDbCircle
 10
1743.3757001082
 20
2227.9081130405
 30
0.0
 40
845.6000000000004
100
AcDbArc
 50
94.8540481449
 51
179.4822727246
  0
LINE
  5
98
330
1F
100
AcDbEntity
  8
1
100
AcDbLine
 10
2293.3757001082
 20
3123.2591049515
 30
0.0
 11
1671.8228751548
 21
3070.475352637
 31
0.0
  0
LINE
  5
99
330
1F
100
AcDbEntity
  8
1
100
AcDbLine
 10
2213.9757001082
 20
2107.4081130405
 30
0.0
 11
2213.9757001082
 21
2195.3081130405
 31
0.0
  0
LINE
  5
9A
330
1F
100
AcDbEntity
  8
1
100
AcDbLine
 10
2213.9757001082
 20
2195.3081130405
 30
0.0
 11
2293.3757001082
 21
2195.3081130405
 31
0.0
  0
CIRCLE
  5
9B
330
1F
100
AcDbEntity
  8
0
  6
HIDDEN
 62
     7
370
    18
100
AcDbCircle
 10
556.3757001082
 20
1782.9081130405
 30
0.0
 40
19.0
  0
ARC
  5
9C
330
1F
100
AcDbEntity
  8
0
  6
HIDDEN
 62
     7
370
    18
100
AcDbCircle
 10
556.3757001082
 20
1782.9081130405
 30
0.0
 40
142.5000000000001
100
AcDbArc
 50
298.3576365763
 51
241.6423634237
  0
LINE
  5
9D
330
1F
100
AcDbEntity
  8
0
  6
HIDDEN
 62
     7
370
    18
100
AcDbLine
 10
624.0594500043
 20
1657.5081130405
 30
0.0
 11
488.6919502121
 21
1657.5081130405
 31
0.0
  0
LINE
  5
9E
330
1F
100
AcDbEntity
  8
0
  6
HIDDEN
 62
     7
370
    18
100
AcDbLine
 10
731.3757001082
 20
1610.4081130405
 30
0.0
 11
731.3757001082
 21
1650.9081130405
 31
0.0
  0
LINE
  5
9F
330
1F
100
AcDbEntity
  8
0
  6
HIDDEN
 62
     7
370
    18
100
AcDbLine
 10
731.3757001082
 20
1650.9081130405
 30
0.0
 11
381.3757001082
 21
1650.9081130405
 31
0.0
  0
LINE
  5
A0
330
1F
100
AcDbEntity
  8
0
  6
HIDDEN
 62
     7
370
    18
100
AcDbLine
 10
381.3757001082
 20
1605.9081130405
 30
0.0
 11
381.3757001082
 21
1650.9081130405
 31
0.0
  0
LINE
  5
A1
330
1F
100
AcDbEntity
  8
0
  6
HIDDEN
 62
     7
370
    18
100
AcDbLine
 10
477.6812911582
 20
1664.1081130405
 30
0.0
 11
468.8757001082
 21
1664.1081130405
 31
0.0
  0
LINE
  5
A2
330
1F
100
AcDbEntity
  8
0
  6
HIDDEN
 62
     7
370
    18
100
AcDbLine
 10
643.8757001082
 20
1664.1081130405
 30
0.0
 11
635.0701090583
 21
1664.1081130405
 31
0.0
  0
LINE
  5
A3
330
1F
100
AcDbEntity
  8
0
  6
HIDDEN
 62
     7
370
    18
100
AcDbLine
 10
643.8757001082
 20
1650.9081130405
 30
0.0
 11
643.8757001082
 21
1664.1081130405
 31
0.0
  0
LINE
  5
A4
330
1F
100
AcDbEntity
  8
0
  6
HIDDEN
 62
     7
370
    18
100
AcDbLine
 10
468.8757001082
 20
1664.1081130405
 30
0.0
 11
468.8757001082
 21
1650.9081130405
 31
0.0
  0
CIRCLE
  5
A5
330
1F
100
AcDbEntity
  8
0
  6
HIDDEN
 62
     7
370
    18
100
AcDbCircle
 10
556.3757001082
 20
1782.9081130405
 30
0.0
 40
74.99999999999979
  0
CIRCLE
  5
A6
330
1F
100
AcDbEntity
  8
0
  6
HIDDEN
 62
     7
370
    18
100
AcDbCircle
 10
1676.3757001082
 20
2160.9081130405
 30
0.0
 40
112.4999999999998
  0
LINE
  5
A7
330
1F
100
AcDbEntity
  8
0
  6
HIDDEN
 62
     7
370
    18
100
AcDbLine
 10
401.3757001083
 20
1370.9081130405
 30
0.0
 11
401.3757001083
 21
1435.9081130405
 31
0.0
  0
LINE
  5
A8
330
1F
100
AcDbEntity
  8
0
  6
HIDDEN
 62
     7
370
    18
100
AcDbLine
 10
2171.3757001082
 20
1370.9081130405
 30
0.0
 11
2171.3757001082
 21
1435.9081130405
 31
0.0
  0
LINE
  5
A9
330
1F
100
AcDbEntity
  8
0
  6
HIDDEN
 62
     7
370
    18
100
AcDbLine
 10
2171.3757001082
 20
1605.9081130405
 30
0.0
 11
2171.3757001082
 21
1480.9081130405
 31
0.0
  0
LINE
  5
AA
330
1F
100
AcDbEntity
  8
0
  6
HIDDEN
 62
     7
370
    18
100
AcDbLine
 10
401.3757001082
 20
1605.9081130405
 30
0.0
 11
401.3757001082
 21
1480.9081130405
 31
0.0
  0
ARC
  5
AB
330
1F
100
AcDbEntity
  8
0
  6
HIDDEN
 62
     7
370
    18
100
AcDbCircle
 10
1622.8757001082
 20
2107.4081130405
 30
0.0
 40
591.1000000000004
100
AcDbArc
 50
270.0
 51
306.7294769392
  0
LINE
  5
AC
330
1F
100
AcDbEntity
  8
0
  6
HIDDEN
 62
     7
370
    18
100
AcDbLine
 10
1609.3757001082
 20
1516.3081130405
 30
0.0
 11
1622.8757001082
 21
1516.3081130405
 31
0.0
  0
ARC
  5
AD
330
1F
100
AcDbEntity
  8
0
  6
HIDDEN
 62
     7
370
    18
100
AcDbCircle
 10
1609.3757001082
 20
2227.9081130405
 30
0.0
 40
711.5999999999999
100
AcDbArc
 50
180.0
 51
240.1996927225
  0
ARC
  5
AE
330
1F
100
AcDbEntity
  8
0
  6
HIDDEN
 62
     7
370
    18
100
AcDbCircle
 10
1609.3757001082
 20
2227.9081130405
 30
0.0
 40
711.6
100
AcDbArc
 50
240.9370546074
 51
270.0
  0
LINE
  5
AF
330
1F
100
AcDbEntity
  8
0
  6
HIDDEN
 62
     7
370
    18
100
AcDbLine
 10
897.810221544
 20
2235.548889206
 30
0.0
 11
897.7757001082
 21
2227.9081130405
 31
0.0
  0
LINE
  5
B0
330
1F
100
AcDbEntity
  8
0
  6
HIDDEN
 62
     7
370
    18
100
AcDbLine
 10
2212.3757001082
 20
2196.9081130405
 30
0.0
 11
2296.3757001082
 21
2196.9081130405
 31
0.0
  0
ARC
  5
B1
330
1F
100
AcDbEntity
  8
0
  6
HIDDEN
 62
     7
370
    18
100
AcDbCircle
 10
1743.3757001082
 20
2227.9081130405
 30
0.0
 40
844.0000000000003
100
AcDbArc
 50
94.8540481449
 51
180.0
  0
ARC
  5
B2
330
1F
100
AcDbEntity
  8
0
  6
HIDDEN
 62
     7
370
    18
100
AcDbCircle
 10
1609.3757001082
 20
2227.9081130405
 30
0.0
 40
709.9999999999999
100
AcDbArc
 50
180.0
 51
270.0
  0
ARC
  5
B3
330
1F
100
AcDbEntity
  8
0
  6
HIDDEN
 62
     7
370
    18
100
AcDbCircle
 10
1622.8757001082
 20
2107.4081130405
 30
0.0
 40
589.5
100
AcDbArc
 50
270.0
 51
0.0
  0
LINE
  5
B4
330
1F
100
AcDbEntity
  8
0
  6
HIDDEN
 62
     7
370
    18
100
AcDbLine
 10
2296.3757001082
 20
3121.9081130405
 30
0.0
 11
1671.9582636599
 21
3068.8810910672
 31
0.0
  0
LINE
  5
B5
330
1F
100
AcDbEntity
  8
0
  6
HIDDEN
 62
     7
370
    18
100
AcDbLine
 10
2212.3757001082
 20
2107.4081130405
 30
0.0
 11
2212.3757001082
 21
2196.9081130405
 31
0.0
  0
LINE
  5
B6
330
1F
100
AcDbEntity
  8
0
  6
HIDDEN
 62
     7
370
    18
100
AcDbLine
 10
1609.3757001082
 20
1517.9081130405
 30
0.0
 11
1622.8757001082
 21
1517.9081130405
 31
0.0
  0
CIRCLE
  5
B7
330
1F
100
AcDbEntity
  8
0
  6
HIDDEN
 62
     7
370
    18
100
AcDbCircle
 10
1676.3757001082
 20
2160.9081130405
 30
0.0
 40
450.0
  0
CIRCLE
  5
B8
330
1F
100
AcDbEntity
  8
0
  6
HIDDEN
 62
     7
370
    18
100
AcDbCircle
 10
1676.3757001082
 20
2160.9081130405
 30
0.0
 40
490.0000000000005
  0
CIRCLE
  5
B9
330
1F
100
AcDbEntity
  8
0
  6
HIDDEN
 62
     7
370
    18
100
AcDbCircle
 10
1676.3757001082
 20
2160.9081130405
 30
0.0
 40
452.3
  0
CIRCLE
  5
BA
330
1F
100
AcDbEntity
  8
0
  6
HIDDEN
 62
     7
370
    18
100
AcDbCircle
 10
1938.88263521
 20
2553.7775048535
 30
0.0
 40
5.0
  0
CIRCLE
  5
BB
330
1F
100
AcDbEntity
  8
0
  6
HIDDEN
 62
     7
370
    18
100
AcDbCircle
 10
2069.2450919212
 20
2423.4150481423
 30
0.0
 40
4.999999999999545
  0
CIRCLE
  5
BC
330
1F
100
AcDbEntity
  8
0
  6
HIDDEN
 62
     7
370
    18
100
AcDbCircle
 10
2139.7967450988
 20
2253.0882901931
 30
0.0
 40
5.0
  0
CIRCLE
  5
BD
330
1F
100
AcDbEntity
  8
0
  6
HIDDEN
 62
     7
370
    18
100
AcDbCircle
 10
2139.7967450988
 20
2068.7279358879
 30
0.0
 40
5.000000000000455
  0
CIRCLE
  5
BE
330
1F
100
AcDbEntity
  8
0
  6
HIDDEN
 62
     7
370
    18
100
AcDbCircle
 10
2069.2450919212
 20
1898.4011779387
 30
0.0
 40
5.0
  0
CIRCLE
  5
BF
330
1F
100
AcDbEntity
  8
0
  6
HIDDEN
 62
     7
370
    18
100
AcDbCircle
 10
1938.88263521
 20
1768.0387212276
 30
0.0
 40
5.0
  0
CIRCLE
  5
C0
330
1F
100
AcDbEntity
  8
0
  6
HIDDEN
 62
     7
370
    18
100
AcDbCircle
 10
1768.5558772609
 20
1697.48706805
 30
0.0
 40
5.0
  0
CIRCLE
  5
C1
330
1F
100
AcDbEntity
  8
0
  6
HIDDEN
 62
     7
370
    18
100
AcDbCircle
 10
1584.1955229556
 20
1697.48706805
 30
0.0
 40
5.0
  0
CIRCLE
  5
C2
330
1F
100
AcDbEntity
  8
0
  6
HIDDEN
 62
     7
370
    18
100
AcDbCircle
 10
1413.8687650065
 20
1768.0387212276
 30
0.0
 40
5.0
  0
CIRCLE
  5
C3
330
1F
100
AcDbEntity
  8
0
  6
HIDDEN
 62
     7
370
    18
100
AcDbCircle
 10
1283.5063082953
 20
1898.4011779387
 30
0.0
 40
5.0
  0
CIRCLE
  5
C4
330
1F
100
AcDbEntity
  8
0
  6
HIDDEN
 62
     7
370
    18
100
AcDbCircle
 10
1212.9546551177
 20
2068.7279358879
 30
0.0
 40
5.0
  0
CIRCLE
  5
C5
330
1F
100
AcDbEntity
  8
0
  6
HIDDEN
 62
     7
370
    18
100
AcDbCircle
 10
1283.5063082953
 20
2423.4150481423
 30
0.0
 40
5.0
  0
CIRCLE
  5
C6
330
1F
100
AcDbEntity
  8
0
  6
HIDDEN
 62
     7
370
    18
100
AcDbCircle
 10
1413.8687650065
 20
2553.7775048535
 30
0.0
 40
5.0
  0
CIRCLE
  5
C7
330
1F
100
AcDbEntity
  8
0
  6
HIDDEN
 62
     7
370
    18
100
AcDbCircle
 10
1584.1955229556
 20
2624.329158031
 30
0.0
 40
5.0
  0
CIRCLE
  5
C8
330
1F
100
AcDbEntity
  8
0
  6
HIDDEN
 62
     7
370
    18
100
AcDbCircle
 10
1768.5558772609
 20
2624.329158031
 30
0.0
 40
5.0
  0
CIRCLE
  5
C9
330
1F
100
AcDbEntity
  8
0
  6
HIDDEN
 62
     7
370
    18
100
AcDbCircle
 10
1212.9546551177
 20
2253.0882901931
 30
0.0
 40
5.0
  0
LINE
  5
CA
330
1F
100
AcDbEntity
  8
0
  6
HIDDEN
 62
     7
370
    18
100
AcDbLine
 10
435.3757001082
 20
1370.9081130405
 30
0.0
 11
435.3757001082
 21
1376.9081130405
 31
0.0
  0
LINE
  5
CB
330
1F
100
AcDbEntity
  8
0
  6
HIDDEN
 62
     7
370
    18
100
AcDbLine
 10
417.3757001082
 20
1376.9081130405
 30
0.0
 11
417.3757001082
 21
1370.9081130405
 31
0.0
  0
LINE
  5
CC
330
1F
100
AcDbEntity
  8
0
  6
HIDDEN
 62
     7
370
    18
100
AcDbLine
 10
1295.3757001082
 20
1370.9081130405
 30
0.0
 11
1295.3757001082
 21
1376.9081130405
 31
0.0
  0
LINE
  5
CD
330
1F
100
AcDbEntity
  8
0
  6
HIDDEN
 62
     7
370
    18
100
AcDbLine
 10
1277.3757001082
 20
1376.9081130405
 30
0.0
 11
1277.3757001082
 21
1370.9081130405
 31
0.0
  0
LINE
  5
CE
330
1F
100
AcDbEntity
  8
0
  6
HIDDEN
 62
     7
370
    18
100
AcDbLine
 10
2155.3757001082
 20
1370.9081130405
 30
0.0
 11
2155.3757001082
 21
1376.9081130405
 31
0.0
  0
LINE
  5
CF
330
1F
100
AcDbEntity
  8
0
  6
HIDDEN
 62
     7
370
    18
100
AcDbLine
 10
2137.3757001082
 20
1376.9081130405
 30
0.0
 11
2137.3757001082
 21
1370.9081130405
 31
0.0
  0
LINE
  5
D0
330
1F
100
AcDbEntity
  8
0
  6
HIDDEN
 62
     7
370
    18
100
AcDbLine
 10
2296.3757001082
 20
2177.4081130405
 30
0.0
 11
2293.3757001082
 21
2177.4081130405
 31
0.0
  0
LINE
  5
D1
330
1F
100
AcDbEntity
  8
0
  6
HIDDEN
 62
     7
370
    18
100
AcDbLine
 10
2293.3757001082
 20
2167.4081130405
 30
0.0
 11
2296.3757001082
 21
2167.4081130405
 31
0.0
  0
LINE
  5
D2
330
1F
100
AcDbEntity
  8
0
  6
HIDDEN
 62
     7
370
    18
100
AcDbLine
 10
2296.3757001082
 20
2364.4081130405
 30
0.0
 11
2293.3757001082
 21
2364.4081130405
 31
0.0
  0
LINE
  5
D3
330
1F
100
AcDbEntity
  8
0
  6
HIDDEN
 62
     7
370
    18
100
AcDbLine
 10
2293.3757001082
 20
2354.4081130405
 30
0.0
 11
2296.3757001082
 21
2354.4081130405
 31
0.0
  0
LINE
  5
D4
330
1F
100
AcDbEntity
  8
0
  6
HIDDEN
 62
     7
370
    18
100
AcDbLine
 10
2296.3757001082
 20
3151.4081130405
 30
0.0
 11
2293.3757001082
 21
3151.4081130405
 31
0.0
  0
LINE
  5
D5
330
1F
100
AcDbEntity
  8
0
  6
HIDDEN
 62
     7
370
    18
100
AcDbLine
 10
2293.3757001082
 20
3141.4081130405
 30
0.0
 11
2296.3757001082
 21
3141.4081130405
 31
0.0
  0
LINE
  5
D6
330
1F
100
AcDbEntity
  8
0
  6
HIDDEN
 62
     7
370
    18
100
AcDbLine
 10
2296.3757001082
 20
2564.4081130405
 30
0.0
 11
2293.3757001082
 21
2564.4081130405
 31
0.0
  0
LINE
  5
D7
330
1F
100
AcDbEntity
  8
0
  6
HIDDEN
 62
     7
370
    18
100
AcDbLine
 10
2293.3757001082
 20
2554.4081130405
 30
0.0
 11
2296.3757001082
 21
2554.4081130405
 31
0.0
  0
LINE
  5
D8
330
1F
100
AcDbEntity
  8
0
  6
HIDDEN
 62
     7
370
    18
100
AcDbLine
 10
2296.3757001082
 20
2964.4081130405
 30
0.0
 11
2293.3757001082
 21
2964.4081130405
 31
0.0
  0
LINE
  5
D9
330
1F
100
AcDbEntity
  8
0
  6
HIDDEN
 62
     7
370
    18
100
AcDbLine
 10
2293.3757001082
 20
2954.4081130405
 30
0.0
 11
2296.3757001082
 21
2954.4081130405
 31
0.0
  0
LINE
  5
DA
330
1F
100
AcDbEntity
  8
0
  6
HIDDEN
 62
     7
370
    18
100
AcDbLine
 10
2296.3757001082
 20
2764.4081130405
 30
0.0
 11
2293.3757001082
 21
2764.4081130405
 31
0.0
  0
LINE
  5
DB
330
1F
100
AcDbEntity
  8
0
  6
HIDDEN
 62
     7
370
    18
100
AcDbLine
 10
2293.3757001082
 20
2754.4081130405
 30
0.0
 11
2296.3757001082
 21
2754.4081130405
 31
0.0
  0
INSERT
  5
E7
330
1F
100
AcDbEntity
  8
2
100
AcDbBlockReference
  2
SW_CENTERMARKSYMBOL_0
 10
1676.3757001082
 20
2160.9081130405
 30
0.0
  0
LINE
  5
E8
330
1F
100
AcDbEntity
  8
1
100
AcDbLine
 10
3135.7874255357
 20
1925.4081130405
 30
0.0
 11
2930.5874255357
 21
1925.4081130405
 31
0.0
  0
LINE
  5
E9
330
1F
100
AcDbEntity
  8
1
100
AcDbLine
 10
2893.0874255357
 20
1763.9081130405
 30
0.0
 11
2930.5874255357
 21
1763.9081130405
 31
0.0
  0
LINE
  5
EA
330
1F
100
AcDbEntity
  8
1
100
AcDbLine
 10
2930.5874255357
 20
1801.9081130405
 30
0.0
 11
2893.0874255357
 21
1801.9081130405
 31
0.0
  0
LINE
  5
EB
330
1F
100
AcDbEntity
  8
1
100
AcDbLine
 10
3826.0874255357
 20
1480.9081130405
 30
0.0
 11
3826.0874255357
 21
1435.9081130405
 31
0.0
  0
LINE
  5
EC
330
1F
100
AcDbEntity
  8
1
100
AcDbLine
 10
3861.0874255357
 20
1435.9081130405
 30
0.0
 11
3861.0874255357
 21
1480.9081130405
 31
0.0
  0
LINE
  5
ED
330
1F
100
AcDbEntity
  8
1
100
AcDbLine
 10
2941.0874255357
 20
1480.9081130405
 30
0.0
 11
2941.0874255357
 21
1435.9081130405
 31
0.0
  0
LINE
  5
EE
330
1F
100
AcDbEntity
  8
1
100
AcDbLine
 10
2976.0874255357
 20
1435.9081130405
 30
0.0
 11
2976.0874255357
 21
1480.9081130405
 31
0.0
  0
LINE
  5
EF
330
1F
100
AcDbEntity
  8
1
100
AcDbLine
 10
3891.0874255357
 20
2650.9081130405
 30
0.0
 11
3888.7874255357
 21
2650.9081130405
 31
0.0
  0
LINE
  5
F0
330
1F
100
AcDbEntity
  8
1
100
AcDbLine
 10
3888.7874255357
 20
1670.9081130405
 30
0.0
 11
3891.0874255357
 21
1670.9081130405
 31
0.0
  0
LINE
  5
F1
330
1F
100
AcDbEntity
  8
1
100
AcDbLine
 10
3810.3874255357
 20
1670.9081130405
 30
0.0
 11
3811.0874255357
 21
1670.9081130405
 31
0.0
  0
LINE
  5
F2
330
1F
100
AcDbEntity
  8
1
100
AcDbLine
 10
3888.7874255357
 20
2613.2081130405
 30
0.0
 11
3850.0874255357
 21
2613.2081130405
 31
0.0
  0
LINE
  5
F3
330
1F
100
AcDbEntity
  8
1
100
AcDbLine
 10
3811.0874255357
 20
1708.6081130405
 30
0.0
 11
3888.7874255357
 21
1708.6081130405
 31
0.0
  0
LINE
  5
F4
330
1F
100
AcDbEntity
  8
1
100
AcDbLine
 10
2949.5874255357
 20
1610.4081130405
 30
0.0
 11
2949.5874255357
 21
1650.9081130405
 31
0.0
  0
LINE
  5
F5
330
1F
100
AcDbEntity
  8
1
100
AcDbLine
 10
3135.7874255357
 20
1650.9081130405
 30
0.0
 11
2949.5874255357
 21
1650.9081130405
 31
0.0
  0
LINE
  5
F6
330
1F
100
AcDbEntity
  8
1
100
AcDbLine
 10
2959.5874255357
 20
1657.5081130405
 30
0.0
 11
2930.5874255357
 21
1657.5081130405
 31
0.0
  0
LINE
  5
F7
330
1F
100
AcDbEntity
  8
1
100
AcDbLine
 10
2930.5874255357
 20
1925.4081130405
 30
0.0
 11
2930.5874255357
 21
1657.5081130405
 31
0.0
  0
LINE
  5
F8
330
1F
100
AcDbEntity
  8
1
100
AcDbLine
 10
2959.5874255357
 20
1650.9081130405
 30
0.0
 11
2959.5874255357
 21
1664.1081130405
 31
0.0
  0
LINE
  5
F9
330
1F
100
AcDbEntity
  8
1
100
AcDbLine
 10
2959.5874255357
 20
1664.1081130405
 30
0.0
 11
3135.7874255357
 21
1664.1081130405
 31
0.0
  0
LINE
  5
FA
330
1F
100
AcDbEntity
  8
1
100
AcDbLine
 10
2733.0874255357
 20
1610.4081130405
 30
0.0
 11
2733.0874255357
 21
2610.4081130405
 31
0.0
  0
LINE
  5
FB
330
1F
100
AcDbEntity
  8
1
100
AcDbLine
 10
2893.0874255357
 20
1610.4081130405
 30
0.0
 11
2893.0874255357
 21
2610.4081130405
 31
0.0
  0
LINE
  5
FC
330
1F
100
AcDbEntity
  8
1
100
AcDbLine
 10
2733.0874255357
 20
1610.4081130405
 30
0.0
 11
2838.0874255357
 21
1610.4081130405
 31
0.0
  0
LINE
  5
FD
330
1F
100
AcDbEntity
  8
1
100
AcDbLine
 10
2733.0874255357
 20
2610.4081130405
 30
0.0
 11
2893.0874255357
 21
2610.4081130405
 31
0.0
  0
LINE
  5
FE
330
1F
100
AcDbEntity
  8
1
100
AcDbLine
 10
3876.0874255357
 20
1370.9081130405
 30
0.0
 11
2926.0874255357
 21
1370.9081130405
 31
0.0
  0
LINE
  5
FF
330
1F
100
AcDbEntity
  8
1
100
AcDbLine
 10
2926.0874255357
 20
1370.9081130405
 30
0.0
 11
2926.0874255357
 21
1376.9081130405
 31
0.0
  0
LINE
  5
100
330
1F
100
AcDbEntity
  8
1
100
AcDbLine
 10
3876.0874255357
 20
1376.9081130405
 30
0.0
 11
2926.0874255357
 21
1376.9081130405
 31
0.0
  0
LINE
  5
101
330
1F
100
AcDbEntity
  8
1
100
AcDbLine
 10
3876.0874255357
 20
1370.9081130405
 30
0.0
 11
3876.0874255357
 21
1376.9081130405
 31
0.0
  0
LINE
  5
102
330
1F
100
AcDbEntity
  8
1
100
AcDbLine
 10
3876.0874255357
 20
1429.9081130405
 30
0.0
 11
3876.0874255357
 21
1435.9081130405
 31
0.0
  0
LINE
  5
103
330
1F
100
AcDbEntity
  8
1
100
AcDbLine
 10
2926.0874255357
 20
1429.9081130405
 30
0.0
 11
3876.0874255357
 21
1429.9081130405
 31
0.0
  0
LINE
  5
104
330
1F
100
AcDbEntity
  8
1
100
AcDbLine
 10
2926.0874255357
 20
1429.9081130405
 30
0.0
 11
2926.0874255357
 21
1435.9081130405
 31
0.0
  0
LINE
  5
105
330
1F
100
AcDbEntity
  8
1
100
AcDbLine
 10
2926.0874255357
 20
1435.9081130405
 30
0.0
 11
3876.0874255357
 21
1435.9081130405
 31
0.0
  0
LINE
  5
106
330
1F
100
AcDbEntity
  8
1
100
AcDbLine
 10
2985.0874255356
 20
1376.9081130405
 30
0.0
 11
2985.0874255356
 21
1429.9081130405
 31
0.0
  0
LINE
  5
107
330
1F
100
AcDbEntity
  8
1
100
AcDbLine
 10
3817.0874255357
 20
1376.9081130405
 30
0.0
 11
3817.0874255357
 21
1429.9081130405
 31
0.0
  0
LINE
  5
108
330
1F
100
AcDbEntity
  8
1
100
AcDbLine
 10
3876.0874255357
 20
1486.9081130405
 30
0.0
 11
3876.0874255357
 21
1480.9081130405
 31
0.0
  0
LINE
  5
109
330
1F
100
AcDbEntity
  8
1
100
AcDbLine
 10
2926.0874255357
 20
1480.9081130405
 30
0.0
 11
3876.0874255357
 21
1480.9081130405
 31
0.0
  0
LINE
  5
10A
330
1F
100
AcDbEntity
  8
1
100
AcDbLine
 10
2926.0874255357
 20
1486.9081130405
 30
0.0
 11
2926.0874255357
 21
1480.9081130405
 31
0.0
  0
LINE
  5
10B
330
1F
100
AcDbEntity
  8
1
100
AcDbLine
 10
2926.0874255357
 20
1486.9081130405
 30
0.0
 11
3876.0874255357
 21
1486.9081130405
 31
0.0
  0
LINE
  5
10C
330
1F
100
AcDbEntity
  8
1
100
AcDbLine
 10
3876.0874255357
 20
1605.9081130405
 30
0.0
 11
3876.0874255357
 21
1599.9081130405
 31
0.0
  0
LINE
  5
10D
330
1F
100
AcDbEntity
  8
1
100
AcDbLine
 10
2926.0874255357
 20
1599.9081130405
 30
0.0
 11
3876.0874255357
 21
1599.9081130405
 31
0.0
  0
LINE
  5
10E
330
1F
100
AcDbEntity
  8
1
100
AcDbLine
 10
2926.0874255357
 20
1605.9081130405
 30
0.0
 11
2926.0874255357
 21
1599.9081130405
 31
0.0
  0
LINE
  5
10F
330
1F
100
AcDbEntity
  8
1
100
AcDbLine
 10
2926.0874255357
 20
1605.9081130405
 30
0.0
 11
3876.0874255357
 21
1605.9081130405
 31
0.0
  0
LINE
  5
110
330
1F
100
AcDbEntity
  8
1
100
AcDbLine
 10
3817.0874255357
 20
1599.9081130405
 30
0.0
 11
3817.0874255357
 21
1486.9081130405
 31
0.0
  0
LINE
  5
111
330
1F
100
AcDbEntity
  8
1
100
AcDbLine
 10
2985.0874255357
 20
1599.9081130405
 30
0.0
 11
2985.0874255357
 21
1486.9081130405
 31
0.0
  0
LINE
  5
112
330
1F
100
AcDbEntity
  8
1
100
AcDbLine
 10
2838.0874255357
 20
1610.4081130405
 30
0.0
 11
2838.0874255357
 21
1605.9081130405
 31
0.0
  0
LINE
  5
113
330
1F
100
AcDbEntity
  8
1
100
AcDbLine
 10
2838.0874255357
 20
1610.4081130405
 30
0.0
 11
2968.0874255357
 21
1610.4081130405
 31
0.0
  0
LINE
  5
114
330
1F
100
AcDbEntity
  8
1
100
AcDbLine
 10
2838.0874255357
 20
1605.9081130405
 30
0.0
 11
2926.0874255357
 21
1605.9081130405
 31
0.0
  0
LINE
  5
115
330
1F
100
AcDbEntity
  8
1
100
AcDbLine
 10
2968.0874255357
 20
1610.4081130405
 30
0.0
 11
2968.0874255357
 21
1605.9081130405
 31
0.0
  0
CIRCLE
  5
116
330
1F
100
AcDbEntity
  8
1
100
AcDbCircle
 10
3114.0874255357
 20
3146.4081130405
 30
0.0
 40
5.0
  0
CIRCLE
  5
117
330
1F
100
AcDbEntity
  8
1
100
AcDbCircle
 10
3273.0874255357
 20
3146.4081130405
 30
0.0
 40
5.0
  0
CIRCLE
  5
118
330
1F
100
AcDbEntity
  8
1
100
AcDbCircle
 10
3473.0874255357
 20
3146.4081130405
 30
0.0
 40
5.0
  0
CIRCLE
  5
119
330
1F
100
AcDbEntity
  8
1
100
AcDbCircle
 10
3114.0874255357
 20
2959.4081130405
 30
0.0
 40
5.0
  0
CIRCLE
  5
11A
330
1F
100
AcDbEntity
  8
1
100
AcDbCircle
 10
3114.0874255357
 20
2759.4081130405
 30
0.0
 40
5.0
  0
CIRCLE
  5
11B
330
1F
100
AcDbEntity
  8
1
100
AcDbCircle
 10
3832.0874255357
 20
2759.4081130405
 30
0.0
 40
5.0
  0
CIRCLE
  5
11C
330
1F
100
AcDbEntity
  8
1
100
AcDbCircle
 10
3832.0874255357
 20
2959.4081130405
 30
0.0
 40
5.0
  0
CIRCLE
  5
11D
330
1F
100
AcDbEntity
  8
1
100
AcDbCircle
 10
3673.0874255357
 20
3146.4081130405
 30
0.0
 40
5.0
  0
CIRCLE
  5
11E
330
1F
100
AcDbEntity
  8
1
100
AcDbCircle
 10
3832.0874255357
 20
2172.4081130405
 30
0.0
 40
5.0
  0
CIRCLE
  5
11F
330
1F
100
AcDbEntity
  8
1
100
AcDbCircle
 10
3673.0874255357
 20
2172.4081130405
 30
0.0
 40
5.0
  0
CIRCLE
  5
120
330
1F
100
AcDbEntity
  8
1
100
AcDbCircle
 10
3832.0874255357
 20
2359.4081130405
 30
0.0
 40
5.0
  0
CIRCLE
  5
121
330
1F
100
AcDbEntity
  8
1
100
AcDbCircle
 10
3832.0874255357
 20
2559.4081130405
 30
0.0
 40
5.0
  0
CIRCLE
  5
122
330
1F
100
AcDbEntity
  8
1
100
AcDbCircle
 10
3114.0874255357
 20
2559.4081130405
 30
0.0
 40
5.0
  0
CIRCLE
  5
123
330
1F
100
AcDbEntity
  8
1
100
AcDbCircle
 10
3114.0874255357
 20
2359.4081130405
 30
0.0
 40
5.0
  0
CIRCLE
  5
124
330
1F
100
AcDbEntity
  8
1
100
AcDbCircle
 10
3473.0874255357
 20
2172.4081130405
 30
0.0
 40
5.0
  0
CIRCLE
  5
125
330
1F
100
AcDbEntity
  8
1
100
AcDbCircle
 10
3273.0874255357
 20
2172.4081130405
 30
0.0
 40
5.0
  0
CIRCLE
  5
126
330
1F
100
AcDbEntity
  8
1
100
AcDbCircle
 10
3114.0874255357
 20
2172.4081130405
 30
0.0
 40
5.0
  0
LINE
  5
127
330
1F
100
AcDbEntity
  8
1
100
AcDbLine
 10
3096.0874255357
 20
3164.4081130405
 30
0.0
 11
3096.0874255357
 21
2154.4081130405
 31
0.0
  0
LINE
  5
128
330
1F
100
AcDbEntity
  8
1
100
AcDbLine
 10
3138.0874255357
 20
3121.9081130405
 30
0.0
 11
3808.0874255357
 21
3121.9081130405
 31
0.0
  0
LINE
  5
129
330
1F
100
AcDbEntity
  8
1
100
AcDbLine
 10
3138.0874255357
 20
2196.9081130405
 30
0.0
 11
3138.0874255357
 21
3121.9081130405
 31
0.0
  0
LINE
  5
12A
330
1F
100
AcDbEntity
  8
1
100
AcDbLine
 10
3138.0874255357
 20
2196.9081130405
 30
0.0
 11
3808.0874255357
 21
2196.9081130405
 31
0.0
  0
LINE
  5
12B
330
1F
100
AcDbEntity
  8
1
100
AcDbLine
 10
3808.0874255357
 20
2196.9081130405
 30
0.0
 11
3808.0874255357
 21
3121.9081130405
 31
0.0
  0
CIRCLE
  5
12C
330
1F
100
AcDbEntity
  8
1
100
AcDbCircle
 10
3832.0874255357
 20
3146.4081130405
 30
0.0
 40
5.0
  0
LINE
  5
12D
330
1F
100
AcDbEntity
  8
1
100
AcDbLine
 10
3096.0874255357
 20
2154.4081130405
 30
0.0
 11
3850.0874255357
 21
2154.4081130405
 31
0.0
  0
LINE
  5
12E
330
1F
100
AcDbEntity
  8
1
100
AcDbLine
 10
3850.0874255357
 20
2154.4081130405
 30
0.0
 11
3850.0874255357
 21
3164.4081130405
 31
0.0
  0
LINE
  5
12F
330
1F
100
AcDbEntity
  8
1
100
AcDbLine
 10
3850.0874255357
 20
3164.4081130405
 30
0.0
 11
3096.0874255357
 21
3164.4081130405
 31
0.0
  0
LINE
  5
130
330
1F
100
AcDbEntity
  8
1
100
AcDbLine
 10
3138.0874255357
 20
3068.8810910672
 30
0.0
 11
3808.0874255357
 21
3068.8810910672
 31
0.0
  0
LINE
  5
131
330
1F
100
AcDbEntity
  8
1
100
AcDbLine
 10
3135.7874255357
 20
2107.4081130405
 30
0.0
 11
3810.3874255357
 21
2107.4081130405
 31
0.0
  0
LINE
  5
132
330
1F
100
AcDbEntity
  8
1
100
AcDbLine
 10
3135.7874255357
 20
2107.4081130405
 30
0.0
 11
3135.7874255357
 21
2154.4081130405
 31
0.0
  0
LINE
  5
133
330
1F
100
AcDbEntity
  8
1
100
AcDbLine
 10
3810.3874255357
 20
2107.4081130405
 30
0.0
 11
3810.3874255357
 21
2154.4081130405
 31
0.0
  0
LINE
  5
134
330
1F
100
AcDbEntity
  8
1
100
AcDbLine
 10
3135.7874255357
 20
1605.9081130405
 30
0.0
 11
3135.7874255357
 21
2107.4081130405
 31
0.0
  0
LINE
  5
135
330
1F
100
AcDbEntity
  8
1
100
AcDbLine
 10
3810.3874255357
 20
1605.9081130405
 30
0.0
 11
3810.3874255357
 21
2107.4081130405
 31
0.0
  0
LINE
  5
136
330
1F
100
AcDbEntity
  8
1
100
AcDbLine
 10
3891.0874255357
 20
2650.9081130405
 30
0.0
 11
3891.0874255357
 21
1670.9081130405
 31
0.0
  0
LINE
  5
137
330
1F
100
AcDbEntity
  8
1
100
AcDbLine
 10
3888.7874255357
 20
2650.9081130405
 30
0.0
 11
3888.7874255357
 21
1670.9081130405
 31
0.0
  0
LINE
  5
138
330
1F
100
AcDbEntity
  8
1
100
AcDbLine
 10
3811.0874255357
 20
1670.9081130405
 30
0.0
 11
3811.0874255357
 21
2154.4081130405
 31
0.0
  0
LINE
  5
139
330
1F
100
AcDbEntity
  8
1
100
AcDbLine
 10
3138.0874255357
 20
2227.9081130405
 30
0.0
 11
3808.0874255357
 21
2227.9081130405
 31
0.0
  0
LINE
  5
13A
330
1F
100
AcDbEntity
  8
0
  6
HIDDEN
 62
     7
370
    18
100
AcDbLine
 10
3229.5874255357
 20
1605.9081130405
 30
0.0
 11
3229.5874255357
 21
1650.9081130405
 31
0.0
  0
LINE
  5
13B
330
1F
100
AcDbEntity
  8
0
  6
HIDDEN
 62
     7
370
    18
100
AcDbLine
 10
2949.5874255357
 20
1605.9081130405
 30
0.0
 11
2949.5874255357
 21
1610.4081130405
 31
0.0
  0
LINE
  5
13C
330
1F
100
AcDbEntity
  8
0
  6
HIDDEN
 62
     7
370
    18
100
AcDbLine
 10
3229.5874255357
 20
1650.9081130405
 30
0.0
 11
3135.7874255357
 21
1650.9081130405
 31
0.0
  0
LINE
  5
13D
330
1F
100
AcDbEntity
  8
0
  6
HIDDEN
 62
     7
370
    18
100
AcDbLine
 10
3300.0874255357
 20
1657.5081130405
 30
0.0
 11
3300.0874255357
 21
1925.4081130405
 31
0.0
  0
LINE
  5
13E
330
1F
100
AcDbEntity
  8
0
  6
HIDDEN
 62
     7
370
    18
100
AcDbLine
 10
3300.0874255357
 20
1657.5081130405
 30
0.0
 11
3219.5874255357
 21
1657.5081130405
 31
0.0
  0
LINE
  5
13F
330
1F
100
AcDbEntity
  8
0
  6
HIDDEN
 62
     7
370
    18
100
AcDbLine
 10
3219.5874255357
 20
1650.9081130405
 30
0.0
 11
3219.5874255357
 21
1664.1081130405
 31
0.0
  0
LINE
  5
140
330
1F
100
AcDbEntity
  8
0
  6
HIDDEN
 62
     7
370
    18
100
AcDbLine
 10
3135.7874255357
 20
1664.1081130405
 30
0.0
 11
3219.5874255357
 21
1664.1081130405
 31
0.0
  0
LINE
  5
141
330
1F
100
AcDbEntity
  8
0
  6
HIDDEN
 62
     7
370
    18
100
AcDbLine
 10
2775.5874255357
 20
1708.1474850379
 30
0.0
 11
2775.5874255357
 21
1707.9081130405
 31
0.0
  0
LINE
  5
142
330
1F
100
AcDbEntity
  8
0
  6
HIDDEN
 62
     7
370
    18
100
AcDbLine
 10
2775.5874255357
 20
1857.9081130405
 30
0.0
 11
2775.5874255357
 21
1708.1474850379
 31
0.0
  0
LINE
  5
143
330
1F
100
AcDbEntity
  8
0
  6
HIDDEN
 62
     7
370
    18
100
AcDbLine
 10
2850.5874255357
 20
1708.1474850379
 30
0.0
 11
2850.5874255357
 21
1707.9081130405
 31
0.0
  0
LINE
  5
144
330
1F
100
AcDbEntity
  8
0
  6
HIDDEN
 62
     7
370
    18
100
AcDbLine
 10
2850.5874255357
 20
1857.9081130405
 30
0.0
 11
2850.5874255357
 21
1708.1474850379
 31
0.0
  0
LINE
  5
145
330
1F
100
AcDbEntity
  8
0
  6
HIDDEN
 62
     7
370
    18
100
AcDbLine
 10
2775.5874255357
 20
2273.4080174867
 30
0.0
 11
2775.5874255357
 21
2048.4081130405
 31
0.0
  0
LINE
  5
146
330
1F
100
AcDbEntity
  8
0
  6
HIDDEN
 62
     7
370
    18
100
AcDbLine
 10
2850.5874255357
 20
2273.4080174867
 30
0.0
 11
2850.5874255357
 21
2048.4081130405
 31
0.0
  0
LINE
  5
147
330
1F
100
AcDbEntity
  8
0
  6
HIDDEN
 62
     7
370
    18
100
AcDbLine
 10
2733.0874255357
 20
1965.4081130405
 30
0.0
 11
2893.0874255357
 21
1965.4081130405
 31
0.0
  0
LINE
  5
148
330
1F
100
AcDbEntity
  8
0
  6
HIDDEN
 62
     7
370
    18
100
AcDbLine
 10
3811.0874255357
 20
1370.9081130405
 30
0.0
 11
3811.0874255357
 21
1435.9081130405
 31
0.0
  0
LINE
  5
149
330
1F
100
AcDbEntity
  8
0
  6
HIDDEN
 62
     7
370
    18
100
AcDbLine
 10
2991.0874255356
 20
1370.9081130405
 30
0.0
 11
2991.0874255357
 21
1435.9081130405
 31
0.0
  0
LINE
  5
14A
330
1F
100
AcDbEntity
  8
0
  6
HIDDEN
 62
     7
370
    18
100
AcDbLine
 10
3811.0874255357
 20
1605.9081130405
 30
0.0
 11
3811.0874255357
 21
1480.9081130405
 31
0.0
  0
LINE
  5
14B
330
1F
100
AcDbEntity
  8
0
  6
HIDDEN
 62
     7
370
    18
100
AcDbLine
 10
2991.0874255357
 20
1605.9081130405
 30
0.0
 11
2991.0874255357
 21
1480.9081130405
 31
0.0
  0
LINE
  5
14C
330
1F
100
AcDbEntity
  8
0
  6
HIDDEN
 62
     7
370
    18
100
AcDbLine
 10
3810.3874255357
 20
3123.2591049515
 30
0.0
 11
3135.7874255357
 21
3123.2591049515
 31
0.0
  0
LINE
  5
14D
330
1F
100
AcDbEntity
  8
0
  6
HIDDEN
 62
     7
370
    18
100
AcDbLine
 10
3135.7874255357
 20
2195.3081130405
 30
0.0
 11
3810.3874255357
 21
2195.3081130405
 31
0.0
  0
LINE
  5
14E
330
1F
100
AcDbEntity
  8
0
  6
HIDDEN
 62
     7
370
    18
100
AcDbLine
 10
3810.3874255357
 20
3123.2591049515
 30
0.0
 11
3810.3874255357
 21
2195.3081130405
 31
0.0
  0
LINE
  5
14F
330
1F
100
AcDbEntity
  8
0
  6
HIDDEN
 62
     7
370
    18
100
AcDbLine
 10
3135.7874255357
 20
3123.2591049515
 30
0.0
 11
3135.7874255357
 21
2195.3081130405
 31
0.0
  0
LINE
  5
150
330
1F
100
AcDbEntity
  8
0
  6
HIDDEN
 62
     7
370
    18
100
AcDbLine
 10
3135.7874255357
 20
2154.4081130405
 30
0.0
 11
3135.7874255357
 21
2195.3081130405
 31
0.0
  0
LINE
  5
151
330
1F
100
AcDbEntity
  8
0
  6
HIDDEN
 62
     7
370
    18
100
AcDbLine
 10
3810.3874255357
 20
2154.4081130405
 30
0.0
 11
3810.3874255357
 21
2195.3081130405
 31
0.0
  0
LINE
  5
152
330
1F
100
AcDbEntity
  8
0
  6
HIDDEN
 62
     7
370
    18
100
AcDbLine
 10
3135.7874255357
 20
1516.3081130405
 30
0.0
 11
3810.3874255357
 21
1516.3081130405
 31
0.0
  0
LINE
  5
153
330
1F
100
AcDbEntity
  8
0
  6
HIDDEN
 62
     7
370
    18
100
AcDbLine
 10
3135.7874255357
 20
1516.3081130405
 30
0.0
 11
3135.7874255357
 21
1605.9081130405
 31
0.0
  0
LINE
  5
154
330
1F
100
AcDbEntity
  8
0
  6
HIDDEN
 62
     7
370
    18
100
AcDbLine
 10
3810.3874255357
 20
1516.3081130405
 30
0.0
 11
3810.3874255357
 21
1605.9081130405
 31
0.0
  0
LINE
  5
155
330
1F
100
AcDbEntity
  8
0
  6
HIDDEN
 62
     7
370
    18
100
AcDbLine
 10
3138.0874255357
 20
2107.4081130405
 30
0.0
 11
3138.0874255357
 21
2196.9081130405
 31
0.0
  0
LINE
  5
156
330
1F
100
AcDbEntity
  8
0
  6
HIDDEN
 62
     7
370
    18
100
AcDbLine
 10
3808.0874255357
 20
2107.4081130405
 30
0.0
 11
3808.0874255357
 21
2196.9081130405
 31
0.0
  0
LINE
  5
157
330
1F
100
AcDbEntity
  8
0
  6
HIDDEN
 62
     7
370
    18
100
AcDbLine
 10
3138.0874255357
 20
1517.9081130405
 30
0.0
 11
3808.0874255357
 21
1517.9081130405
 31
0.0
  0
LINE
  5
158
330
1F
100
AcDbEntity
  8
0
  6
HIDDEN
 62
     7
370
    18
100
AcDbLine
 10
3138.0874255357
 20
2107.4081130405
 30
0.0
 11
3808.0874255357
 21
2107.4081130405
 31
0.0
  0
LINE
  5
159
330
1F
100
AcDbEntity
  8
0
  6
HIDDEN
 62
     7
370
    18
100
AcDbLine
 10
3138.0874255357
 20
1517.9081130405
 30
0.0
 11
3138.0874255357
 21
2107.4081130405
 31
0.0
  0
LINE
  5
15A
330
1F
100
AcDbEntity
  8
0
  6
HIDDEN
 62
     7
370
    18
100
AcDbLine
 10
3808.0874255357
 20
1517.9081130405
 30
0.0
 11
3808.0874255357
 21
2107.4081130405
 31
0.0
  0
LINE
  5
15B
330
1F
100
AcDbEntity
  8
0
  6
HIDDEN
 62
     7
370
    18
100
AcDbLine
 10
3811.0874255357
 20
2154.4081130405
 30
0.0
 11
3811.0874255357
 21
2650.9081130405
 31
0.0
  0
LINE
  5
15C
330
1F
100
AcDbEntity
  8
0
  6
HIDDEN
 62
     7
370
    18
100
AcDbLine
 10
3135.7874255357
 20
3070.475352637
 30
0.0
 11
3810.3874255357
 21
3070.475352637
 31
0.0
  0
LINE
  5
15D
330
1F
100
AcDbEntity
  8
0
  6
HIDDEN
 62
     7
370
    18
100
AcDbLine
 10
3135.7874255357
 20
2227.9081130405
 30
0.0
 11
3810.3874255357
 21
2227.9081130405
 31
0.0
  0
LINE
  5
15E
330
1F
100
AcDbEntity
  8
0
  6
HIDDEN
 62
     7
370
    18
100
AcDbLine
 10
3300.0874255357
 20
1925.4081130405
 30
0.0
 11
3135.7874255357
 21
1925.4081130405
 31
0.0
  0
LINE
  5
15F
330
1F
100
AcDbEntity
  8
0
  6
HIDDEN
 62
     7
370
    18
100
AcDbLine
 10
2850.5874255357
 20
1763.9081130405
 30
0.0
 11
2893.0874255357
 21
1763.9081130405
 31
0.0
  0
LINE
  5
160
330
1F
100
AcDbEntity
  8
0
  6
HIDDEN
 62
     7
370
    18
100
AcDbLine
 10
2893.0874255357
 20
1801.9081130405
 30
0.0
 11
2850.5874255357
 21
1801.9081130405
 31
0.0
  0
LINE
  5
161
330
1F
100
AcDbEntity
  8
0
  6
HIDDEN
 62
     7
370
    18
100
AcDbLine
 10
2775.5874255357
 20
1707.9081130405
 30
0.0
 11
2850.5874255357
 21
1707.9081130405
 31
0.0
  0
LINE
  5
162
330
1F
100
AcDbEntity
  8
0
  6
HIDDEN
 62
     7
370
    18
100
AcDbLine
 10
2850.5874255357
 20
1857.9081130405
 30
0.0
 11
2775.5874255357
 21
1857.9081130405
 31
0.0
  0
LINE
  5
163
330
1F
100
AcDbEntity
  8
0
  6
HIDDEN
 62
     7
370
    18
100
AcDbLine
 10
2775.5874255357
 20
2048.4081130405
 30
0.0
 11
2850.5874255357
 21
2048.4081130405
 31
0.0
  0
LINE
  5
164
330
1F
100
AcDbEntity
  8
0
  6
HIDDEN
 62
     7
370
    18
100
AcDbLine
 10
2850.5874255357
 20
2273.4081130405
 30
0.0
 11
2775.5874255357
 21
2273.4081130405
 31
0.0
  0
LINE
  5
165
330
1F
100
AcDbEntity
  8
0
  6
HIDDEN
 62
     7
370
    18
100
AcDbLine
 10
3855.0874255357
 20
1370.9081130405
 30
0.0
 11
3855.0874255357
 21
1376.9081130405
 31
0.0
  0
LINE
  5
166
330
1F
100
AcDbEntity
  8
0
  6
HIDDEN
 62
     7
370
    18
100
AcDbLine
 10
3837.0874255357
 20
1376.9081130405
 30
0.0
 11
3837.0874255357
 21
1370.9081130405
 31
0.0
  0
LINE
  5
167
330
1F
100
AcDbEntity
  8
0
  6
HIDDEN
 62
     7
370
    18
100
AcDbLine
 10
2965.0874255357
 20
1370.9081130405
 30
0.0
 11
2965.0874255357
 21
1376.9081130405
 31
0.0
  0
LINE
  5
168
330
1F
100
AcDbEntity
  8
0
  6
HIDDEN
 62
     7
370
    18
100
AcDbLine
 10
2947.0874255357
 20
1376.9081130405
 30
0.0
 11
2947.0874255357
 21
1370.9081130405
 31
0.0
  0
LINE
  5
169
330
1F
100
AcDbEntity
  8
0
  6
HIDDEN
 62
     7
370
    18
100
AcDbLine
 10
3811.0874255357
 20
2650.9081130405
 30
0.0
 11
3810.3874255357
 21
2650.9081130405
 31
0.0
  0
LINE
  5
16A
330
1F
100
AcDbEntity
  8
0
  6
HIDDEN
 62
     7
370
    18
100
AcDbLine
 10
3891.0874255357
 20
2258.0882901931
 30
0.0
 11
3888.7874255357
 21
2258.0882901931
 31
0.0
  0
LINE
  5
16B
330
1F
100
AcDbEntity
  8
0
  6
HIDDEN
 62
     7
370
    18
100
AcDbLine
 10
3888.7874255357
 20
2248.0882901931
 30
0.0
 11
3891.0874255357
 21
2248.0882901931
 31
0.0
  0
LINE
  5
16C
330
1F
100
AcDbEntity
  8
0
  6
HIDDEN
 62
     7
370
    18
100
AcDbLine
 10
3891.0874255357
 20
2073.7279358879
 30
0.0
 11
3888.7874255357
 21
2073.7279358879
 31
0.0
  0
LINE
  5
16D
330
1F
100
AcDbEntity
  8
0
  6
HIDDEN
 62
     7
370
    18
100
AcDbLine
 10
3888.7874255357
 20
2063.7279358879
 30
0.0
 11
3891.0874255357
 21
2063.7279358879
 31
0.0
  0
LINE
  5
16E
330
1F
100
AcDbEntity
  8
0
  6
HIDDEN
 62
     7
370
    18
100
AcDbLine
 10
3850.0874255357
 20
2613.2081130405
 30
0.0
 11
3811.0874255357
 21
2613.2081130405
 31
0.0
  0
LINE
  5
16F
330
1F
100
AcDbEntity
  8
0
  6
HIDDEN
 62
     7
370
    18
100
AcDbLine
 10
3808.0874255357
 20
1710.9081130405
 30
0.0
 11
3891.0874255357
 21
1710.9081130405
 31
0.0
  0
LINE
  5
170
330
1F
100
AcDbEntity
  8
0
  6
HIDDEN
 62
     7
370
    18
100
AcDbLine
 10
3891.0874255357
 20
2610.9081130405
 30
0.0
 11
3808.0874255357
 21
2610.9081130405
 31
0.0
  0
LINE
  5
171
330
1F
100
AcDbEntity
  8
0
  6
HIDDEN
 62
     7
370
    18
100
AcDbLine
 10
3891.0874255357
 20
2428.4150481423
 30
0.0
 11
3888.7874255357
 21
2428.4150481423
 31
0.0
  0
LINE
  5
172
330
1F
100
AcDbEntity
  8
0
  6
HIDDEN
 62
     7
370
    18
100
AcDbLine
 10
3888.7874255357
 20
2418.4150481423
 30
0.0
 11
3891.0874255357
 21
2418.4150481423
 31
0.0
  0
LINE
  5
173
330
1F
100
AcDbEntity
  8
0
  6
HIDDEN
 62
     7
370
    18
100
AcDbLine
 10
3891.0874255357
 20
1903.4011779387
 30
0.0
 11
3888.7874255357
 21
1903.4011779387
 31
0.0
  0
LINE
  5
174
330
1F
100
AcDbEntity
  8
0
  6
HIDDEN
 62
     7
370
    18
100
AcDbLine
 10
3888.7874255357
 20
1893.4011779387
 30
0.0
 11
3891.0874255357
 21
1893.4011779387
 31
0.0
  0
LINE
  5
175
330
1F
100
AcDbEntity
  8
0
  6
HIDDEN
 62
     7
370
    18
100
AcDbLine
 10
3891.0874255357
 20
1773.0387212276
 30
0.0
 11
3888.7874255357
 21
1773.0387212276
 31
0.0
  0
LINE
  5
176
330
1F
100
AcDbEntity
  8
0
  6
HIDDEN
 62
     7
370
    18
100
AcDbLine
 10
3888.7874255357
 20
1763.0387212276
 30
0.0
 11
3891.0874255357
 21
1763.0387212276
 31
0.0
  0
LINE
  5
177
330
1F
100
AcDbEntity
  8
0
  6
HIDDEN
 62
     7
370
    18
100
AcDbLine
 10
3891.0874255357
 20
2558.7775048535
 30
0.0
 11
3888.7874255357
 21
2558.7775048535
 31
0.0
  0
LINE
  5
178
330
1F
100
AcDbEntity
  8
0
  6
HIDDEN
 62
     7
370
    18
100
AcDbLine
 10
3888.7874255357
 20
2548.7775048535
 30
0.0
 11
3891.0874255357
 21
2548.7775048535
 31
0.0
  0
LINE
  5
179
330
1F
100
AcDbEntity
  8
0
  6
HIDDEN
 62
     7
370
    18
100
AcDbLine
 10
3891.0874255357
 20
1702.48706805
 30
0.0
 11
3888.7874255357
 21
1702.48706805
 31
0.0
  0
LINE
  5
17A
330
1F
100
AcDbEntity
  8
0
  6
HIDDEN
 62
     7
370
    18
100
AcDbLine
 10
3888.7874255357
 20
1692.48706805
 30
0.0
 11
3891.0874255357
 21
1692.48706805
 31
0.0
  0
LINE
  5
17B
330
1F
100
AcDbEntity
  8
0
  6
HIDDEN
 62
     7
370
    18
100
AcDbLine
 10
3891.0874255357
 20
2629.329158031
 30
0.0
 11
3888.7874255357
 21
2629.329158031
 31
0.0
  0
LINE
  5
17C
330
1F
100
AcDbEntity
  8
0
  6
HIDDEN
 62
     7
370
    18
100
AcDbLine
 10
3888.7874255357
 20
2619.329158031
 30
0.0
 11
3891.0874255357
 21
2619.329158031
 31
0.0
  0
LINE
  5
17D
330
1F
100
AcDbEntity
  8
2
100
AcDbLine
 10
2924.7281491921
 20
2160.9081130405
 30
0.0
 11
3697.7608820094
 21
2160.9081130405
 31
0.0
  0
LINE
  5
17E
330
1F
100
AcDbEntity
  8
2
100
AcDbLine
 10
3473.0874255357
 20
1791.5660841558
 30
0.0
 11
3473.0874255357
 21
2854.8339285533
 31
0.0
  0
LINE
  5
17F
330
1F
100
AcDbEntity
  8
2
100
AcDbLine
 10
3671.3040018058
 20
2659.4081130405
 30
0.0
 11
3204.6970760781
 21
2659.4081130405
 31
0.0
  0
LINE
  5
180
330
1F
100
AcDbEntity
  8
1
100
AcDbLine
 10
698.8757001082
 20
3671.5497409326
 30
0.0
 11
698.8757001082
 21
4041.0497409326
 31
0.0
  0
LINE
  5
181
330
1F
100
AcDbEntity
  8
1
100
AcDbLine
 10
413.8757001082
 20
4041.0497409326
 30
0.0
 11
413.8757001082
 21
3671.5497409326
 31
0.0
  0
LINE
  5
182
330
1F
100
AcDbEntity
  8
1
100
AcDbLine
 10
575.3757001082
 20
3634.0497409326
 30
0.0
 11
575.3757001082
 21
3671.5497409326
 31
0.0
  0
LINE
  5
183
330
1F
100
AcDbEntity
  8
1
100
AcDbLine
 10
537.3757001082
 20
3671.5497409326
 30
0.0
 11
537.3757001082
 21
3634.0497409326
 31
0.0
  0
LINE
  5
184
330
1F
100
AcDbEntity
  8
1
100
AcDbLine
 10
1186.3757001082
 20
4632.0497409326
 30
0.0
 11
1186.3757001082
 21
4629.7497409326
 31
0.0
  0
LINE
  5
185
330
1F
100
AcDbEntity
  8
1
100
AcDbLine
 10
2166.3757001082
 20
4629.7497409326
 30
0.0
 11
2166.3757001082
 21
4632.0497409326
 31
0.0
  0
LINE
  5
186
330
1F
100
AcDbEntity
  8
1
100
AcDbLine
 10
2166.3757001082
 20
4551.3497409326
 30
0.0
 11
2166.3757001082
 21
4552.0497409326
 31
0.0
  0
LINE
  5
187
330
1F
100
AcDbEntity
  8
1
100
AcDbLine
 10
1186.3757001082
 20
4552.0497409326
 30
0.0
 11
1186.3757001082
 21
4551.3497409326
 31
0.0
  0
LINE
  5
188
330
1F
100
AcDbEntity
  8
1
100
AcDbLine
 10
1224.0757001082
 20
4629.7497409326
 30
0.0
 11
1224.0757001082
 21
4552.0497409326
 31
0.0
  0
LINE
  5
189
330
1F
100
AcDbEntity
  8
1
100
AcDbLine
 10
2128.6757001082
 20
4552.0497409326
 30
0.0
 11
2128.6757001082
 21
4629.7497409326
 31
0.0
  0
LINE
  5
18A
330
1F
100
AcDbEntity
  8
1
100
AcDbLine
 10
413.8757001082
 20
3671.5497409326
 30
0.0
 11
698.8757001082
 21
3671.5497409326
 31
0.0
  0
LINE
  5
18B
330
1F
100
AcDbEntity
  8
1
100
AcDbLine
 10
698.8757001082
 20
4041.0497409326
 30
0.0
 11
413.8757001082
 21
4041.0497409326
 31
0.0
  0
LINE
  5
18C
330
1F
100
AcDbEntity
  8
1
100
AcDbLine
 10
381.3757001082
 20
3970.5497409326
 30
0.0
 11
413.8757001082
 21
3970.5497409326
 31
0.0
  0
LINE
  5
18D
330
1F
100
AcDbEntity
  8
1
100
AcDbLine
 10
698.8757001082
 20
3970.5497409326
 30
0.0
 11
731.3757001082
 21
3970.5497409326
 31
0.0
  0
LINE
  5
18E
330
1F
100
AcDbEntity
  8
1
100
AcDbLine
 10
731.3757001082
 20
3970.5497409326
 30
0.0
 11
731.3757001082
 21
3690.5497409326
 31
0.0
  0
LINE
  5
18F
330
1F
100
AcDbEntity
  8
1
100
AcDbLine
 10
731.3757001082
 20
3690.5497409326
 30
0.0
 11
698.8757001082
 21
3690.5497409326
 31
0.0
  0
LINE
  5
190
330
1F
100
AcDbEntity
  8
1
100
AcDbLine
 10
413.8757001082
 20
3690.5497409326
 30
0.0
 11
381.3757001082
 21
3690.5497409326
 31
0.0
  0
LINE
  5
191
330
1F
100
AcDbEntity
  8
1
100
AcDbLine
 10
381.3757001082
 20
3690.5497409326
 30
0.0
 11
381.3757001082
 21
3970.5497409326
 31
0.0
  0
LINE
  5
192
330
1F
100
AcDbEntity
  8
1
100
AcDbLine
 10
1621.3757001082
 20
3474.0497409326
 30
0.0
 11
1621.3757001082
 21
3634.0497409326
 31
0.0
  0
LINE
  5
193
330
1F
100
AcDbEntity
  8
1
100
AcDbLine
 10
1621.3757001082
 20
3474.0497409326
 30
0.0
 11
376.3757001082
 21
3474.0497409326
 31
0.0
  0
LINE
  5
194
330
1F
100
AcDbEntity
  8
1
100
AcDbLine
 10
376.3757001082
 20
3474.0497409326
 30
0.0
 11
376.3757001082
 21
3634.0497409326
 31
0.0
  0
LINE
  5
195
330
1F
100
AcDbEntity
  8
1
100
AcDbLine
 10
1621.3757001082
 20
3634.0497409326
 30
0.0
 11
376.3757001082
 21
3634.0497409326
 31
0.0
  0
LINE
  5
196
330
1F
100
AcDbEntity
  8
1
100
AcDbLine
 10
1976.3757001082
 20
3474.0497409326
 30
0.0
 11
1621.3757001082
 21
3474.0497409326
 31
0.0
  0
LINE
  5
197
330
1F
100
AcDbEntity
  8
1
100
AcDbLine
 10
1976.3757001082
 20
3474.0497409326
 30
0.0
 11
1976.3757001082
 21
3634.0497409326
 31
0.0
  0
LINE
  5
198
330
1F
100
AcDbEntity
  8
1
100
AcDbLine
 10
1976.3757001082
 20
3634.0497409326
 30
0.0
 11
1621.3757001082
 21
3634.0497409326
 31
0.0
  0
LINE
  5
199
330
1F
100
AcDbEntity
  8
1
100
AcDbLine
 10
381.3757001082
 20
3709.0497409326
 30
0.0
 11
291.3757001082
 21
3709.0497409326
 31
0.0
  0
LINE
  5
19A
330
1F
100
AcDbEntity
  8
1
100
AcDbLine
 10
441.3757001082
 20
3634.0497409326
 30
0.0
 11
441.3757001082
 21
3671.5497409326
 31
0.0
  0
LINE
  5
19B
330
1F
100
AcDbEntity
  8
1
100
AcDbLine
 10
291.3757001082
 20
3579.0497409326
 30
0.0
 11
376.3757001082
 21
3579.0497409326
 31
0.0
  0
LINE
  5
19C
330
1F
100
AcDbEntity
  8
1
100
AcDbLine
 10
291.3757001082
 20
3709.0497409326
 30
0.0
 11
291.3757001082
 21
3579.0497409326
 31
0.0
  0
LINE
  5
19D
330
1F
100
AcDbEntity
  8
1
100
AcDbLine
 10
2061.3757001082
 20
3709.0497409326
 30
0.0
 11
1911.3757001082
 21
3709.0497409326
 31
0.0
  0
LINE
  5
19E
330
1F
100
AcDbEntity
  8
1
100
AcDbLine
 10
2061.3757001082
 20
3579.0497409326
 30
0.0
 11
2061.3757001082
 21
3709.0497409326
 31
0.0
  0
LINE
  5
19F
330
1F
100
AcDbEntity
  8
1
100
AcDbLine
 10
1976.3757001082
 20
3579.0497409326
 30
0.0
 11
2061.3757001082
 21
3579.0497409326
 31
0.0
  0
LINE
  5
1A0
330
1F
100
AcDbEntity
  8
1
100
AcDbLine
 10
1911.3757001082
 20
3709.0497409326
 30
0.0
 11
1911.3757001082
 21
3634.0497409326
 31
0.0
  0
LINE
  5
1A1
330
1F
100
AcDbEntity
  8
1
100
AcDbLine
 10
336.3757001082
 20
4617.0497409326
 30
0.0
 11
336.3757001082
 21
3709.0497409326
 31
0.0
  0
LINE
  5
1A2
330
1F
100
AcDbEntity
  8
1
100
AcDbLine
 10
2061.3757001082
 20
3667.0497409326
 30
0.0
 11
2236.3757001082
 21
3667.0497409326
 31
0.0
  0
LINE
  5
1A3
330
1F
100
AcDbEntity
  8
1
100
AcDbLine
 10
441.3757001082
 20
3667.0497409326
 30
0.0
 11
537.3757001082
 21
3667.0497409326
 31
0.0
  0
LINE
  5
1A4
330
1F
100
AcDbEntity
  8
1
100
AcDbLine
 10
575.3757001082
 20
3667.0497409326
 30
0.0
 11
1911.3757001082
 21
3667.0497409326
 31
0.0
  0
LINE
  5
1A5
330
1F
100
AcDbEntity
  8
1
100
AcDbLine
 10
731.3757001082
 20
3732.0497409326
 30
0.0
 11
2171.3757001082
 21
3732.0497409326
 31
0.0
  0
LINE
  5
1A6
330
1F
100
AcDbEntity
  8
1
100
AcDbLine
 10
2171.3757001082
 20
3732.0497409326
 30
0.0
 11
2171.3757001082
 21
3876.7497409326
 31
0.0
  0
LINE
  5
1A7
330
1F
100
AcDbEntity
  8
1
100
AcDbLine
 10
2171.3757001082
 20
4551.3497409326
 30
0.0
 11
2171.3757001082
 21
4552.0497409326
 31
0.0
  0
LINE
  5
1A8
330
1F
100
AcDbEntity
  8
1
100
AcDbLine
 10
2171.3757001082
 20
4552.0497409326
 30
0.0
 11
2166.3757001082
 21
4552.0497409326
 31
0.0
  0
LINE
  5
1A9
330
1F
100
AcDbEntity
  8
1
100
AcDbLine
 10
1186.3757001082
 20
4552.0497409326
 30
0.0
 11
401.3757001082
 21
4552.0497409326
 31
0.0
  0
LINE
  5
1AA
330
1F
100
AcDbEntity
  8
1
100
AcDbLine
 10
401.3757001082
 20
4552.0497409326
 30
0.0
 11
401.3757001082
 21
3970.5497409326
 31
0.0
  0
LINE
  5
1AB
330
1F
100
AcDbEntity
  8
1
100
AcDbLine
 10
2236.3757001082
 20
3667.0497409326
 30
0.0
 11
2236.3757001082
 21
3876.7497409326
 31
0.0
  0
LINE
  5
1AC
330
1F
100
AcDbEntity
  8
1
100
AcDbLine
 10
2236.3757001082
 20
4551.3497409326
 30
0.0
 11
2236.3757001082
 21
4617.0497409326
 31
0.0
  0
LINE
  5
1AD
330
1F
100
AcDbEntity
  8
1
100
AcDbLine
 10
2236.3757001082
 20
4617.0497409326
 30
0.0
 11
2128.6757001082
 21
4617.0497409326
 31
0.0
  0
LINE
  5
1AE
330
1F
100
AcDbEntity
  8
1
100
AcDbLine
 10
1224.0757001082
 20
4617.0497409326
 30
0.0
 11
336.3757001082
 21
4617.0497409326
 31
0.0
  0
LINE
  5
1AF
330
1F
100
AcDbEntity
  8
1
100
AcDbLine
 10
2293.3757001082
 20
3837.0497409326
 30
0.0
 11
2296.3757001082
 21
3837.0497409326
 31
0.0
  0
LINE
  5
1B0
330
1F
100
AcDbEntity
  8
1
100
AcDbLine
 10
2293.3757001082
 20
4591.0497409326
 30
0.0
 11
2293.3757001082
 21
3837.0497409326
 31
0.0
  0
LINE
  5
1B1
330
1F
100
AcDbEntity
  8
1
100
AcDbLine
 10
2293.3757001082
 20
4591.0497409326
 30
0.0
 11
2296.3757001082
 21
4591.0497409326
 31
0.0
  0
LINE
  5
1B2
330
1F
100
AcDbEntity
  8
1
100
AcDbLine
 10
2296.3757001082
 20
4591.0497409326
 30
0.0
 11
2296.3757001082
 21
3837.0497409326
 31
0.0
  0
LINE
  5
1B3
330
1F
100
AcDbEntity
  8
1
100
AcDbLine
 10
2293.3757001082
 20
3876.7497409326
 30
0.0
 11
1671.8228751548
 21
3876.7497409326
 31
0.0
  0
LINE
  5
1B4
330
1F
100
AcDbEntity
  8
1
100
AcDbLine
 10
1671.8228751548
 20
3876.7497409326
 30
0.0
 11
1671.8228751548
 21
4551.3497409326
 31
0.0
  0
LINE
  5
1B5
330
1F
100
AcDbEntity
  8
1
100
AcDbLine
 10
2293.3757001082
 20
4551.3497409326
 30
0.0
 11
1671.8228751548
 21
4551.3497409326
 31
0.0
  0
LINE
  5
1B6
330
1F
100
AcDbEntity
  8
1
100
AcDbLine
 10
897.7757001082
 20
3876.7497409326
 30
0.0
 11
897.7757001082
 21
4551.3497409326
 31
0.0
  0
LINE
  5
1B7
330
1F
100
AcDbEntity
  8
1
100
AcDbLine
 10
1671.8228751548
 20
3876.7497409326
 30
0.0
 11
897.7757001082
 21
3876.7497409326
 31
0.0
  0
LINE
  5
1B8
330
1F
100
AcDbEntity
  8
1
100
AcDbLine
 10
1671.8228751548
 20
4551.3497409326
 30
0.0
 11
897.7757001082
 21
4551.3497409326
 31
0.0
  0
LINE
  5
1B9
330
1F
100
AcDbEntity
  8
1
100
AcDbLine
 10
1186.3757001082
 20
4632.0497409326
 30
0.0
 11
2166.3757001082
 21
4632.0497409326
 31
0.0
  0
LINE
  5
1BA
330
1F
100
AcDbEntity
  8
1
100
AcDbLine
 10
1186.3757001082
 20
4629.7497409326
 30
0.0
 11
2166.3757001082
 21
4629.7497409326
 31
0.0
  0
LINE
  5
1BB
330
1F
100
AcDbEntity
  8
1
100
AcDbLine
 10
2166.3757001082
 20
4552.0497409326
 30
0.0
 11
1186.3757001082
 21
4552.0497409326
 31
0.0
  0
LINE
  5
1BC
330
1F
100
AcDbEntity
  8
0
  6
HIDDEN
 62
     7
370
    18
100
AcDbLine
 10
477.6812911582
 20
3700.5497409326
 30
0.0
 11
488.6919502121
 21
3700.5497409326
 31
0.0
  0
LINE
  5
1BD
330
1F
100
AcDbEntity
  8
0
  6
HIDDEN
 62
     7
370
    18
100
AcDbLine
 10
477.6812911582
 20
3700.5497409326
 30
0.0
 11
477.6812911582
 21
3960.5497409326
 31
0.0
  0
LINE
  5
1BE
330
1F
100
AcDbEntity
  8
0
  6
HIDDEN
 62
     7
370
    18
100
AcDbLine
 10
477.6812911582
 20
3960.5497409326
 30
0.0
 11
488.6919502121
 21
3960.5497409326
 31
0.0
  0
LINE
  5
1BF
330
1F
100
AcDbEntity
  8
0
  6
HIDDEN
 62
     7
370
    18
100
AcDbLine
 10
488.6919502121
 20
4041.0497409326
 30
0.0
 11
488.6919502121
 21
3960.5497409326
 31
0.0
  0
LINE
  5
1C0
330
1F
100
AcDbEntity
  8
0
  6
HIDDEN
 62
     7
370
    18
100
AcDbLine
 10
624.0594500043
 20
4041.0497409326
 30
0.0
 11
624.0594500043
 21
3960.5497409326
 31
0.0
  0
LINE
  5
1C1
330
1F
100
AcDbEntity
  8
0
  6
HIDDEN
 62
     7
370
    18
100
AcDbLine
 10
624.0594500043
 20
3960.5497409326
 30
0.0
 11
635.0701090583
 21
3960.5497409326
 31
0.0
  0
LINE
  5
1C2
330
1F
100
AcDbEntity
  8
0
  6
HIDDEN
 62
     7
370
    18
100
AcDbLine
 10
635.0701090583
 20
3960.5497409326
 30
0.0
 11
635.0701090583
 21
3700.5497409326
 31
0.0
  0
LINE
  5
1C3
330
1F
100
AcDbEntity
  8
0
  6
HIDDEN
 62
     7
370
    18
100
AcDbLine
 10
624.0594500043
 20
3700.5497409326
 30
0.0
 11
635.0701090583
 21
3700.5497409326
 31
0.0
  0
LINE
  5
1C4
330
1F
100
AcDbEntity
  8
0
  6
HIDDEN
 62
     7
370
    18
100
AcDbLine
 10
624.0594500043
 20
3700.5497409326
 30
0.0
 11
624.0594500043
 21
3671.5497409326
 31
0.0
  0
LINE
  5
1C5
330
1F
100
AcDbEntity
  8
0
  6
HIDDEN
 62
     7
370
    18
100
AcDbLine
 10
488.6919502121
 20
3700.5497409326
 30
0.0
 11
488.6919502121
 21
3671.5497409326
 31
0.0
  0
LINE
  5
1C6
330
1F
100
AcDbEntity
  8
0
  6
HIDDEN
 62
     7
370
    18
100
AcDbLine
 10
477.6812911582
 20
3960.5497409326
 30
0.0
 11
468.8757001082
 21
3960.5497409326
 31
0.0
  0
LINE
  5
1C7
330
1F
100
AcDbEntity
  8
0
  6
HIDDEN
 62
     7
370
    18
100
AcDbLine
 10
477.6812911582
 20
3700.5497409326
 30
0.0
 11
468.8757001082
 21
3700.5497409326
 31
0.0
  0
LINE
  5
1C8
330
1F
100
AcDbEntity
  8
0
  6
HIDDEN
 62
     7
370
    18
100
AcDbLine
 10
468.8757001082
 20
3700.5497409326
 30
0.0
 11
468.8757001082
 21
3960.5497409326
 31
0.0
  0
LINE
  5
1C9
330
1F
100
AcDbEntity
  8
0
  6
HIDDEN
 62
     7
370
    18
100
AcDbLine
 10
643.8757001082
 20
3700.5497409326
 30
0.0
 11
635.0701090583
 21
3700.5497409326
 31
0.0
  0
LINE
  5
1CA
330
1F
100
AcDbEntity
  8
0
  6
HIDDEN
 62
     7
370
    18
100
AcDbLine
 10
643.8757001082
 20
3960.5497409326
 30
0.0
 11
635.0701090583
 21
3960.5497409326
 31
0.0
  0
LINE
  5
1CB
330
1F
100
AcDbEntity
  8
0
  6
HIDDEN
 62
     7
370
    18
100
AcDbLine
 10
643.8757001082
 20
3700.5497409326
 30
0.0
 11
643.8757001082
 21
3960.5497409326
 31
0.0
  0
LINE
  5
1CC
330
1F
100
AcDbEntity
  8
0
  6
HIDDEN
 62
     7
370
    18
100
AcDbLine
 10
488.6919502121
 20
3960.5497409326
 30
0.0
 11
624.0594500043
 21
3960.5497409326
 31
0.0
  0
LINE
  5
1CD
330
1F
100
AcDbEntity
  8
0
  6
HIDDEN
 62
     7
370
    18
100
AcDbLine
 10
488.6919502121
 20
3700.5497409326
 30
0.0
 11
624.0594500043
 21
3700.5497409326
 31
0.0
  0
LINE
  5
1CE
330
1F
100
AcDbEntity
  8
0
  6
HIDDEN
 62
     7
370
    18
100
AcDbLine
 10
413.8757001082
 20
3970.5497409326
 30
0.0
 11
698.8757001082
 21
3970.5497409326
 31
0.0
  0
LINE
  5
1CF
330
1F
100
AcDbEntity
  8
0
  6
HIDDEN
 62
     7
370
    18
100
AcDbLine
 10
698.8757001082
 20
3690.5497409326
 30
0.0
 11
413.8757001082
 21
3690.5497409326
 31
0.0
  0
LINE
  5
1D0
330
1F
100
AcDbEntity
  8
0
  6
HIDDEN
 62
     7
370
    18
100
AcDbLine
 10
481.3757001082
 20
3516.5497409326
 30
0.0
 11
631.3757001082
 21
3516.5497409326
 31
0.0
  0
LINE
  5
1D1
330
1F
100
AcDbEntity
  8
0
  6
HIDDEN
 62
     7
370
    18
100
AcDbLine
 10
481.3757001082
 20
3591.5497409326
 30
0.0
 11
631.3757001082
 21
3591.5497409326
 31
0.0
  0
LINE
  5
1D2
330
1F
100
AcDbEntity
  8
0
  6
HIDDEN
 62
     7
370
    18
100
AcDbLine
 10
1676.5223275569
 20
3516.5497409326
 30
0.0
 11
1788.8757001082
 21
3516.5497409326
 31
0.0
  0
LINE
  5
1D3
330
1F
100
AcDbEntity
  8
0
  6
HIDDEN
 62
     7
370
    18
100
AcDbLine
 10
1563.8757001082
 20
3516.5497409326
 30
0.0
 11
1676.5223275569
 21
3516.5497409326
 31
0.0
  0
LINE
  5
1D4
330
1F
100
AcDbEntity
  8
0
  6
HIDDEN
 62
     7
370
    18
100
AcDbLine
 10
1676.5223275569
 20
3591.5497409326
 30
0.0
 11
1788.8757001082
 21
3591.5497409326
 31
0.0
  0
LINE
  5
1D5
330
1F
100
AcDbEntity
  8
0
  6
HIDDEN
 62
     7
370
    18
100
AcDbLine
 10
1563.8757001082
 20
3591.5497409326
 30
0.0
 11
1676.5223275569
 21
3591.5497409326
 31
0.0
  0
CIRCLE
  5
1D6
330
1F
100
AcDbEntity
  8
0
  6
HIDDEN
 62
     7
370
    18
100
AcDbCircle
 10
426.3757001082
 20
4587.0497409326
 30
0.0
 40
8.99999999999909
  0
CIRCLE
  5
1D7
330
1F
100
AcDbEntity
  8
0
  6
HIDDEN
 62
     7
370
    18
100
AcDbCircle
 10
1286.3757001082
 20
4587.0497409326
 30
0.0
 40
8.99999999999909
  0
CIRCLE
  5
1D8
330
1F
100
AcDbEntity
  8
0
  6
HIDDEN
 62
     7
370
    18
100
AcDbCircle
 10
2146.3757001082
 20
4587.0497409326
 30
0.0
 40
8.99999999999909
  0
CIRCLE
  5
1D9
330
1F
100
AcDbEntity
  8
0
  6
HIDDEN
 62
     7
370
    18
100
AcDbCircle
 10
2146.3757001082
 20
3697.0497409326
 30
0.0
 40
9.0
  0
CIRCLE
  5
1DA
330
1F
100
AcDbEntity
  8
0
  6
HIDDEN
 62
     7
370
    18
100
AcDbCircle
 10
1286.3757001082
 20
3697.0497409326
 30
0.0
 40
9.0
  0
CIRCLE
  5
1DB
330
1F
100
AcDbEntity
  8
0
  6
HIDDEN
 62
     7
370
    18
100
AcDbCircle
 10
426.3757001082
 20
3697.0497409326
 30
0.0
 40
9.0
  0
LINE
  5
1DC
330
1F
100
AcDbEntity
  8
0
  6
HIDDEN
 62
     7
370
    18
100
AcDbLine
 10
441.3757001082
 20
3709.0497409326
 30
0.0
 11
381.3757001082
 21
3709.0497409326
 31
0.0
  0
LINE
  5
1DD
330
1F
100
AcDbEntity
  8
0
  6
HIDDEN
 62
     7
370
    18
100
AcDbLine
 10
441.3757001082
 20
3579.0497409326
 30
0.0
 11
441.3757001082
 21
3634.0497409326
 31
0.0
  0
LINE
  5
1DE
330
1F
100
AcDbEntity
  8
0
  6
HIDDEN
 62
     7
370
    18
100
AcDbLine
 10
441.3757001082
 20
3671.5497409326
 30
0.0
 11
441.3757001082
 21
3709.0497409326
 31
0.0
  0
LINE
  5
1DF
330
1F
100
AcDbEntity
  8
0
  6
HIDDEN
 62
     7
370
    18
100
AcDbLine
 10
376.3757001082
 20
3579.0497409326
 30
0.0
 11
441.3757001082
 21
3579.0497409326
 31
0.0
  0
LINE
  5
1E0
330
1F
100
AcDbEntity
  8
0
  6
HIDDEN
 62
     7
370
    18
100
AcDbLine
 10
1911.3757001082
 20
3579.0497409326
 30
0.0
 11
1976.3757001082
 21
3579.0497409326
 31
0.0
  0
LINE
  5
1E1
330
1F
100
AcDbEntity
  8
0
  6
HIDDEN
 62
     7
370
    18
100
AcDbLine
 10
1911.3757001082
 20
3634.0497409326
 30
0.0
 11
1911.3757001082
 21
3579.0497409326
 31
0.0
  0
LINE
  5
1E2
330
1F
100
AcDbEntity
  8
0
  6
HIDDEN
 62
     7
370
    18
100
AcDbLine
 10
537.3757001082
 20
3667.0497409326
 30
0.0
 11
575.3757001082
 21
3667.0497409326
 31
0.0
  0
LINE
  5
1E3
330
1F
100
AcDbEntity
  8
0
  6
HIDDEN
 62
     7
370
    18
100
AcDbLine
 10
401.3757001082
 20
3732.0497409326
 30
0.0
 11
731.3757001082
 21
3732.0497409326
 31
0.0
  0
LINE
  5
1E4
330
1F
100
AcDbEntity
  8
0
  6
HIDDEN
 62
     7
370
    18
100
AcDbLine
 10
2171.3757001082
 20
3876.7497409326
 30
0.0
 11
2171.3757001082
 21
4551.3497409326
 31
0.0
  0
LINE
  5
1E5
330
1F
100
AcDbEntity
  8
0
  6
HIDDEN
 62
     7
370
    18
100
AcDbLine
 10
401.3757001082
 20
3970.5497409326
 30
0.0
 11
401.3757001082
 21
3732.0497409326
 31
0.0
  0
LINE
  5
1E6
330
1F
100
AcDbEntity
  8
0
  6
HIDDEN
 62
     7
370
    18
100
AcDbLine
 10
2236.3757001082
 20
3876.7497409326
 30
0.0
 11
2236.3757001082
 21
4551.3497409326
 31
0.0
  0
LINE
  5
1E7
330
1F
100
AcDbEntity
  8
0
  6
HIDDEN
 62
     7
370
    18
100
AcDbLine
 10
2128.6757001082
 20
4617.0497409326
 30
0.0
 11
1224.0757001082
 21
4617.0497409326
 31
0.0
  0
LINE
  5
1E8
330
1F
100
AcDbEntity
  8
0
  6
HIDDEN
 62
     7
370
    18
100
AcDbLine
 10
336.3757001082
 20
3709.0497409326
 30
0.0
 11
336.3757001082
 21
3667.0497409326
 31
0.0
  0
LINE
  5
1E9
330
1F
100
AcDbEntity
  8
0
  6
HIDDEN
 62
     7
370
    18
100
AcDbLine
 10
336.3757001082
 20
3667.0497409326
 30
0.0
 11
441.3757001082
 21
3667.0497409326
 31
0.0
  0
LINE
  5
1EA
330
1F
100
AcDbEntity
  8
0
  6
HIDDEN
 62
     7
370
    18
100
AcDbLine
 10
1911.3757001082
 20
3667.0497409326
 30
0.0
 11
2061.3757001082
 21
3667.0497409326
 31
0.0
  0
LINE
  5
1EB
330
1F
100
AcDbEntity
  8
0
  6
HIDDEN
 62
     7
370
    18
100
AcDbLine
 10
2177.3757001082
 20
3726.0497409326
 30
0.0
 11
2177.3757001082
 21
4558.0497409326
 31
0.0
  0
LINE
  5
1EC
330
1F
100
AcDbEntity
  8
0
  6
HIDDEN
 62
     7
370
    18
100
AcDbLine
 10
395.3757001082
 20
4558.0497409326
 30
0.0
 11
395.3757001082
 21
3726.0497409326
 31
0.0
  0
LINE
  5
1ED
330
1F
100
AcDbEntity
  8
0
  6
HIDDEN
 62
     7
370
    18
100
AcDbLine
 10
2177.3757001082
 20
4558.0497409326
 30
0.0
 11
395.3757001082
 21
4558.0497409326
 31
0.0
  0
LINE
  5
1EE
330
1F
100
AcDbEntity
  8
0
  6
HIDDEN
 62
     7
370
    18
100
AcDbLine
 10
395.3757001082
 20
3726.0497409326
 30
0.0
 11
2177.3757001082
 21
3726.0497409326
 31
0.0
  0
CIRCLE
  5
1EF
330
1F
100
AcDbEntity
  8
0
  6
HIDDEN
 62
     7
370
    18
100
AcDbCircle
 10
2171.3757001082
 20
4584.5497409326
 30
0.0
 40
17.5
  0
CIRCLE
  5
1F0
330
1F
100
AcDbEntity
  8
0
  6
HIDDEN
 62
     7
370
    18
100
AcDbCircle
 10
401.3757001082
 20
4584.5497409326
 30
0.0
 40
17.5
  0
CIRCLE
  5
1F1
330
1F
100
AcDbEntity
  8
0
  6
HIDDEN
 62
     7
370
    18
100
AcDbCircle
 10
2171.3757001082
 20
3699.5497409326
 30
0.0
 40
17.50000000000045
  0
CIRCLE
  5
1F2
330
1F
100
AcDbEntity
  8
0
  6
HIDDEN
 62
     7
370
    18
100
AcDbCircle
 10
401.3757001082
 20
3699.5497409326
 30
0.0
 40
17.50000000000045
  0
LINE
  5
1F3
330
1F
100
AcDbEntity
  8
0
  6
HIDDEN
 62
     7
370
    18
100
AcDbLine
 10
2296.3757001082
 20
4549.0497409326
 30
0.0
 11
1671.9582636599
 21
4549.0497409326
 31
0.0
  0
LINE
  5
1F4
330
1F
100
AcDbEntity
  8
0
  6
HIDDEN
 62
     7
370
    18
100
AcDbLine
 10
2296.3757001082
 20
3879.0497409326
 30
0.0
 11
1671.9582636599
 21
3879.0497409326
 31
0.0
  0
LINE
  5
1F5
330
1F
100
AcDbEntity
  8
0
  6
HIDDEN
 62
     7
370
    18
100
AcDbLine
 10
899.3757001082
 20
3879.0497409326
 30
0.0
 11
899.3757001082
 21
4549.0497409326
 31
0.0
  0
LINE
  5
1F6
330
1F
100
AcDbEntity
  8
0
  6
HIDDEN
 62
     7
370
    18
100
AcDbLine
 10
1671.9582636599
 20
3879.0497409326
 30
0.0
 11
899.3757001082
 21
3879.0497409326
 31
0.0
  0
LINE
  5
1F7
330
1F
100
AcDbEntity
  8
0
  6
HIDDEN
 62
     7
370
    18
100
AcDbLine
 10
1671.9582636599
 20
4549.0497409326
 30
0.0
 11
899.3757001082
 21
4549.0497409326
 31
0.0
  0
LINE
  5
1F8
330
1F
100
AcDbEntity
  8
0
  6
HIDDEN
 62
     7
370
    18
100
AcDbLine
 10
1671.9582636599
 20
3879.0497409326
 30
0.0
 11
1671.9582636599
 21
4549.0497409326
 31
0.0
  0
LINE
  5
1F9
330
1F
100
AcDbEntity
  8
0
  6
HIDDEN
 62
     7
370
    18
100
AcDbLine
 10
1609.3757001082
 20
3876.7497409326
 30
0.0
 11
1609.3757001082
 21
4551.3497409326
 31
0.0
  0
LINE
  5
1FA
330
1F
100
AcDbEntity
  8
0
  6
HIDDEN
 62
     7
370
    18
100
AcDbLine
 10
1609.3757001082
 20
3879.0497409326
 30
0.0
 11
1609.3757001082
 21
4549.0497409326
 31
0.0
  0
LINE
  5
1FB
330
1F
100
AcDbEntity
  8
0
  6
HIDDEN
 62
     7
370
    18
100
AcDbLine
 10
2212.3757001082
 20
3879.0497409326
 30
0.0
 11
2212.3757001082
 21
4549.0497409326
 31
0.0
  0
LINE
  5
1FC
330
1F
100
AcDbEntity
  8
0
  6
HIDDEN
 62
     7
370
    18
100
AcDbLine
 10
2213.9757001082
 20
3876.7497409326
 30
0.0
 11
2213.9757001082
 21
4551.3497409326
 31
0.0
  0
LINE
  5
1FD
330
1F
100
AcDbEntity
  8
0
  6
HIDDEN
 62
     7
370
    18
100
AcDbLine
 10
1622.8757001082
 20
3876.7497409326
 30
0.0
 11
1622.8757001082
 21
4551.3497409326
 31
0.0
  0
LINE
  5
1FE
330
1F
100
AcDbEntity
  8
0
  6
HIDDEN
 62
     7
370
    18
100
AcDbLine
 10
1622.8757001082
 20
3879.0497409326
 30
0.0
 11
1622.8757001082
 21
4549.0497409326
 31
0.0
  0
LINE
  5
1FF
330
1F
100
AcDbEntity
  8
0
  6
HIDDEN
 62
     7
370
    18
100
AcDbLine
 10
575.3757001082
 20
3591.5497409326
 30
0.0
 11
575.3757001082
 21
3634.0497409326
 31
0.0
  0
LINE
  5
200
330
1F
100
AcDbEntity
  8
0
  6
HIDDEN
 62
     7
370
    18
100
AcDbLine
 10
537.3757001082
 20
3634.0497409326
 30
0.0
 11
537.3757001082
 21
3591.5497409326
 31
0.0
  0
LINE
  5
201
330
1F
100
AcDbEntity
  8
0
  6
HIDDEN
 62
     7
370
    18
100
AcDbLine
 10
631.3757001082
 20
3516.5497409326
 30
0.0
 11
631.3757001082
 21
3591.5497409326
 31
0.0
  0
LINE
  5
202
330
1F
100
AcDbEntity
  8
0
  6
HIDDEN
 62
     7
370
    18
100
AcDbLine
 10
481.3757001082
 20
3591.5497409326
 30
0.0
 11
481.3757001082
 21
3516.5497409326
 31
0.0
  0
LINE
  5
203
330
1F
100
AcDbEntity
  8
0
  6
HIDDEN
 62
     7
370
    18
100
AcDbLine
 10
1788.8757001082
 20
3516.5497409326
 30
0.0
 11
1788.8757001082
 21
3591.5497409326
 31
0.0
  0
LINE
  5
204
330
1F
100
AcDbEntity
  8
0
  6
HIDDEN
 62
     7
370
    18
100
AcDbLine
 10
1563.8757001082
 20
3591.5497409326
 30
0.0
 11
1563.8757001082
 21
3516.5497409326
 31
0.0
  0
LINE
  5
205
330
1F
100
AcDbEntity
  8
0
  6
HIDDEN
 62
     7
370
    18
100
AcDbLine
 10
2296.3757001082
 20
4578.0497409326
 30
0.0
 11
2293.3757001082
 21
4578.0497409326
 31
0.0
  0
LINE
  5
206
330
1F
100
AcDbEntity
  8
0
  6
HIDDEN
 62
     7
370
    18
100
AcDbLine
 10
2293.3757001082
 20
4568.0497409326
 30
0.0
 11
2296.3757001082
 21
4568.0497409326
 31
0.0
  0
LINE
  5
207
330
1F
100
AcDbEntity
  8
0
  6
HIDDEN
 62
     7
370
    18
100
AcDbLine
 10
2296.3757001082
 20
4419.0497409326
 30
0.0
 11
2293.3757001082
 21
4419.0497409326
 31
0.0
  0
LINE
  5
208
330
1F
100
AcDbEntity
  8
0
  6
HIDDEN
 62
     7
370
    18
100
AcDbLine
 10
2293.3757001082
 20
4409.0497409326
 30
0.0
 11
2296.3757001082
 21
4409.0497409326
 31
0.0
  0
LINE
  5
209
330
1F
100
AcDbEntity
  8
0
  6
HIDDEN
 62
     7
370
    18
100
AcDbLine
 10
2296.3757001082
 20
4219.0497409326
 30
0.0
 11
2293.3757001082
 21
4219.0497409326
 31
0.0
  0
LINE
  5
20A
330
1F
100
AcDbEntity
  8
0
  6
HIDDEN
 62
     7
370
    18
100
AcDbLine
 10
2293.3757001082
 20
4209.0497409326
 30
0.0
 11
2296.3757001082
 21
4209.0497409326
 31
0.0
  0
LINE
  5
20B
330
1F
100
AcDbEntity
  8
0
  6
HIDDEN
 62
     7
370
    18
100
AcDbLine
 10
2296.3757001082
 20
4019.0497409326
 30
0.0
 11
2293.3757001082
 21
4019.0497409326
 31
0.0
  0
LINE
  5
20C
330
1F
100
AcDbEntity
  8
0
  6
HIDDEN
 62
     7
370
    18
100
AcDbLine
 10
2293.3757001082
 20
4009.0497409326
 30
0.0
 11
2296.3757001082
 21
4009.0497409326
 31
0.0
  0
LINE
  5
20D
330
1F
100
AcDbEntity
  8
0
  6
HIDDEN
 62
     7
370
    18
100
AcDbLine
 10
2296.3757001082
 20
3860.0497409326
 30
0.0
 11
2293.3757001082
 21
3860.0497409326
 31
0.0
  0
LINE
  5
20E
330
1F
100
AcDbEntity
  8
0
  6
HIDDEN
 62
     7
370
    18
100
AcDbLine
 10
2293.3757001082
 20
3850.0497409326
 30
0.0
 11
2296.3757001082
 21
3850.0497409326
 31
0.0
  0
LINE
  5
20F
330
1F
100
AcDbEntity
  8
0
  6
HIDDEN
 62
     7
370
    18
100
AcDbLine
 10
1579.1955229556
 20
4632.0497409326
 30
0.0
 11
1579.1955229556
 21
4629.7497409326
 31
0.0
  0
LINE
  5
210
330
1F
100
AcDbEntity
  8
0
  6
HIDDEN
 62
     7
370
    18
100
AcDbLine
 10
1589.1955229556
 20
4629.7497409326
 30
0.0
 11
1589.1955229556
 21
4632.0497409326
 31
0.0
  0
LINE
  5
211
330
1F
100
AcDbEntity
  8
0
  6
HIDDEN
 62
     7
370
    18
100
AcDbLine
 10
1763.5558772609
 20
4632.0497409326
 30
0.0
 11
1763.5558772609
 21
4629.7497409326
 31
0.0
  0
LINE
  5
212
330
1F
100
AcDbEntity
  8
0
  6
HIDDEN
 62
     7
370
    18
100
AcDbLine
 10
1773.5558772609
 20
4629.7497409326
 30
0.0
 11
1773.5558772609
 21
4632.0497409326
 31
0.0
  0
LINE
  5
213
330
1F
100
AcDbEntity
  8
0
  6
HIDDEN
 62
     7
370
    18
100
AcDbLine
 10
2126.3757001082
 20
4549.0497409326
 30
0.0
 11
2126.3757001082
 21
4632.0497409326
 31
0.0
  0
LINE
  5
214
330
1F
100
AcDbEntity
  8
0
  6
HIDDEN
 62
     7
370
    18
100
AcDbLine
 10
1226.3757001082
 20
4632.0497409326
 30
0.0
 11
1226.3757001082
 21
4549.0497409326
 31
0.0
  0
LINE
  5
215
330
1F
100
AcDbEntity
  8
0
  6
HIDDEN
 62
     7
370
    18
100
AcDbLine
 10
1408.8687650065
 20
4632.0497409326
 30
0.0
 11
1408.8687650065
 21
4629.7497409326
 31
0.0
  0
LINE
  5
216
330
1F
100
AcDbEntity
  8
0
  6
HIDDEN
 62
     7
370
    18
100
AcDbLine
 10
1418.8687650065
 20
4629.7497409326
 30
0.0
 11
1418.8687650065
 21
4632.0497409326
 31
0.0
  0
LINE
  5
217
330
1F
100
AcDbEntity
  8
0
  6
HIDDEN
 62
     7
370
    18
100
AcDbLine
 10
1933.88263521
 20
4632.0497409326
 30
0.0
 11
1933.88263521
 21
4629.7497409326
 31
0.0
  0
LINE
  5
218
330
1F
100
AcDbEntity
  8
0
  6
HIDDEN
 62
     7
370
    18
100
AcDbLine
 10
1943.88263521
 20
4629.7497409326
 30
0.0
 11
1943.88263521
 21
4632.0497409326
 31
0.0
  0
LINE
  5
219
330
1F
100
AcDbEntity
  8
0
  6
HIDDEN
 62
     7
370
    18
100
AcDbLine
 10
1278.5063082953
 20
4632.0497409326
 30
0.0
 11
1278.5063082953
 21
4629.7497409326
 31
0.0
  0
LINE
  5
21A
330
1F
100
AcDbEntity
  8
0
  6
HIDDEN
 62
     7
370
    18
100
AcDbLine
 10
1288.5063082953
 20
4629.7497409326
 30
0.0
 11
1288.5063082953
 21
4632.0497409326
 31
0.0
  0
LINE
  5
21B
330
1F
100
AcDbEntity
  8
0
  6
HIDDEN
 62
     7
370
    18
100
AcDbLine
 10
2064.2450919212
 20
4632.0497409326
 30
0.0
 11
2064.2450919212
 21
4629.7497409326
 31
0.0
  0
LINE
  5
21C
330
1F
100
AcDbEntity
  8
0
  6
HIDDEN
 62
     7
370
    18
100
AcDbLine
 10
2074.2450919212
 20
4629.7497409326
 30
0.0
 11
2074.2450919212
 21
4632.0497409326
 31
0.0
  0
LINE
  5
21D
330
1F
100
AcDbEntity
  8
0
  6
HIDDEN
 62
     7
370
    18
100
AcDbLine
 10
2134.7967450988
 20
4632.0497409326
 30
0.0
 11
2134.7967450988
 21
4629.7497409326
 31
0.0
  0
LINE
  5
21E
330
1F
100
AcDbEntity
  8
0
  6
HIDDEN
 62
     7
370
    18
100
AcDbLine
 10
2144.7967450988
 20
4629.7497409326
 30
0.0
 11
2144.7967450988
 21
4632.0497409326
 31
0.0
  0
LINE
  5
21F
330
1F
100
AcDbEntity
  8
0
  6
HIDDEN
 62
     7
370
    18
100
AcDbLine
 10
1207.9546551177
 20
4632.0497409326
 30
0.0
 11
1207.9546551177
 21
4629.7497409326
 31
0.0
  0
LINE
  5
220
330
1F
100
AcDbEntity
  8
0
  6
HIDDEN
 62
     7
370
    18
100
AcDbLine
 10
1217.9546551177
 20
4629.7497409326
 30
0.0
 11
1217.9546551177
 21
4632.0497409326
 31
0.0
  0
CIRCLE
  5
221
330
1F
100
AcDbEntity
  8
基礎穴
100
AcDbCircle
 10
426.3757001082
 20
3697.0497409326
 30
0.0
 40
9.000000000000005
  0
CIRCLE
  5
222
330
1F
100
AcDbEntity
  8
基礎穴
100
AcDbCircle
 10
1286.3757001082
 20
3697.0497409326
 30
0.0
 40
8.999999999999872
  0
CIRCLE
  5
223
330
1F
100
AcDbEntity
  8
基礎穴
100
AcDbCircle
 10
2146.3757001082
 20
3697.0497409326
 30
0.0
 40
9.00000000000044
  0
CIRCLE
  5
224
330
1F
100
AcDbEntity
  8
基礎穴
100
AcDbCircle
 10
2146.3757001082
 20
4587.0497409326
 30
0.0
 40
8.999999999999872
  0
CIRCLE
  5
225
330
1F
100
AcDbEntity
  8
基礎穴
100
AcDbCircle
 10
1286.3757001082
 20
4587.0497409326
 30
0.0
 40
8.999999999999872
  0
CIRCLE
  5
226
330
1F
100
AcDbEntity
  8
基礎穴
100
AcDbCircle
 10
426.3757001082
 20
4587.0497409326
 30
0.0
 40
8.999999999999872
  0
LINE
  5
227
330
1F
100
AcDbEntity
  8
2
100
AcDbLine
 10
1676.3757001082
 20
3677.9469215771
 30
0.0
 11
1676.3757001082
 21
4447.681391348
 31
0.0
  0
LINE
  5
228
330
1F
100
AcDbEntity
  8
2
100
AcDbLine
 10
1977.5431595573
 20
4214.0497409326
 30
0.0
 11
1070.2132931898
 21
4214.0497409326
 31
0.0
  0
ENDSEC
  0
SECTION
  2
OBJECTS
  0
DICTIONARY
  5
C
330
0
100
AcDbDictionary
281
     1
  3
ACAD_GROUP
350
D
  3
ACAD_LAYOUT
350
1A
  3
ACAD_MLINESTYLE
350
17
  3
ACAD_PLOTSETTINGS
350
19
  3
ACAD_PLOTSTYLENAME
350
E
  3
ACAD_SCALELIST
350
47
  3
DWGPROPS
350
229
  0
DICTIONARY
  5
D
102
{ACAD_REACTORS
330
C
102
}
330
C
100
AcDbDictionary
281
     1
  0
DICTIONARY
  5
1A
102
{ACAD_REACTORS
330
C
102
}
330
C
100
AcDbDictionary
281
     1
  3
Layout1
350
1E
  3
Layout2
350
26
  3
Model
350
22
  0
DICTIONARY
  5
17
102
{ACAD_REACTORS
330
C
102
}
330
C
100
AcDbDictionary
281
     1
  3
Standard
350
18
  0
DICTIONARY
  5
19
102
{ACAD_REACTORS
330
C
102
}
330
C
100
AcDbDictionary
281
     1
  0
ACDBDICTIONARYWDFLT
  5
E
102
{ACAD_REACTORS
330
C
102
}
330
C
100
AcDbDictionary
281
     1
  3
Normal
350
F
100
AcDbDictionaryWithDefault
340
F
  0
DICTIONARY
  5
47
102
{ACAD_REACTORS
330
C
102
}
330
C
100
AcDbDictionary
281
     1
  3
A0
350
48
  3
A1
350
49
  3
A2
350
4A
  3
A3
350
4B
  3
A4
350
4C
  3
A5
350
4D
  3
A6
350
4E
  3
A7
350
4F
  3
A8
350
50
  3
A9
350
51
  3
B0
350
52
  3
B1
350
53
  3
B2
350
54
  3
B3
350
55
  3
B4
350
56
  3
B5
350
57
  3
B6
350
58
  0
XRECORD
  5
229
102
{ACAD_REACTORS
330
C
102
}
330
C
100
AcDbXrecord
280
     1
  1
DWGPROPS COOKIE
  2

  3

  4

  6

  7

  8
yuta.kunimatsu
  9

300
=
301
=
302
=
303
=
304
=
305
=
306
=
307
=
308
=
309
=
 40
0.0
 41
2460153.265945567
 42
2460153.265946019
  1

 90
        0
  0
LAYOUT
  5
1E
102
{ACAD_REACTORS
330
1A
102
}
330
1A
100
AcDbPlotSettings
  1

  2
none_device
  4

  6

 40
0.0
 41
0.0
 42
0.0
 43
0.0
 44
0.0
 45
0.0
 46
0.0
 47
0.0
 48
0.0
 49
0.0
140
0.0
141
0.0
142
1.0
143
1.0
 70
   688
 72
     1
 73
     0
 74
     5
  7

 75
    16
147
1.0
148
0.0
149
0.0
100
AcDbLayout
  1
Layout1
 70
     1
 71
     1
 10
0.0
 20
0.0
 11
420.0
 21
297.0
 12
0.0
 22
0.0
 32
0.0
 14
1.0000000000E+20
 24
1.0000000000E+20
 34
1.0000000000E+20
 15
-1.0000000000E+20
 25
-1.0000000000E+20
 35
-1.0000000000E+20
146
0.0
 13
0.0
 23
0.0
 33
0.0
 16
1.0
 26
0.0
 36
0.0
 17
0.0
 27
1.0
 37
0.0
 76
     0
330
1B
  0
LAYOUT
  5
26
102
{ACAD_REACTORS
330
1A
102
}
330
1A
100
AcDbPlotSettings
  1

  2
none_device
  4

  6

 40
0.0
 41
0.0
 42
0.0
 43
0.0
 44
0.0
 45
0.0
 46
0.0
 47
0.0
 48
0.0
 49
0.0
140
0.0
141
0.0
142
1.0
143
1.0
 70
   688
 72
     1
 73
     0
 74
     5
  7

 75
    16
147
1.0
148
0.0
149
0.0
100
AcDbLayout
  1
Layout2
 70
     1
 71
     2
 10
0.0
 20
0.0
 11
0.0
 21
0.0
 12
0.0
 22
0.0
 32
0.0
 14
0.0
 24
0.0
 34
0.0
 15
0.0
 25
0.0
 35
0.0
146
0.0
 13
0.0
 23
0.0
 33
0.0
 16
1.0
 26
0.0
 36
0.0
 17
0.0
 27
1.0
 37
0.0
 76
     0
330
23
  0
LAYOUT
  5
22
102
{ACAD_REACTORS
330
1A
102
}
330
1A
100
AcDbPlotSettings
  1

  2
none_device
  4
Letter_(8.50_x_11.00_Inches)
  6

 40
6.35
 41
6.35
 42
6.35000508
 43
6.35000508
 44
215.9
 45
279.4
 46
0.0
 47
0.0
 48
0.0
 49
0.0
140
0.0
141
0.0
142
1.0
143
1.0
 70
  1712
 72
     1
 73
     0
 74
     0
  7

 75
     0
147
1.0
148
0.0
149
0.0
100
AcDbLayout
  1
Model
 70
     1
 71
     0
 10
0.0
 20
0.0
 11
4200.0
 21
5940.0
 12
0.0
 22
0.0
 32
0.0
 14
0.0
 24
0.0
 34
0.0
 15
4200.0
 25
5940.0
 35
0.0
146
0.0
 13
0.0
 23
0.0
 33
0.0
 16
1.0
 26
0.0
 36
0.0
 17
0.0
 27
1.0
 37
0.0
 76
     0
330
1F
331
29
  0
MLINESTYLE
  5
18
102
{ACAD_REACTORS
330
17
102
}
330
17
100
AcDbMlineStyle
  2
Standard
 70
     0
  3

 62
   256
 51
90.0
 52
90.0
 71
     2
 49
0.5
 62
   256
  6
BYLAYER
 49
-0.5
 62
   256
  6
BYLAYER
  0
ACDBPLACEHOLDER
  5
F
102
{ACAD_REACTORS
330
E
102
}
330
E
  0
SCALE
  5
48
102
{ACAD_REACTORS
330
47
102
}
330
47
100
AcDbScale
 70
     0
300
1:1
140
1.0
141
1.0
290
     1
  0
SCALE
  5
49
102
{ACAD_REACTORS
330
47
102
}
330
47
100
AcDbScale
 70
     0
300
1:2
140
1.0
141
2.0
290
     0
  0
SCALE
  5
4A
102
{ACAD_REACTORS
330
47
102
}
330
47
100
AcDbScale
 70
     0
300
1:4
140
1.0
141
4.0
290
     0
  0
SCALE
  5
4B
102
{ACAD_REACTORS
330
47
102
}
330
47
100
AcDbScale
 70
     0
300
1:5
140
1.0
141
5.0
290
     0
  0
SCALE
  5
4C
102
{ACAD_REACTORS
330
47
102
}
330
47
100
AcDbScale
 70
     0
300
1:8
140
1.0
141
8.0
290
     0
  0
SCALE
  5
4D
102
{ACAD_REACTORS
330
47
102
}
330
47
100
AcDbScale
 70
     0
300
1:10
140
1.0
141
10.0
290
     0
  0
SCALE
  5
4E
102
{ACAD_REACTORS
330
47
102
}
330
47
100
AcDbScale
 70
     0
300
1:16
140
1.0
141
16.0
290
     0
  0
SCALE
  5
4F
102
{ACAD_REACTORS
330
47
102
}
330
47
100
AcDbScale
 70
     0
300
1:20
140
1.0
141
20.0
290
     0
  0
SCALE
  5
50
102
{ACAD_REACTORS
330
47
102
}
330
47
100
AcDbScale
 70
     0
300
1:30
140
1.0
141
30.0
290
     0
  0
SCALE
  5
51
102
{ACAD_REACTORS
330
47
102
}
330
47
100
AcDbScale
 70
     0
300
1:40
140
1.0
141
40.0
290
     0
  0
SCALE
  5
52
102
{ACAD_REACTORS
330
47
102
}
330
47
100
AcDbScale
 70
     0
300
1:50
140
1.0
141
50.0
290
     0
  0
SCALE
  5
53
102
{ACAD_REACTORS
330
47
102
}
330
47
100
AcDbScale
 70
     0
300
1:100
140
1.0
141
100.0
290
     0
  0
SCALE
  5
54
102
{ACAD_REACTORS
330
47
102
}
330
47
100
AcDbScale
 70
     0
300
2:1
140
2.0
141
1.0
290
     0
  0
SCALE
  5
55
102
{ACAD_REACTORS
330
47
102
}
330
47
100
AcDbScale
 70
     0
300
4:1
140
4.0
141
1.0
290
     0
  0
SCALE
  5
56
102
{ACAD_REACTORS
330
47
102
}
330
47
100
AcDbScale
 70
     0
300
8:1
140
8.0
141
1.0
290
     0
  0
SCALE
  5
57
102
{ACAD_REACTORS
330
47
102
}
330
47
100
AcDbScale
 70
     0
300
10:1
140
10.0
141
1.0
290
     0
  0
SCALE
  5
58
102
{ACAD_REACTORS
330
47
102
}
330
47
100
AcDbScale
 70
     0
300
100:1
140
100.0
141
1.0
290
     0
  0
ENDSEC
  0
EOF
