  0
SECTION
  2
HEADER
  9
$ACADVER
  1
AC1015
  9
$ACADMAINTVER
 70
     6
  9
$DWGCODEPAGE
  3
DOS932
  9
$INSBASE
 10
0.0
 20
0.0
 30
0.0
  9
$EXTMIN
 10
0.0
 20
0.0
 30
0.0
  9
$EXTMAX
 10
4200.0
 20
5940.0
 30
0.0
  9
$LIMMIN
 10
0.0
 20
0.0
  9
$LIMMAX
 10
4200.0
 20
5940.0
  9
$ORTHOMODE
 70
     0
  9
$REGENMODE
 70
     1
  9
$FILLMODE
 70
     1
  9
$QTEXTMODE
 70
     0
  9
$MIRRTEXT
 70
     1
  9
$LTSCALE
 40
20.0
  9
$ATTMODE
 70
     1
  9
$TEXTSIZE
 40
70.5555555556
  9
$TRACEWID
 40
1.0
  9
$TEXTSTYLE
  7
Standard
  9
$CLAYER
  8
0
  9
$CELTYPE
  6
ByLayer
  9
$CECOLOR
 62
   256
  9
$CELTSCALE
 40
1.0
  9
$DISPSILH
 70
     0
  9
$DIMSCALE
 40
1.0
  9
$DIMASZ
 40
30.0
  9
$DIMEXO
 40
20.0
  9
$DIMDLI
 40
3.75
  9
$DIMRND
 40
0.0
  9
$DIMDLE
 40
0.0
  9
$DIMEXE
 40
20.0
  9
$DIMTP
 40
0.0
  9
$DIMTM
 40
0.0
  9
$DIMTXT
 40
70.5555555556
  9
$DIMCEN
 40
2.5
  9
$DIMTSZ
 40
0.0
  9
$DIMTOL
 70
     0
  9
$DIMLIM
 70
     0
  9
$DIMTIH
 70
     1
  9
$DIMTOH
 70
     1
  9
$DIMSE1
 70
     0
  9
$DIMSE2
 70
     0
  9
$DIMTAD
 70
     1
  9
$DIMZIN
 70
     0
  9
$DIMBLK
  1

  9
$DIMASO
 70
     1
  9
$DIMSHO
 70
     1
  9
$DIMPOST
  1

  9
$DIMAPOST
  1

  9
$DIMALT
 70
     0
  9
$DIMALTD
 70
     3
  9
$DIMALTF
 40
0.0393700787
  9
$DIMLFAC
 40
1.0
  9
$DIMTOFL
 70
     1
  9
$DIMTVP
 40
0.0
  9
$DIMTIX
 70
     0
  9
$DIMSOXD
 70
     0
  9
$DIMSAH
 70
     0
  9
$DIMBLK1
  1

  9
$DIMBLK2
  1

  9
$DIMSTYLE
  2
ISO-25
  9
$DIMCLRD
 70
     0
  9
$DIMCLRE
 70
     0
  9
$DIMCLRT
 70
     0
  9
$DIMTFAC
 40
1.0
  9
$DIMGAP
 40
30.48
  9
$DIMJUST
 70
     0
  9
$DIMSD1
 70
     0
  9
$DIMSD2
 70
     0
  9
$DIMTOLJ
 70
     0
  9
$DIMTZIN
 70
     0
  9
$DIMALTZ
 70
     0
  9
$DIMALTTZ
 70
     0
  9
$DIMUPT
 70
     0
  9
$DIMDEC
 70
     0
  9
$DIMTDEC
 70
     0
  9
$DIMALTU
 70
     2
  9
$DIMALTTD
 70
     3
  9
$DIMTXSTY
  7
Standard
  9
$DIMAUNIT
 70
     0
  9
$DIMADEC
 70
     2
  9
$DIMALTRND
 40
0.0
  9
$DIMAZIN
 70
     0
  9
$DIMDSEP
 70
    44
  9
$DIMATFIT
 70
     3
  9
$DIMFRAC
 70
     0
  9
$DIMLDRBLK
  1

  9
$DIMLUNIT
 70
     2
  9
$DIMLWD
 70
    -2
  9
$DIMLWE
 70
    -2
  9
$DIMTMOVE
 70
     0
  9
$LUNITS
 70
     2
  9
$LUPREC
 70
     2
  9
$SKETCHINC
 40
1.0
  9
$FILLETRAD
 40
0.0
  9
$AUNITS
 70
     0
  9
$AUPREC
 70
     2
  9
$MENU
  1
.
  9
$ELEVATION
 40
0.0
  9
$PELEVATION
 40
0.0
  9
$THICKNESS
 40
0.0
  9
$LIMCHECK
 70
     0
  9
$CHAMFERA
 40
0.0
  9
$CHAMFERB
 40
0.0
  9
$CHAMFERC
 40
0.0
  9
$CHAMFERD
 40
0.0
  9
$SKPOLY
 70
     0
  9
$TDCREATE
 40
2460140.455077535
  9
$TDUCREATE
 40
2460140.080077535
  9
$TDUPDATE
 40
2460140.455077963
  9
$TDUUPDATE
 40
2460140.080077963
  9
$TDINDWG
 40
0.0000000116
  9
$TDUSRTIMER
 40
0.0000000116
  9
$USRTIMER
 70
     1
  9
$ANGBASE
 50
0.0
  9
$ANGDIR
 70
     0
  9
$PDMODE
 70
     0
  9
$PDSIZE
 40
-1.0
  9
$PLINEWID
 40
0.0
  9
$SPLFRAME
 70
     0
  9
$SPLINETYPE
 70
     6
  9
$SPLINESEGS
 70
     8
  9
$HANDSEED
  5
1F6
  9
$SURFTAB1
 70
     6
  9
$SURFTAB2
 70
     6
  9
$SURFTYPE
 70
     6
  9
$SURFU
 70
     6
  9
$SURFV
 70
     6
  9
$UCSBASE
  2

  9
$UCSNAME
  2

  9
$UCSORG
 10
0.0
 20
0.0
 30
0.0
  9
$UCSXDIR
 10
1.0
 20
0.0
 30
0.0
  9
$UCSYDIR
 10
0.0
 20
1.0
 30
0.0
  9
$UCSORTHOREF
  2

  9
$UCSORTHOVIEW
 70
     0
  9
$UCSORGTOP
 10
0.0
 20
0.0
 30
0.0
  9
$UCSORGBOTTOM
 10
0.0
 20
0.0
 30
0.0
  9
$UCSORGLEFT
 10
0.0
 20
0.0
 30
0.0
  9
$UCSORGRIGHT
 10
0.0
 20
0.0
 30
0.0
  9
$UCSORGFRONT
 10
0.0
 20
0.0
 30
0.0
  9
$UCSORGBACK
 10
0.0
 20
0.0
 30
0.0
  9
$PUCSBASE
  2

  9
$PUCSNAME
  2

  9
$PUCSORG
 10
0.0
 20
0.0
 30
0.0
  9
$PUCSXDIR
 10
1.0
 20
0.0
 30
0.0
  9
$PUCSYDIR
 10
0.0
 20
1.0
 30
0.0
  9
$PUCSORTHOREF
  2

  9
$PUCSORTHOVIEW
 70
     0
  9
$PUCSORGTOP
 10
0.0
 20
0.0
 30
0.0
  9
$PUCSORGBOTTOM
 10
0.0
 20
0.0
 30
0.0
  9
$PUCSORGLEFT
 10
0.0
 20
0.0
 30
0.0
  9
$PUCSORGRIGHT
 10
0.0
 20
0.0
 30
0.0
  9
$PUCSORGFRONT
 10
0.0
 20
0.0
 30
0.0
  9
$PUCSORGBACK
 10
0.0
 20
0.0
 30
0.0
  9
$USERI1
 70
     0
  9
$USERI2
 70
     0
  9
$USERI3
 70
     0
  9
$USERI4
 70
     0
  9
$USERI5
 70
     0
  9
$USERR1
 40
0.0
  9
$USERR2
 40
0.0
  9
$USERR3
 40
0.0
  9
$USERR4
 40
0.0
  9
$USERR5
 40
0.0
  9
$WORLDVIEW
 70
     1
  9
$SHADEDGE
 70
     3
  9
$SHADEDIF
 70
    70
  9
$TILEMODE
 70
     1
  9
$MAXACTVP
 70
    64
  9
$PINSBASE
 10
0.0
 20
0.0
 30
0.0
  9
$PLIMCHECK
 70
     0
  9
$PEXTMIN
 10
1.0000000000E+20
 20
1.0000000000E+20
 30
1.0000000000E+20
  9
$PEXTMAX
 10
-1.0000000000E+20
 20
-1.0000000000E+20
 30
-1.0000000000E+20
  9
$PLIMMIN
 10
0.0
 20
0.0
  9
$PLIMMAX
 10
420.0
 20
297.0
  9
$UNITMODE
 70
     0
  9
$VISRETAIN
 70
     1
  9
$PLINEGEN
 70
     0
  9
$PSLTSCALE
 70
     1
  9
$TREEDEPTH
 70
  3020
  9
$CMLSTYLE
  2
Standard
  9
$CMLJUST
 70
     0
  9
$CMLSCALE
 40
20.0
  9
$PROXYGRAPHICS
 70
     1
  9
$MEASUREMENT
 70
     1
  9
$CELWEIGHT
370
    -1
  9
$ENDCAPS
280
     0
  9
$JOINSTYLE
280
     0
  9
$LWDISPLAY
290
     1
  9
$INSUNITS
 70
     4
  9
$HYPERLINKBASE
  1

  9
$STYLESHEET
  1

  9
$XEDIT
290
     1
  9
$CEPSNTYPE
380
     0
  9
$PSTYLEMODE
290
     1
  9
$FINGERPRINTGUID
  2
{a83d9075-36cd-4eb5-8055-63de2f764c3c}
  9
$VERSIONGUID
  2
{FAEB1C32-E019-11D5-929B-00C0DF256EC4}
  9
$EXTNAMES
290
     1
  9
$PSVPSCALE
 40
0.0
  9
$OLESTARTUP
290
     0
  0
ENDSEC
  0
SECTION
  2
CLASSES
  0
CLASS
  1
ACDBDICTIONARYWDFLT
  2
AcDbDictionaryWithDefault
  3
ObjectDBX Classes
 90
        0
280
     0
281
     0
  0
CLASS
  1
VISUALSTYLE
  2
AcDbVisualStyle
  3
ObjectDBX Classes
 90
     4095
280
     0
281
     0
  0
CLASS
  1
MATERIAL
  2
AcDbMaterial
  3
ObjectDBX Classes
 90
     1153
280
     0
281
     0
  0
CLASS
  1
SCALE
  2
AcDbScale
  3
ObjectDBX Classes
 90
     1153
280
     0
281
     0
  0
CLASS
  1
TABLESTYLE
  2
AcDbTableStyle
  3
ObjectDBX Classes
 90
     4095
280
     0
281
     0
  0
CLASS
  1
MLEADERSTYLE
  2
AcDbMLeaderStyle
  3
ACDB_MLEADERSTYLE_CLASS
 90
     4095
280
     0
281
     0
  0
CLASS
  1
SUN
  2
AcDbSun
  3
SCENEOE
 90
     1153
280
     0
281
     0
  0
CLASS
  1
ACDBPLACEHOLDER
  2
AcDbPlaceHolder
  3
ObjectDBX Classes
 90
        0
280
     0
281
     0
  0
CLASS
  1
LAYOUT
  2
AcDbLayout
  3
ObjectDBX Classes
 90
        0
280
     0
281
     0
  0
ENDSEC
  0
SECTION
  2
TABLES
  0
TABLE
  2
VPORT
  5
8
330
0
100
AcDbSymbolTable
 70
     1
  0
VPORT
  5
29
330
8
100
AcDbSymbolTableRecord
100
AcDbViewportTableRecord
  2
*Active
 70
     0
 10
0.0
 20
0.0
 11
1.0
 21
1.0
 12
2100.0
 22
2970.0
 13
0.0
 23
0.0
 14
10.0
 24
10.0
 15
10.0
 25
10.0
 16
0.0
 26
0.0
 36
1.0
 17
0.0
 27
0.0
 37
0.0
 40
5940.0
 41
0.7070707071
 42
50.0
 43
0.0
 44
0.0
 50
0.0
 51
0.0
 71
     0
 72
  2000
 73
     1
 74
     3
 75
     0
 76
     0
 77
     0
 78
     0
281
     0
 65
     1
110
0.0
120
0.0
130
0.0
111
1.0
121
0.0
131
0.0
112
0.0
122
1.0
132
0.0
 79
     0
146
0.0
  0
ENDTAB
  0
TABLE
  2
LTYPE
  5
5
330
0
100
AcDbSymbolTable
 70
     6
  0
LTYPE
  5
14
330
5
100
AcDbSymbolTableRecord
100
AcDbLinetypeTableRecord
  2
ByBlock
 70
     0
  3

 72
    65
 73
     0
 40
0.0
  0
LTYPE
  5
15
330
5
100
AcDbSymbolTableRecord
100
AcDbLinetypeTableRecord
  2
ByLayer
 70
     0
  3

 72
    65
 73
     0
 40
0.0
  0
LTYPE
  5
16
330
5
100
AcDbSymbolTableRecord
100
AcDbLinetypeTableRecord
  2
Continuous
 70
     0
  3
Solid line
 72
    65
 73
     0
 40
0.0
  0
LTYPE
  5
5E
330
5
100
AcDbSymbolTableRecord
100
AcDbLinetypeTableRecord
  2
HIDDEN
 70
     0
  3
Hidden __ __ __ __ __ __ __ __ __ __ __ __ __ __
 72
    65
 73
     2
 40
1.905
 49
1.27
 74
     0
 49
-0.635
 74
     0
  0
LTYPE
  5
5F
330
5
100
AcDbSymbolTableRecord
100
AcDbLinetypeTableRecord
  2
PHANTOM
 70
     0
  3
Phantom ______  __  __  ______  __  __  ______
 72
    65
 73
     6
 40
12.7
 49
6.35
 74
     0
 49
-1.27
 74
     0
 49
1.27
 74
     0
 49
-1.27
 74
     0
 49
1.27
 74
     0
 49
-1.27
 74
     0
  0
LTYPE
  5
60
330
5
100
AcDbSymbolTableRecord
100
AcDbLinetypeTableRecord
  2
CENTER
 70
     0
  3
Center ____ _ ____ _ ____ _ ____ _ ____ _ ____
 72
    65
 73
     4
 40
10.16
 49
6.35
 74
     0
 49
-1.27
 74
     0
 49
1.27
 74
     0
 49
-1.27
 74
     0
  0
LTYPE
  5
61
330
5
100
AcDbSymbolTableRecord
100
AcDbLinetypeTableRecord
  2
CENTERX2
 70
     0
  3
Center (2x) ________  __  ________  __  _____
 72
    65
 73
     4
 40
20.32
 49
12.7
 74
     0
 49
-2.54
 74
     0
 49
2.54
 74
     0
 49
-2.54
 74
     0
  0
LTYPE
  5
62
330
5
100
AcDbSymbolTableRecord
100
AcDbLinetypeTableRecord
  2
DOT2
 70
     0
  3
Dot (.5x) ........................................
 72
    65
 73
     2
 40
0.635
 49
0.0
 74
     0
 49
-0.635
 74
     0
  0
ENDTAB
  0
TABLE
  2
LAYER
  5
2
330
0
100
AcDbSymbolTable
 70
     6
  0
LAYER
  5
10
330
2
100
AcDbSymbolTableRecord
100
AcDbLayerTableRecord
  2
0
 70
     0
 62
     7
  6
Continuous
370
    -3
390
F
  0
LAYER
  5
63
330
2
100
AcDbSymbolTableRecord
100
AcDbLayerTableRecord
  2
1
 70
     0
 62
     4
  6
Continuous
370
    25
390
F
  0
LAYER
  5
64
330
2
100
AcDbSymbolTableRecord
100
AcDbLayerTableRecord
  2
2
 70
     0
 62
     3
  6
CENTERX2
370
    -3
390
F
  0
LAYER
  5
65
330
2
100
AcDbSymbolTableRecord
100
AcDbLayerTableRecord
  2
3
 70
     0
 62
     2
  6
Continuous
370
    -3
390
F
  0
LAYER
  5
66
330
2
100
AcDbSymbolTableRecord
100
AcDbLayerTableRecord
  2
4
 70
     0
 62
     7
  6
Continuous
370
    -3
390
F
  0
LAYER
  5
67
330
2
100
AcDbSymbolTableRecord
100
AcDbLayerTableRecord
  2
基礎穴
 70
     0
 62
     1
  6
PHANTOM
370
    35
390
F
  0
ENDTAB
  0
TABLE
  2
STYLE
  5
3
330
0
100
AcDbSymbolTable
 70
     2
  0
STYLE
  5
11
330
3
100
AcDbSymbolTableRecord
100
AcDbTextStyleTableRecord
  2
Standard
 70
     0
 40
0.0
 41
1.0
 50
0.0
 71
     0
 42
70.5555555556
  3
txt
  4
bigfont
  0
STYLE
  5
68
330
3
100
AcDbSymbolTableRecord
100
AcDbTextStyleTableRecord
  2
SLDTEXTSTYLE0
 70
     0
 40
0.0
 41
0.7
 50
0.0
 71
     0
 42
70.5555555556
  3
TXT
  4
bigfont
  0
ENDTAB
  0
TABLE
  2
VIEW
  5
6
330
0
100
AcDbSymbolTable
 70
     0
  0
ENDTAB
  0
TABLE
  2
UCS
  5
7
330
0
100
AcDbSymbolTable
 70
     0
  0
ENDTAB
  0
TABLE
  2
APPID
  5
9
330
0
100
AcDbSymbolTable
 70
     1
  0
APPID
  5
12
330
9
100
AcDbSymbolTableRecord
100
AcDbRegAppTableRecord
  2
ACAD
 70
     0
  0
ENDTAB
  0
TABLE
  2
DIMSTYLE
  5
A
330
0
100
AcDbSymbolTable
 70
     1
100
AcDbDimStyleTable
  0
DIMSTYLE
105
27
330
A
100
AcDbSymbolTableRecord
100
AcDbDimStyleTableRecord
  2
ISO-25
 70
     0
 41
2.5
 42
0.625
 43
3.75
 44
1.25
 73
     0
 74
     0
 77
     1
 78
     8
140
2.5
141
2.5
143
0.0393700787
147
0.625
171
     3
172
     1
178
     0
271
     2
272
     2
274
     3
278
    44
283
     0
284
     8
340
11
  0
ENDTAB
  0
TABLE
  2
BLOCK_RECORD
  5
1
330
0
100
AcDbSymbolTable
 70
     2
  0
BLOCK_RECORD
  5
1F
330
1
100
AcDbSymbolTableRecord
100
AcDbBlockTableRecord
  2
*Model_Space
340
22
  0
BLOCK_RECORD
  5
1B
330
1
100
AcDbSymbolTableRecord
100
AcDbBlockTableRecord
  2
*Paper_Space
340
1E
  0
BLOCK_RECORD
  5
23
330
1
100
AcDbSymbolTableRecord
100
AcDbBlockTableRecord
  2
*Paper_Space0
340
26
  0
BLOCK_RECORD
  5
C8
330
1
100
AcDbSymbolTableRecord
100
AcDbBlockTableRecord
  2
SW_CENTERMARKSYMBOL_0
340
0
102
{BLKREFS
331
D3
102
}
  0
ENDTAB
  0
ENDSEC
  0
SECTION
  2
BLOCKS
  0
BLOCK
  5
20
330
1F
100
AcDbEntity
  8
0
100
AcDbBlockBegin
  2
*Model_Space
 70
     0
 10
0.0
 20
0.0
 30
0.0
  3
*Model_Space
  1

  0
ENDBLK
  5
21
330
1F
100
AcDbEntity
  8
0
100
AcDbBlockEnd
  0
BLOCK
  5
1C
330
1B
100
AcDbEntity
 67
     1
  8
0
100
AcDbBlockBegin
  2
*Paper_Space
 70
     0
 10
0.0
 20
0.0
 30
0.0
  3
*Paper_Space
  1

  0
ENDBLK
  5
1D
330
1B
100
AcDbEntity
 67
     1
  8
0
100
AcDbBlockEnd
  0
BLOCK
  5
24
330
23
100
AcDbEntity
  8
0
100
AcDbBlockBegin
  2
*Paper_Space0
 70
     0
 10
0.0
 20
0.0
 30
0.0
  3
*Paper_Space0
  1

  0
ENDBLK
  5
25
330
23
100
AcDbEntity
  8
0
100
AcDbBlockEnd
  0
BLOCK
  5
C9
330
C8
100
AcDbEntity
  8
0
100
AcDbBlockBegin
  2
SW_CENTERMARKSYMBOL_0
 70
     0
 10
0.0
 20
0.0
 30
0.0
  3
SW_CENTERMARKSYMBOL_0
  1

  0
LINE
  5
CB
330
C8
100
AcDbEntity
  8
2
 62
     0
100
AcDbLine
 10
0.0
 20
0.0
 30
0.0
 11
0.0
 21
2.5
 31
0.0
  0
LINE
  5
CC
330
C8
100
AcDbEntity
  8
2
 62
     0
100
AcDbLine
 10
0.0
 20
0.0
 30
0.0
 11
-2.5
 21
0.0
 31
0.0
  0
LINE
  5
CD
330
C8
100
AcDbEntity
  8
2
 62
     0
100
AcDbLine
 10
0.0
 20
0.0
 30
0.0
 11
0.0
 21
-2.5
 31
0.0
  0
LINE
  5
CE
330
C8
100
AcDbEntity
  8
2
 62
     0
100
AcDbLine
 10
0.0
 20
0.0
 30
0.0
 11
2.5
 21
0.0
 31
0.0
  0
LINE
  5
CF
330
C8
100
AcDbEntity
  8
2
 62
     0
100
AcDbLine
 10
0.0
 20
5.0
 30
0.0
 11
0.0
 21
397.5
 31
0.0
  0
LINE
  5
D0
330
C8
100
AcDbEntity
  8
2
 62
     0
100
AcDbLine
 10
-5.0
 20
0.0
 30
0.0
 11
-397.5
 21
0.0
 31
0.0
  0
LINE
  5
D1
330
C8
100
AcDbEntity
  8
2
 62
     0
100
AcDbLine
 10
0.0
 20
-5.0
 30
0.0
 11
0.0
 21
-397.5
 31
0.0
  0
LINE
  5
D2
330
C8
100
AcDbEntity
  8
2
 62
     0
100
AcDbLine
 10
5.0
 20
0.0
 30
0.0
 11
397.5
 21
0.0
 31
0.0
  0
ENDBLK
  5
CA
330
C8
100
AcDbEntity
  8
0
100
AcDbBlockEnd
  0
ENDSEC
  0
SECTION
  2
ENTITIES
  0
MTEXT
  5
69
330
1F
100
AcDbEntity
  8
0
  6
Continuous
 62
     7
370
     0
100
AcDbMText
 10
2667.0980703609
 20
1407.8751360939
 30
0.0
 40
52.9166666667
 41
0.0
 71
     1
 72
     1
  1
LL04540Y101K-R1
  7
SLDTEXTSTYLE0
 73
     1
 44
1.0
  0
LINE
  5
6A
330
1F
100
AcDbEntity
  8
1
100
AcDbLine
 10
970.2261389325
 20
1792.6896373057
 30
0.0
 11
970.2261389325
 21
1797.1896373057
 31
0.0
  0
LINE
  5
6B
330
1F
100
AcDbEntity
  8
1
100
AcDbLine
 10
615.2261389325
 20
2172.1896373057
 30
0.0
 11
615.2261389325
 21
1797.1896373057
 31
0.0
  0
LINE
  5
6C
330
1F
100
AcDbEntity
  8
1
100
AcDbLine
 10
1660.2261389325
 20
2597.1896373057
 30
0.0
 11
615.2261389325
 21
2172.1896373057
 31
0.0
  0
LINE
  5
6D
330
1F
100
AcDbEntity
  8
1
100
AcDbLine
 10
1975.2261389325
 20
2597.1896373057
 30
0.0
 11
1660.2261389325
 21
2597.1896373057
 31
0.0
  0
LINE
  5
6E
330
1F
100
AcDbEntity
  8
1
100
AcDbLine
 10
1975.2261389325
 20
1797.1896373057
 30
0.0
 11
1975.2261389325
 21
2597.1896373057
 31
0.0
  0
LINE
  5
6F
330
1F
100
AcDbEntity
  8
1
100
AcDbLine
 10
615.2261389325
 20
1797.1896373057
 30
0.0
 11
1975.2261389325
 21
1797.1896373057
 31
0.0
  0
LINE
  5
70
330
1F
100
AcDbEntity
  8
1
100
AcDbLine
 10
1910.2261389325
 20
1797.1896373057
 30
0.0
 11
1910.2261389325
 21
1792.6896373057
 31
0.0
  0
LINE
  5
71
330
1F
100
AcDbEntity
  8
1
100
AcDbLine
 10
1910.2261389325
 20
1792.6896373057
 30
0.0
 11
2060.2261389325
 21
1792.6896373057
 31
0.0
  0
LINE
  5
72
330
1F
100
AcDbEntity
  8
1
100
AcDbLine
 10
1975.2261389325
 20
1797.1896373057
 30
0.0
 11
2060.2261389325
 21
1797.1896373057
 31
0.0
  0
LINE
  5
73
330
1F
100
AcDbEntity
  8
1
100
AcDbLine
 10
2060.2261389325
 20
1797.1896373057
 30
0.0
 11
2060.2261389325
 21
1792.6896373057
 31
0.0
  0
LINE
  5
74
330
1F
100
AcDbEntity
  8
1
100
AcDbLine
 10
530.2261389325
 20
1797.1896373057
 30
0.0
 11
615.2261389325
 21
1797.1896373057
 31
0.0
  0
LINE
  5
75
330
1F
100
AcDbEntity
  8
1
100
AcDbLine
 10
680.2261389325
 20
1797.1896373057
 30
0.0
 11
680.2261389325
 21
1792.6896373057
 31
0.0
  0
LINE
  5
76
330
1F
100
AcDbEntity
  8
1
100
AcDbLine
 10
530.2261389325
 20
1792.6896373057
 30
0.0
 11
680.2261389325
 21
1792.6896373057
 31
0.0
  0
LINE
  5
77
330
1F
100
AcDbEntity
  8
1
100
AcDbLine
 10
530.2261389325
 20
1797.1896373057
 30
0.0
 11
530.2261389325
 21
1792.6896373057
 31
0.0
  0
LINE
  5
78
330
1F
100
AcDbEntity
  8
1
100
AcDbLine
 10
2145.2261389325
 20
1792.6896373057
 30
0.0
 11
2145.2261389325
 21
1787.6896373057
 31
0.0
  0
LINE
  5
79
330
1F
100
AcDbEntity
  8
1
100
AcDbLine
 10
595.2261389325
 20
1787.6896373057
 30
0.0
 11
2145.2261389325
 21
1787.6896373057
 31
0.0
  0
LINE
  5
7A
330
1F
100
AcDbEntity
  8
1
100
AcDbLine
 10
595.2261389325
 20
1792.6896373057
 30
0.0
 11
595.2261389325
 21
1787.6896373057
 31
0.0
  0
LINE
  5
7B
330
1F
100
AcDbEntity
  8
1
100
AcDbLine
 10
2060.2261389325
 20
1792.6896373057
 30
0.0
 11
2145.2261389325
 21
1792.6896373057
 31
0.0
  0
LINE
  5
7C
330
1F
100
AcDbEntity
  8
1
100
AcDbLine
 10
680.2261389325
 20
1792.6896373057
 30
0.0
 11
1910.2261389325
 21
1792.6896373057
 31
0.0
  0
LINE
  5
7D
330
1F
100
AcDbEntity
  8
1
100
AcDbLine
 10
2145.2261389325
 20
1697.6896373057
 30
0.0
 11
2145.2261389325
 21
1692.6896373057
 31
0.0
  0
LINE
  5
7E
330
1F
100
AcDbEntity
  8
1
100
AcDbLine
 10
595.2261389325
 20
1692.6896373057
 30
0.0
 11
2145.2261389325
 21
1692.6896373057
 31
0.0
  0
LINE
  5
7F
330
1F
100
AcDbEntity
  8
1
100
AcDbLine
 10
595.2261389325
 20
1697.6896373057
 30
0.0
 11
2145.2261389325
 21
1697.6896373057
 31
0.0
  0
LINE
  5
80
330
1F
100
AcDbEntity
  8
1
100
AcDbLine
 10
595.2261389325
 20
1697.6896373057
 30
0.0
 11
595.2261389325
 21
1692.6896373057
 31
0.0
  0
LINE
  5
81
330
1F
100
AcDbEntity
  8
1
100
AcDbLine
 10
2100.2261389325
 20
1787.6896373057
 30
0.0
 11
2100.2261389325
 21
1697.6896373057
 31
0.0
  0
LINE
  5
82
330
1F
100
AcDbEntity
  8
1
100
AcDbLine
 10
640.2261389325
 20
1787.6896373057
 30
0.0
 11
640.2261389325
 21
1697.6896373057
 31
0.0
  0
LINE
  5
83
330
1F
100
AcDbEntity
  8
1
100
AcDbLine
 10
2192.2261389325
 20
2224.6896373057
 30
0.0
 11
2195.2261389325
 21
2224.6896373057
 31
0.0
  0
LINE
  5
84
330
1F
100
AcDbEntity
  8
1
100
AcDbLine
 10
2192.2261389325
 20
3038.6896373057
 30
0.0
 11
2195.2261389325
 21
3038.6896373057
 31
0.0
  0
LINE
  5
85
330
1F
100
AcDbEntity
  8
1
100
AcDbLine
 10
2192.2261389325
 20
3038.6896373057
 30
0.0
 11
2192.2261389325
 21
2224.6896373057
 31
0.0
  0
LINE
  5
86
330
1F
100
AcDbEntity
  8
1
100
AcDbLine
 10
2195.2261389325
 20
3038.6896373057
 30
0.0
 11
2195.2261389325
 21
2224.6896373057
 31
0.0
  0
LINE
  5
87
330
1F
100
AcDbEntity
  8
1
100
AcDbLine
 10
2103.8261389325
 20
2265.0896373057
 30
0.0
 11
2192.2261389325
 21
2265.0896373057
 31
0.0
  0
LINE
  5
88
330
1F
100
AcDbEntity
  8
1
100
AcDbLine
 10
2103.8261389325
 20
2196.6896373057
 30
0.0
 11
2103.8261389325
 21
2265.0896373057
 31
0.0
  0
LINE
  5
89
330
1F
100
AcDbEntity
  8
1
100
AcDbLine
 10
1851.51820669
 20
1792.6896373057
 30
0.0
 11
1860.4781934678
 21
1797.1896373057
 31
0.0
  0
ARC
  5
8A
330
1F
100
AcDbEntity
  8
1
100
AcDbCircle
 10
1654.2261389325
 20
2196.6896373057
 30
0.0
 40
449.6
100
AcDbArc
 50
315.55868441
 51
0.0
  0
LINE
  5
8B
330
1F
100
AcDbEntity
  8
1
100
AcDbLine
 10
1414.2816062058
 20
1797.1896373057
 30
0.0
 11
1424.2881661054
 21
1792.6896373057
 31
0.0
  0
ARC
  5
8C
330
1F
100
AcDbEntity
  8
1
100
AcDbCircle
 10
1748.2261389325
 20
2290.6896373057
 30
0.0
 40
649.5999999999998
100
AcDbArc
 50
96.8116298958
 51
172.9156902537
  0
LINE
  5
8D
330
1F
100
AcDbEntity
  8
1
100
AcDbLine
 10
2192.2261389325
 20
2997.9426653075
 30
0.0
 11
1671.1799944543
 21
2935.7044058351
 31
0.0
  0
CIRCLE
  5
8E
330
1F
100
AcDbEntity
  8
0
  6
HIDDEN
 62
     7
370
    18
100
AcDbCircle
 10
795.2261389325
 20
1969.6896373057
 30
0.0
 40
19.0
  0
ARC
  5
8F
330
1F
100
AcDbEntity
  8
0
  6
HIDDEN
 62
     7
370
    18
100
AcDbCircle
 10
795.2261389325
 20
1969.6896373057
 30
0.0
 40
142.5000000000002
100
AcDbArc
 50
298.3576365763
 51
241.6423634237
  0
LINE
  5
90
330
1F
100
AcDbEntity
  8
0
  6
HIDDEN
 62
     7
370
    18
100
AcDbLine
 10
862.9098888287
 20
1844.2896373057
 30
0.0
 11
727.5423890364
 21
1844.2896373057
 31
0.0
  0
LINE
  5
91
330
1F
100
AcDbEntity
  8
0
  6
HIDDEN
 62
     7
370
    18
100
AcDbLine
 10
620.2261389325
 20
1792.6896373057
 30
0.0
 11
620.2261389325
 21
1837.6896373057
 31
0.0
  0
LINE
  5
92
330
1F
100
AcDbEntity
  8
0
  6
HIDDEN
 62
     7
370
    18
100
AcDbLine
 10
970.2261389325
 20
1797.1896373057
 30
0.0
 11
970.2261389325
 21
1837.6896373057
 31
0.0
  0
LINE
  5
93
330
1F
100
AcDbEntity
  8
0
  6
HIDDEN
 62
     7
370
    18
100
AcDbLine
 10
970.2261389325
 20
1837.6896373057
 30
0.0
 11
620.2261389325
 21
1837.6896373057
 31
0.0
  0
LINE
  5
94
330
1F
100
AcDbEntity
  8
0
  6
HIDDEN
 62
     7
370
    18
100
AcDbLine
 10
882.7261389325
 20
1837.6896373057
 30
0.0
 11
882.7261389325
 21
1850.8896373057
 31
0.0
  0
LINE
  5
95
330
1F
100
AcDbEntity
  8
0
  6
HIDDEN
 62
     7
370
    18
100
AcDbLine
 10
716.5317299825
 20
1850.8896373057
 30
0.0
 11
707.7261389325
 21
1850.8896373057
 31
0.0
  0
LINE
  5
96
330
1F
100
AcDbEntity
  8
0
  6
HIDDEN
 62
     7
370
    18
100
AcDbLine
 10
882.7261389325
 20
1850.8896373057
 30
0.0
 11
873.9205478826
 21
1850.8896373057
 31
0.0
  0
LINE
  5
97
330
1F
100
AcDbEntity
  8
0
  6
HIDDEN
 62
     7
370
    18
100
AcDbLine
 10
707.7261389325
 20
1850.8896373057
 30
0.0
 11
707.7261389325
 21
1837.6896373057
 31
0.0
  0
CIRCLE
  5
98
330
1F
100
AcDbEntity
  8
0
  6
HIDDEN
 62
     7
370
    18
100
AcDbCircle
 10
795.2261389325
 20
1969.6896373057
 30
0.0
 40
75.00000000000024
  0
CIRCLE
  5
99
330
1F
100
AcDbEntity
  8
0
  6
HIDDEN
 62
     7
370
    18
100
AcDbCircle
 10
1695.2261389325
 20
2237.6896373057
 30
0.0
 40
112.5000000000001
  0
LINE
  5
9A
330
1F
100
AcDbEntity
  8
0
  6
HIDDEN
 62
     7
370
    18
100
AcDbLine
 10
645.2261389325
 20
1792.6896373057
 30
0.0
 11
645.2261389325
 21
1692.6896373057
 31
0.0
  0
LINE
  5
9B
330
1F
100
AcDbEntity
  8
0
  6
HIDDEN
 62
     7
370
    18
100
AcDbLine
 10
2095.2261389325
 20
1792.6896373057
 30
0.0
 11
2095.2261389325
 21
1692.6896373057
 31
0.0
  0
ARC
  5
9C
330
1F
100
AcDbEntity
  8
0
  6
HIDDEN
 62
     7
370
    18
100
AcDbCircle
 10
1654.2261389325
 20
2196.6896373057
 30
0.0
 40
449.6000000000001
100
AcDbArc
 50
270.0
 51
296.0284175583
  0
ARC
  5
9D
330
1F
100
AcDbEntity
  8
0
  6
HIDDEN
 62
     7
370
    18
100
AcDbCircle
 10
1654.2261389325
 20
2196.6896373057
 30
0.0
 40
449.6000000000002
100
AcDbArc
 50
297.306197644
 51
315.55868441
  0
LINE
  5
9E
330
1F
100
AcDbEntity
  8
0
  6
HIDDEN
 62
     7
370
    18
100
AcDbLine
 10
1642.2261389325
 20
1747.0896373057
 30
0.0
 11
1654.2261389325
 21
1747.0896373057
 31
0.0
  0
ARC
  5
9F
330
1F
100
AcDbEntity
  8
0
  6
HIDDEN
 62
     7
370
    18
100
AcDbCircle
 10
1642.2261389325
 20
2290.6896373057
 30
0.0
 40
543.5999999999999
100
AcDbArc
 50
180.0
 51
245.2080831237
  0
ARC
  5
A0
330
1F
100
AcDbEntity
  8
0
  6
HIDDEN
 62
     7
370
    18
100
AcDbCircle
 10
1642.2261389325
 20
2290.6896373057
 30
0.0
 40
543.6000000000001
100
AcDbArc
 50
246.3645413893
 51
270.0
  0
ARC
  5
A1
330
1F
100
AcDbEntity
  8
0
  6
HIDDEN
 62
     7
370
    18
100
AcDbCircle
 10
1748.2261389325
 20
2290.6896373057
 30
0.0
 40
649.5999999999999
100
AcDbArc
 50
172.9156902537
 51
180.0
  0
ARC
  5
A2
330
1F
100
AcDbEntity
  8
0
  6
HIDDEN
 62
     7
370
    18
100
AcDbCircle
 10
1642.2261389325
 20
2290.6896373057
 30
0.0
 40
542.0000000000002
100
AcDbArc
 50
180.0
 51
270.0
  0
ARC
  5
A3
330
1F
100
AcDbEntity
  8
0
  6
HIDDEN
 62
     7
370
    18
100
AcDbCircle
 10
1654.2261389325
 20
2196.6896373057
 30
0.0
 40
448.0000000000002
100
AcDbArc
 50
270.0
 51
0.0
  0
LINE
  5
A4
330
1F
100
AcDbEntity
  8
0
  6
HIDDEN
 62
     7
370
    18
100
AcDbLine
 10
2102.2261389325
 20
2266.6896373057
 30
0.0
 11
2195.2261389325
 21
2266.6896373057
 31
0.0
  0
LINE
  5
A5
330
1F
100
AcDbEntity
  8
0
  6
HIDDEN
 62
     7
370
    18
100
AcDbLine
 10
2195.2261389325
 20
2996.6896373057
 30
0.0
 11
1671.3697632831
 21
2934.1156995087
 31
0.0
  0
LINE
  5
A6
330
1F
100
AcDbEntity
  8
0
  6
HIDDEN
 62
     7
370
    18
100
AcDbLine
 10
2102.2261389325
 20
2196.6896373057
 30
0.0
 11
2102.2261389325
 21
2266.6896373057
 31
0.0
  0
LINE
  5
A7
330
1F
100
AcDbEntity
  8
0
  6
HIDDEN
 62
     7
370
    18
100
AcDbLine
 10
1642.2261389325
 20
1748.6896373057
 30
0.0
 11
1654.2261389325
 21
1748.6896373057
 31
0.0
  0
ARC
  5
A8
330
1F
100
AcDbEntity
  8
0
  6
HIDDEN
 62
     7
370
    18
100
AcDbCircle
 10
1748.2261389325
 20
2290.6896373057
 30
0.0
 40
647.9999999999998
100
AcDbArc
 50
96.8116298958
 51
180.0
  0
CIRCLE
  5
A9
330
1F
100
AcDbEntity
  8
0
  6
HIDDEN
 62
     7
370
    18
100
AcDbCircle
 10
1695.2261389325
 20
2237.6896373057
 30
0.0
 40
355.0
  0
CIRCLE
  5
AA
330
1F
100
AcDbEntity
  8
0
  6
HIDDEN
 62
     7
370
    18
100
AcDbCircle
 10
1695.2261389325
 20
2237.6896373057
 30
0.0
 40
395.0
  0
CIRCLE
  5
AB
330
1F
100
AcDbEntity
  8
0
  6
HIDDEN
 62
     7
370
    18
100
AcDbCircle
 10
1695.2261389325
 20
2237.6896373057
 30
0.0
 40
357.3000000000002
  0
CIRCLE
  5
AC
330
1F
100
AcDbEntity
  8
0
  6
HIDDEN
 62
     7
370
    18
100
AcDbCircle
 10
1962.1589488305
 20
2504.6224472036
 30
0.0
 40
5.0
  0
CIRCLE
  5
AD
330
1F
100
AcDbEntity
  8
0
  6
HIDDEN
 62
     7
370
    18
100
AcDbCircle
 10
2059.8631383567
 20
2139.9854477795
 30
0.0
 40
5.0
  0
CIRCLE
  5
AE
330
1F
100
AcDbEntity
  8
0
  6
HIDDEN
 62
     7
370
    18
100
AcDbCircle
 10
1962.1589488305
 20
1970.7568274078
 30
0.0
 40
5.0
  0
CIRCLE
  5
AF
330
1F
100
AcDbEntity
  8
0
  6
HIDDEN
 62
     7
370
    18
100
AcDbCircle
 10
1792.9303284587
 20
1873.0526378816
 30
0.0
 40
5.000000000000227
  0
CIRCLE
  5
B0
330
1F
100
AcDbEntity
  8
0
  6
HIDDEN
 62
     7
370
    18
100
AcDbCircle
 10
1597.5219494063
 20
1873.0526378816
 30
0.0
 40
5.0
  0
CIRCLE
  5
B1
330
1F
100
AcDbEntity
  8
0
  6
HIDDEN
 62
     7
370
    18
100
AcDbCircle
 10
1428.2933290346
 20
1970.7568274078
 30
0.0
 40
5.0
  0
CIRCLE
  5
B2
330
1F
100
AcDbEntity
  8
0
  6
HIDDEN
 62
     7
370
    18
100
AcDbCircle
 10
1330.5891395084
 20
2139.9854477795
 30
0.0
 40
5.0
  0
CIRCLE
  5
B3
330
1F
100
AcDbEntity
  8
0
  6
HIDDEN
 62
     7
370
    18
100
AcDbCircle
 10
1330.5891395084
 20
2335.3938268319
 30
0.0
 40
5.0
  0
CIRCLE
  5
B4
330
1F
100
AcDbEntity
  8
0
  6
HIDDEN
 62
     7
370
    18
100
AcDbCircle
 10
1428.2933290346
 20
2504.6224472036
 30
0.0
 40
5.0
  0
CIRCLE
  5
B5
330
1F
100
AcDbEntity
  8
0
  6
HIDDEN
 62
     7
370
    18
100
AcDbCircle
 10
1597.5219494063
 20
2602.3266367298
 30
0.0
 40
5.0
  0
CIRCLE
  5
B6
330
1F
100
AcDbEntity
  8
0
  6
HIDDEN
 62
     7
370
    18
100
AcDbCircle
 10
1792.9303284587
 20
2602.3266367298
 30
0.0
 40
5.000000000000227
  0
CIRCLE
  5
B7
330
1F
100
AcDbEntity
  8
0
  6
HIDDEN
 62
     7
370
    18
100
AcDbCircle
 10
2059.8631383567
 20
2335.3938268319
 30
0.0
 40
5.0
  0
LINE
  5
B8
330
1F
100
AcDbEntity
  8
0
  6
HIDDEN
 62
     7
370
    18
100
AcDbLine
 10
2067.7261389325
 20
1692.6896373057
 30
0.0
 11
2067.7261389325
 21
1697.6896373057
 31
0.0
  0
LINE
  5
B9
330
1F
100
AcDbEntity
  8
0
  6
HIDDEN
 62
     7
370
    18
100
AcDbLine
 10
2052.7261389325
 20
1697.6896373057
 30
0.0
 11
2052.7261389325
 21
1692.6896373057
 31
0.0
  0
LINE
  5
BA
330
1F
100
AcDbEntity
  8
0
  6
HIDDEN
 62
     7
370
    18
100
AcDbLine
 10
1377.7261389325
 20
1692.6896373057
 30
0.0
 11
1377.7261389325
 21
1697.6896373057
 31
0.0
  0
LINE
  5
BB
330
1F
100
AcDbEntity
  8
0
  6
HIDDEN
 62
     7
370
    18
100
AcDbLine
 10
1362.7261389325
 20
1697.6896373057
 30
0.0
 11
1362.7261389325
 21
1692.6896373057
 31
0.0
  0
LINE
  5
BC
330
1F
100
AcDbEntity
  8
0
  6
HIDDEN
 62
     7
370
    18
100
AcDbLine
 10
687.7261389325
 20
1692.6896373057
 30
0.0
 11
687.7261389325
 21
1697.6896373057
 31
0.0
  0
LINE
  5
BD
330
1F
100
AcDbEntity
  8
0
  6
HIDDEN
 62
     7
370
    18
100
AcDbLine
 10
672.7261389325
 20
1697.6896373057
 30
0.0
 11
672.7261389325
 21
1692.6896373057
 31
0.0
  0
LINE
  5
BE
330
1F
100
AcDbEntity
  8
0
  6
HIDDEN
 62
     7
370
    18
100
AcDbLine
 10
2195.2261389325
 20
2636.6896373057
 30
0.0
 11
2192.2261389325
 21
2636.6896373057
 31
0.0
  0
LINE
  5
BF
330
1F
100
AcDbEntity
  8
0
  6
HIDDEN
 62
     7
370
    18
100
AcDbLine
 10
2192.2261389325
 20
2626.6896373057
 30
0.0
 11
2195.2261389325
 21
2626.6896373057
 31
0.0
  0
LINE
  5
C0
330
1F
100
AcDbEntity
  8
0
  6
HIDDEN
 62
     7
370
    18
100
AcDbLine
 10
2195.2261389325
 20
2436.6896373057
 30
0.0
 11
2192.2261389325
 21
2436.6896373057
 31
0.0
  0
LINE
  5
C1
330
1F
100
AcDbEntity
  8
0
  6
HIDDEN
 62
     7
370
    18
100
AcDbLine
 10
2192.2261389325
 20
2426.6896373057
 30
0.0
 11
2195.2261389325
 21
2426.6896373057
 31
0.0
  0
LINE
  5
C2
330
1F
100
AcDbEntity
  8
0
  6
HIDDEN
 62
     7
370
    18
100
AcDbLine
 10
2195.2261389325
 20
2247.6896373057
 30
0.0
 11
2192.2261389325
 21
2247.6896373057
 31
0.0
  0
LINE
  5
C3
330
1F
100
AcDbEntity
  8
0
  6
HIDDEN
 62
     7
370
    18
100
AcDbLine
 10
2192.2261389325
 20
2237.6896373057
 30
0.0
 11
2195.2261389325
 21
2237.6896373057
 31
0.0
  0
LINE
  5
C4
330
1F
100
AcDbEntity
  8
0
  6
HIDDEN
 62
     7
370
    18
100
AcDbLine
 10
2195.2261389325
 20
2836.6896373057
 30
0.0
 11
2192.2261389325
 21
2836.6896373057
 31
0.0
  0
LINE
  5
C5
330
1F
100
AcDbEntity
  8
0
  6
HIDDEN
 62
     7
370
    18
100
AcDbLine
 10
2192.2261389325
 20
2826.6896373057
 30
0.0
 11
2195.2261389325
 21
2826.6896373057
 31
0.0
  0
LINE
  5
C6
330
1F
100
AcDbEntity
  8
0
  6
HIDDEN
 62
     7
370
    18
100
AcDbLine
 10
2195.2261389325
 20
3025.6896373057
 30
0.0
 11
2192.2261389325
 21
3025.6896373057
 31
0.0
  0
LINE
  5
C7
330
1F
100
AcDbEntity
  8
0
  6
HIDDEN
 62
     7
370
    18
100
AcDbLine
 10
2192.2261389325
 20
3015.6896373057
 30
0.0
 11
2195.2261389325
 21
3015.6896373057
 31
0.0
  0
INSERT
  5
D3
330
1F
100
AcDbEntity
  8
2
100
AcDbBlockReference
  2
SW_CENTERMARKSYMBOL_0
 10
1695.2261389325
 20
2237.6896373057
 30
0.0
  0
LINE
  5
D4
330
1F
100
AcDbEntity
  8
1
100
AcDbLine
 10
3022.9644809014
 20
2112.1896373057
 30
0.0
 11
2847.7644809014
 21
2112.1896373057
 31
0.0
  0
LINE
  5
D5
330
1F
100
AcDbEntity
  8
1
100
AcDbLine
 10
2810.2644809014
 20
1950.6896373057
 30
0.0
 11
2847.7644809014
 21
1950.6896373057
 31
0.0
  0
LINE
  5
D6
330
1F
100
AcDbEntity
  8
1
100
AcDbLine
 10
2847.7644809014
 20
1988.6896373057
 30
0.0
 11
2810.2644809014
 21
1988.6896373057
 31
0.0
  0
LINE
  5
D7
330
1F
100
AcDbEntity
  8
1
100
AcDbLine
 10
3638.2644809014
 20
2632.6896373057
 30
0.0
 11
3635.9644809014
 21
2632.6896373057
 31
0.0
  0
LINE
  5
D8
330
1F
100
AcDbEntity
  8
1
100
AcDbLine
 10
3635.9644809014
 20
1842.6896373057
 30
0.0
 11
3638.2644809014
 21
1842.6896373057
 31
0.0
  0
LINE
  5
D9
330
1F
100
AcDbEntity
  8
1
100
AcDbLine
 10
3557.5644809014
 20
1842.6896373057
 30
0.0
 11
3558.2644809014
 21
1842.6896373057
 31
0.0
  0
LINE
  5
DA
330
1F
100
AcDbEntity
  8
1
100
AcDbLine
 10
3635.9644809014
 20
2594.9896373057
 30
0.0
 11
3597.2644809014
 21
2594.9896373057
 31
0.0
  0
LINE
  5
DB
330
1F
100
AcDbEntity
  8
1
100
AcDbLine
 10
3558.2644809014
 20
1880.3896373057
 30
0.0
 11
3635.9644809014
 21
1880.3896373057
 31
0.0
  0
LINE
  5
DC
330
1F
100
AcDbEntity
  8
1
100
AcDbLine
 10
2866.7644809014
 20
1797.1896373057
 30
0.0
 11
2866.7644809014
 21
1837.6896373057
 31
0.0
  0
LINE
  5
DD
330
1F
100
AcDbEntity
  8
1
100
AcDbLine
 10
3022.9644809014
 20
1837.6896373057
 30
0.0
 11
2866.7644809014
 21
1837.6896373057
 31
0.0
  0
LINE
  5
DE
330
1F
100
AcDbEntity
  8
1
100
AcDbLine
 10
2876.7644809014
 20
1844.2896373057
 30
0.0
 11
2847.7644809014
 21
1844.2896373057
 31
0.0
  0
LINE
  5
DF
330
1F
100
AcDbEntity
  8
1
100
AcDbLine
 10
2847.7644809014
 20
2112.1896373057
 30
0.0
 11
2847.7644809014
 21
1844.2896373057
 31
0.0
  0
LINE
  5
E0
330
1F
100
AcDbEntity
  8
1
100
AcDbLine
 10
2876.7644809014
 20
1837.6896373057
 30
0.0
 11
2876.7644809014
 21
1850.8896373057
 31
0.0
  0
LINE
  5
E1
330
1F
100
AcDbEntity
  8
1
100
AcDbLine
 10
2876.7644809014
 20
1850.8896373057
 30
0.0
 11
3022.9644809014
 21
1850.8896373057
 31
0.0
  0
LINE
  5
E2
330
1F
100
AcDbEntity
  8
1
100
AcDbLine
 10
2650.2644809014
 20
1797.1896373057
 30
0.0
 11
2650.2644809014
 21
2597.1896373057
 31
0.0
  0
LINE
  5
E3
330
1F
100
AcDbEntity
  8
1
100
AcDbLine
 10
2650.2644809014
 20
1797.1896373057
 30
0.0
 11
2760.2644809014
 21
1797.1896373057
 31
0.0
  0
LINE
  5
E4
330
1F
100
AcDbEntity
  8
1
100
AcDbLine
 10
2810.2644809014
 20
1797.1896373057
 30
0.0
 11
2810.2644809014
 21
2597.1896373057
 31
0.0
  0
LINE
  5
E5
330
1F
100
AcDbEntity
  8
1
100
AcDbLine
 10
2650.2644809014
 20
2597.1896373057
 30
0.0
 11
2810.2644809014
 21
2597.1896373057
 31
0.0
  0
LINE
  5
E6
330
1F
100
AcDbEntity
  8
1
100
AcDbLine
 10
3608.2644809014
 20
1792.6896373057
 30
0.0
 11
3608.2644809014
 21
1787.6896373057
 31
0.0
  0
LINE
  5
E7
330
1F
100
AcDbEntity
  8
1
100
AcDbLine
 10
2858.2644809014
 20
1787.6896373057
 30
0.0
 11
3608.2644809014
 21
1787.6896373057
 31
0.0
  0
LINE
  5
E8
330
1F
100
AcDbEntity
  8
1
100
AcDbLine
 10
2858.2644809014
 20
1792.6896373057
 30
0.0
 11
2858.2644809014
 21
1787.6896373057
 31
0.0
  0
LINE
  5
E9
330
1F
100
AcDbEntity
  8
1
100
AcDbLine
 10
2858.2644809014
 20
1792.6896373057
 30
0.0
 11
3608.2644809014
 21
1792.6896373057
 31
0.0
  0
LINE
  5
EA
330
1F
100
AcDbEntity
  8
1
100
AcDbLine
 10
3608.2644809014
 20
1697.6896373057
 30
0.0
 11
3608.2644809014
 21
1692.6896373057
 31
0.0
  0
LINE
  5
EB
330
1F
100
AcDbEntity
  8
1
100
AcDbLine
 10
2858.2644809014
 20
1697.6896373057
 30
0.0
 11
2858.2644809014
 21
1692.6896373057
 31
0.0
  0
LINE
  5
EC
330
1F
100
AcDbEntity
  8
1
100
AcDbLine
 10
2858.2644809014
 20
1697.6896373057
 30
0.0
 11
3608.2644809014
 21
1697.6896373057
 31
0.0
  0
LINE
  5
ED
330
1F
100
AcDbEntity
  8
1
100
AcDbLine
 10
2858.2644809014
 20
1692.6896373057
 30
0.0
 11
3608.2644809014
 21
1692.6896373057
 31
0.0
  0
LINE
  5
EE
330
1F
100
AcDbEntity
  8
1
100
AcDbLine
 10
3563.2644809014
 20
1787.6896373057
 30
0.0
 11
3563.2644809014
 21
1697.6896373057
 31
0.0
  0
LINE
  5
EF
330
1F
100
AcDbEntity
  8
1
100
AcDbLine
 10
2903.2644809014
 20
1787.6896373057
 30
0.0
 11
2903.2644809014
 21
1697.6896373057
 31
0.0
  0
LINE
  5
F0
330
1F
100
AcDbEntity
  8
1
100
AcDbLine
 10
2760.2644809014
 20
1797.1896373057
 30
0.0
 11
2760.2644809014
 21
1792.6896373057
 31
0.0
  0
LINE
  5
F1
330
1F
100
AcDbEntity
  8
1
100
AcDbLine
 10
2760.2644809014
 20
1797.1896373057
 30
0.0
 11
2890.2644809014
 21
1797.1896373057
 31
0.0
  0
LINE
  5
F2
330
1F
100
AcDbEntity
  8
1
100
AcDbLine
 10
2890.2644809014
 20
1797.1896373057
 30
0.0
 11
2890.2644809014
 21
1792.6896373057
 31
0.0
  0
LINE
  5
F3
330
1F
100
AcDbEntity
  8
1
100
AcDbLine
 10
2760.2644809014
 20
1792.6896373057
 30
0.0
 11
2858.2644809014
 21
1792.6896373057
 31
0.0
  0
CIRCLE
  5
F4
330
1F
100
AcDbEntity
  8
1
100
AcDbCircle
 10
3001.2644809014
 20
3020.6896373057
 30
0.0
 40
4.999999999999545
  0
CIRCLE
  5
F5
330
1F
100
AcDbEntity
  8
1
100
AcDbCircle
 10
3190.2644809014
 20
3020.6896373057
 30
0.0
 40
5.0
  0
CIRCLE
  5
F6
330
1F
100
AcDbEntity
  8
1
100
AcDbCircle
 10
3001.2644809014
 20
2831.6896373057
 30
0.0
 40
4.999999999999545
  0
CIRCLE
  5
F7
330
1F
100
AcDbEntity
  8
1
100
AcDbCircle
 10
3001.2644809014
 20
2631.6896373057
 30
0.0
 40
4.999999999999545
  0
CIRCLE
  5
F8
330
1F
100
AcDbEntity
  8
1
100
AcDbCircle
 10
3579.2644809014
 20
2631.6896373057
 30
0.0
 40
5.000000000000455
  0
CIRCLE
  5
F9
330
1F
100
AcDbEntity
  8
1
100
AcDbCircle
 10
3579.2644809014
 20
2831.6896373057
 30
0.0
 40
5.0
  0
CIRCLE
  5
FA
330
1F
100
AcDbEntity
  8
1
100
AcDbCircle
 10
3390.2644809014
 20
3020.6896373057
 30
0.0
 40
5.0
  0
CIRCLE
  5
FB
330
1F
100
AcDbEntity
  8
1
100
AcDbCircle
 10
3579.2644809014
 20
3020.6896373057
 30
0.0
 40
5.0
  0
CIRCLE
  5
FC
330
1F
100
AcDbEntity
  8
1
100
AcDbCircle
 10
3579.2644809014
 20
2242.6896373057
 30
0.0
 40
5.0
  0
CIRCLE
  5
FD
330
1F
100
AcDbEntity
  8
1
100
AcDbCircle
 10
3390.2644809014
 20
2242.6896373057
 30
0.0
 40
5.0
  0
CIRCLE
  5
FE
330
1F
100
AcDbEntity
  8
1
100
AcDbCircle
 10
3579.2644809014
 20
2431.6896373057
 30
0.0
 40
5.0
  0
CIRCLE
  5
FF
330
1F
100
AcDbEntity
  8
1
100
AcDbCircle
 10
3190.2644809014
 20
2242.6896373057
 30
0.0
 40
5.0
  0
CIRCLE
  5
100
330
1F
100
AcDbEntity
  8
1
100
AcDbCircle
 10
3001.2644809014
 20
2242.6896373057
 30
0.0
 40
4.999999999999545
  0
LINE
  5
101
330
1F
100
AcDbEntity
  8
1
100
AcDbLine
 10
3597.2644809014
 20
3038.6896373057
 30
0.0
 11
2983.2644809014
 21
3038.6896373057
 31
0.0
  0
LINE
  5
102
330
1F
100
AcDbEntity
  8
1
100
AcDbLine
 10
3597.2644809014
 20
2224.6896373057
 30
0.0
 11
3597.2644809014
 21
3038.6896373057
 31
0.0
  0
LINE
  5
103
330
1F
100
AcDbEntity
  8
1
100
AcDbLine
 10
2983.2644809014
 20
3038.6896373057
 30
0.0
 11
2983.2644809014
 21
2224.6896373057
 31
0.0
  0
LINE
  5
104
330
1F
100
AcDbEntity
  8
1
100
AcDbLine
 10
3025.2644809014
 20
2996.6896373057
 30
0.0
 11
3555.2644809014
 21
2996.6896373057
 31
0.0
  0
LINE
  5
105
330
1F
100
AcDbEntity
  8
1
100
AcDbLine
 10
3025.2644809014
 20
2266.6896373057
 30
0.0
 11
3025.2644809014
 21
2996.6896373057
 31
0.0
  0
LINE
  5
106
330
1F
100
AcDbEntity
  8
1
100
AcDbLine
 10
3025.2644809014
 20
2266.6896373057
 30
0.0
 11
3555.2644809014
 21
2266.6896373057
 31
0.0
  0
LINE
  5
107
330
1F
100
AcDbEntity
  8
1
100
AcDbLine
 10
3555.2644809014
 20
2266.6896373057
 30
0.0
 11
3555.2644809014
 21
2996.6896373057
 31
0.0
  0
CIRCLE
  5
108
330
1F
100
AcDbEntity
  8
1
100
AcDbCircle
 10
3001.2644809014
 20
2431.6896373057
 30
0.0
 40
4.999999999999545
  0
LINE
  5
109
330
1F
100
AcDbEntity
  8
1
100
AcDbLine
 10
2983.2644809014
 20
2224.6896373057
 30
0.0
 11
3597.2644809014
 21
2224.6896373057
 31
0.0
  0
LINE
  5
10A
330
1F
100
AcDbEntity
  8
1
100
AcDbLine
 10
3025.2644809014
 20
2934.1156995087
 30
0.0
 11
3555.2644809014
 21
2934.1156995087
 31
0.0
  0
LINE
  5
10B
330
1F
100
AcDbEntity
  8
1
100
AcDbLine
 10
3022.9644809014
 20
2196.6896373057
 30
0.0
 11
3557.5644809014
 21
2196.6896373057
 31
0.0
  0
LINE
  5
10C
330
1F
100
AcDbEntity
  8
1
100
AcDbLine
 10
3022.9644809014
 20
1792.6896373057
 30
0.0
 11
3022.9644809014
 21
2196.6896373057
 31
0.0
  0
LINE
  5
10D
330
1F
100
AcDbEntity
  8
1
100
AcDbLine
 10
3557.5644809014
 20
1792.6896373057
 30
0.0
 11
3557.5644809014
 21
2196.6896373057
 31
0.0
  0
LINE
  5
10E
330
1F
100
AcDbEntity
  8
1
100
AcDbLine
 10
3022.9644809014
 20
2196.6896373057
 30
0.0
 11
3022.9644809014
 21
2224.6896373057
 31
0.0
  0
LINE
  5
10F
330
1F
100
AcDbEntity
  8
1
100
AcDbLine
 10
3557.5644809014
 20
2196.6896373057
 30
0.0
 11
3557.5644809014
 21
2224.6896373057
 31
0.0
  0
LINE
  5
110
330
1F
100
AcDbEntity
  8
1
100
AcDbLine
 10
3635.9644809014
 20
2632.6896373057
 30
0.0
 11
3635.9644809014
 21
1842.6896373057
 31
0.0
  0
LINE
  5
111
330
1F
100
AcDbEntity
  8
1
100
AcDbLine
 10
3638.2644809014
 20
2632.6896373057
 30
0.0
 11
3638.2644809014
 21
1842.6896373057
 31
0.0
  0
LINE
  5
112
330
1F
100
AcDbEntity
  8
1
100
AcDbLine
 10
3558.2644809014
 20
1842.6896373057
 30
0.0
 11
3558.2644809014
 21
2224.6896373057
 31
0.0
  0
LINE
  5
113
330
1F
100
AcDbEntity
  8
1
100
AcDbLine
 10
3025.2644809014
 20
2290.6896373057
 30
0.0
 11
3555.2644809014
 21
2290.6896373057
 31
0.0
  0
LINE
  5
114
330
1F
100
AcDbEntity
  8
0
  6
HIDDEN
 62
     7
370
    18
100
AcDbLine
 10
3146.7644809014
 20
1792.6896373057
 30
0.0
 11
3146.7644809014
 21
1837.6896373057
 31
0.0
  0
LINE
  5
115
330
1F
100
AcDbEntity
  8
0
  6
HIDDEN
 62
     7
370
    18
100
AcDbLine
 10
2866.7644809014
 20
1792.6896373057
 30
0.0
 11
2866.7644809014
 21
1797.1896373057
 31
0.0
  0
LINE
  5
116
330
1F
100
AcDbEntity
  8
0
  6
HIDDEN
 62
     7
370
    18
100
AcDbLine
 10
3146.7644809014
 20
1837.6896373057
 30
0.0
 11
3022.9644809014
 21
1837.6896373057
 31
0.0
  0
LINE
  5
117
330
1F
100
AcDbEntity
  8
0
  6
HIDDEN
 62
     7
370
    18
100
AcDbLine
 10
3217.2644809014
 20
1844.2896373057
 30
0.0
 11
3136.7644809014
 21
1844.2896373057
 31
0.0
  0
LINE
  5
118
330
1F
100
AcDbEntity
  8
0
  6
HIDDEN
 62
     7
370
    18
100
AcDbLine
 10
3217.2644809014
 20
1844.2896373057
 30
0.0
 11
3217.2644809014
 21
2112.1896373057
 31
0.0
  0
LINE
  5
119
330
1F
100
AcDbEntity
  8
0
  6
HIDDEN
 62
     7
370
    18
100
AcDbLine
 10
3022.9644809014
 20
1850.8896373057
 30
0.0
 11
3136.7644809014
 21
1850.8896373057
 31
0.0
  0
LINE
  5
11A
330
1F
100
AcDbEntity
  8
0
  6
HIDDEN
 62
     7
370
    18
100
AcDbLine
 10
3136.7644809014
 20
1837.6896373057
 30
0.0
 11
3136.7644809014
 21
1850.8896373057
 31
0.0
  0
LINE
  5
11B
330
1F
100
AcDbEntity
  8
0
  6
HIDDEN
 62
     7
370
    18
100
AcDbLine
 10
2692.7644809014
 20
1894.9290093031
 30
0.0
 11
2692.7644809014
 21
1894.6896373057
 31
0.0
  0
LINE
  5
11C
330
1F
100
AcDbEntity
  8
0
  6
HIDDEN
 62
     7
370
    18
100
AcDbLine
 10
2692.7644809014
 20
2044.6896373057
 30
0.0
 11
2692.7644809014
 21
1894.9290093031
 31
0.0
  0
LINE
  5
11D
330
1F
100
AcDbEntity
  8
0
  6
HIDDEN
 62
     7
370
    18
100
AcDbLine
 10
2767.7644809014
 20
1894.9290093031
 30
0.0
 11
2767.7644809014
 21
1894.6896373057
 31
0.0
  0
LINE
  5
11E
330
1F
100
AcDbEntity
  8
0
  6
HIDDEN
 62
     7
370
    18
100
AcDbLine
 10
2767.7644809014
 20
2044.6896373057
 30
0.0
 11
2767.7644809014
 21
1894.9290093031
 31
0.0
  0
LINE
  5
11F
330
1F
100
AcDbEntity
  8
0
  6
HIDDEN
 62
     7
370
    18
100
AcDbLine
 10
2692.7644809014
 20
2349.4821283214
 30
0.0
 11
2692.7644809014
 21
2125.1896373057
 31
0.0
  0
LINE
  5
120
330
1F
100
AcDbEntity
  8
0
  6
HIDDEN
 62
     7
370
    18
100
AcDbLine
 10
2692.7644809014
 20
2350.1896373057
 30
0.0
 11
2692.7644809014
 21
2349.4821283214
 31
0.0
  0
LINE
  5
121
330
1F
100
AcDbEntity
  8
0
  6
HIDDEN
 62
     7
370
    18
100
AcDbLine
 10
2767.7644809014
 20
2349.4821283214
 30
0.0
 11
2767.7644809014
 21
2125.1896373057
 31
0.0
  0
LINE
  5
122
330
1F
100
AcDbEntity
  8
0
  6
HIDDEN
 62
     7
370
    18
100
AcDbLine
 10
2767.7644809014
 20
2350.1896373057
 30
0.0
 11
2767.7644809014
 21
2349.4821283214
 31
0.0
  0
LINE
  5
123
330
1F
100
AcDbEntity
  8
0
  6
HIDDEN
 62
     7
370
    18
100
AcDbLine
 10
2650.2644809014
 20
2172.1896373057
 30
0.0
 11
2810.2644809014
 21
2172.1896373057
 31
0.0
  0
LINE
  5
124
330
1F
100
AcDbEntity
  8
0
  6
HIDDEN
 62
     7
370
    18
100
AcDbLine
 10
3558.2644809014
 20
1792.6896373057
 30
0.0
 11
3558.2644809014
 21
1692.6896373057
 31
0.0
  0
LINE
  5
125
330
1F
100
AcDbEntity
  8
0
  6
HIDDEN
 62
     7
370
    18
100
AcDbLine
 10
2908.2644809014
 20
1792.6896373057
 30
0.0
 11
2908.2644809014
 21
1692.6896373057
 31
0.0
  0
LINE
  5
126
330
1F
100
AcDbEntity
  8
0
  6
HIDDEN
 62
     7
370
    18
100
AcDbLine
 10
3557.5644809014
 20
2997.9426653075
 30
0.0
 11
3022.9644809014
 21
2997.9426653075
 31
0.0
  0
LINE
  5
127
330
1F
100
AcDbEntity
  8
0
  6
HIDDEN
 62
     7
370
    18
100
AcDbLine
 10
3557.5644809014
 20
2997.9426653075
 30
0.0
 11
3557.5644809014
 21
2265.0896373057
 31
0.0
  0
LINE
  5
128
330
1F
100
AcDbEntity
  8
0
  6
HIDDEN
 62
     7
370
    18
100
AcDbLine
 10
3022.9644809014
 20
2265.0896373057
 30
0.0
 11
3557.5644809014
 21
2265.0896373057
 31
0.0
  0
LINE
  5
129
330
1F
100
AcDbEntity
  8
0
  6
HIDDEN
 62
     7
370
    18
100
AcDbLine
 10
3022.9644809014
 20
2997.9426653075
 30
0.0
 11
3022.9644809014
 21
2265.0896373057
 31
0.0
  0
LINE
  5
12A
330
1F
100
AcDbEntity
  8
0
  6
HIDDEN
 62
     7
370
    18
100
AcDbLine
 10
3022.9644809014
 20
1747.0896373057
 30
0.0
 11
3557.5644809014
 21
1747.0896373057
 31
0.0
  0
LINE
  5
12B
330
1F
100
AcDbEntity
  8
0
  6
HIDDEN
 62
     7
370
    18
100
AcDbLine
 10
3022.9644809014
 20
1747.0896373057
 30
0.0
 11
3022.9644809014
 21
1792.6896373057
 31
0.0
  0
LINE
  5
12C
330
1F
100
AcDbEntity
  8
0
  6
HIDDEN
 62
     7
370
    18
100
AcDbLine
 10
3557.5644809014
 20
1747.0896373057
 30
0.0
 11
3557.5644809014
 21
1792.6896373057
 31
0.0
  0
LINE
  5
12D
330
1F
100
AcDbEntity
  8
0
  6
HIDDEN
 62
     7
370
    18
100
AcDbLine
 10
3022.9644809014
 20
2224.6896373057
 30
0.0
 11
3022.9644809014
 21
2265.0896373057
 31
0.0
  0
LINE
  5
12E
330
1F
100
AcDbEntity
  8
0
  6
HIDDEN
 62
     7
370
    18
100
AcDbLine
 10
3557.5644809014
 20
2224.6896373057
 30
0.0
 11
3557.5644809014
 21
2265.0896373057
 31
0.0
  0
LINE
  5
12F
330
1F
100
AcDbEntity
  8
0
  6
HIDDEN
 62
     7
370
    18
100
AcDbLine
 10
3025.2644809014
 20
2196.6896373057
 30
0.0
 11
3025.2644809014
 21
2266.6896373057
 31
0.0
  0
LINE
  5
130
330
1F
100
AcDbEntity
  8
0
  6
HIDDEN
 62
     7
370
    18
100
AcDbLine
 10
3555.2644809014
 20
2196.6896373057
 30
0.0
 11
3555.2644809014
 21
2266.6896373057
 31
0.0
  0
LINE
  5
131
330
1F
100
AcDbEntity
  8
0
  6
HIDDEN
 62
     7
370
    18
100
AcDbLine
 10
3025.2644809014
 20
1748.6896373057
 30
0.0
 11
3555.2644809014
 21
1748.6896373057
 31
0.0
  0
LINE
  5
132
330
1F
100
AcDbEntity
  8
0
  6
HIDDEN
 62
     7
370
    18
100
AcDbLine
 10
3025.2644809014
 20
2196.6896373057
 30
0.0
 11
3555.2644809014
 21
2196.6896373057
 31
0.0
  0
LINE
  5
133
330
1F
100
AcDbEntity
  8
0
  6
HIDDEN
 62
     7
370
    18
100
AcDbLine
 10
3025.2644809014
 20
1748.6896373057
 30
0.0
 11
3025.2644809014
 21
2196.6896373057
 31
0.0
  0
LINE
  5
134
330
1F
100
AcDbEntity
  8
0
  6
HIDDEN
 62
     7
370
    18
100
AcDbLine
 10
3555.2644809014
 20
1748.6896373057
 30
0.0
 11
3555.2644809014
 21
2196.6896373057
 31
0.0
  0
LINE
  5
135
330
1F
100
AcDbEntity
  8
0
  6
HIDDEN
 62
     7
370
    18
100
AcDbLine
 10
3558.2644809014
 20
2237.6896373057
 30
0.0
 11
3558.2644809014
 21
2632.6896373057
 31
0.0
  0
LINE
  5
136
330
1F
100
AcDbEntity
  8
0
  6
HIDDEN
 62
     7
370
    18
100
AcDbLine
 10
3558.2644809014
 20
2224.6896373057
 30
0.0
 11
3558.2644809014
 21
2237.6896373057
 31
0.0
  0
LINE
  5
137
330
1F
100
AcDbEntity
  8
0
  6
HIDDEN
 62
     7
370
    18
100
AcDbLine
 10
3022.9644809014
 20
2935.7044058351
 30
0.0
 11
3557.5644809014
 21
2935.7044058351
 31
0.0
  0
LINE
  5
138
330
1F
100
AcDbEntity
  8
0
  6
HIDDEN
 62
     7
370
    18
100
AcDbLine
 10
3022.9644809014
 20
2290.6896373057
 30
0.0
 11
3557.5644809014
 21
2290.6896373057
 31
0.0
  0
LINE
  5
139
330
1F
100
AcDbEntity
  8
0
  6
HIDDEN
 62
     7
370
    18
100
AcDbLine
 10
3217.2644809014
 20
2112.1896373057
 30
0.0
 11
3022.9644809014
 21
2112.1896373057
 31
0.0
  0
LINE
  5
13A
330
1F
100
AcDbEntity
  8
0
  6
HIDDEN
 62
     7
370
    18
100
AcDbLine
 10
2767.7644809014
 20
1950.6896373057
 30
0.0
 11
2810.2644809014
 21
1950.6896373057
 31
0.0
  0
LINE
  5
13B
330
1F
100
AcDbEntity
  8
0
  6
HIDDEN
 62
     7
370
    18
100
AcDbLine
 10
2810.2644809014
 20
1988.6896373057
 30
0.0
 11
2767.7644809014
 21
1988.6896373057
 31
0.0
  0
LINE
  5
13C
330
1F
100
AcDbEntity
  8
0
  6
HIDDEN
 62
     7
370
    18
100
AcDbLine
 10
2692.7644809014
 20
1894.6896373057
 30
0.0
 11
2767.7644809014
 21
1894.6896373057
 31
0.0
  0
LINE
  5
13D
330
1F
100
AcDbEntity
  8
0
  6
HIDDEN
 62
     7
370
    18
100
AcDbLine
 10
2767.7644809014
 20
2044.6896373057
 30
0.0
 11
2692.7644809014
 21
2044.6896373057
 31
0.0
  0
LINE
  5
13E
330
1F
100
AcDbEntity
  8
0
  6
HIDDEN
 62
     7
370
    18
100
AcDbLine
 10
2692.7644809014
 20
2125.1896373057
 30
0.0
 11
2767.7644809014
 21
2125.1896373057
 31
0.0
  0
LINE
  5
13F
330
1F
100
AcDbEntity
  8
0
  6
HIDDEN
 62
     7
370
    18
100
AcDbLine
 10
2767.7644809014
 20
2350.1896373057
 30
0.0
 11
2692.7644809014
 21
2350.1896373057
 31
0.0
  0
LINE
  5
140
330
1F
100
AcDbEntity
  8
0
  6
HIDDEN
 62
     7
370
    18
100
AcDbLine
 10
3590.7644809014
 20
1692.6896373057
 30
0.0
 11
3590.7644809014
 21
1697.6896373057
 31
0.0
  0
LINE
  5
141
330
1F
100
AcDbEntity
  8
0
  6
HIDDEN
 62
     7
370
    18
100
AcDbLine
 10
3575.7644809014
 20
1697.6896373057
 30
0.0
 11
3575.7644809014
 21
1692.6896373057
 31
0.0
  0
LINE
  5
142
330
1F
100
AcDbEntity
  8
0
  6
HIDDEN
 62
     7
370
    18
100
AcDbLine
 10
2890.7644809014
 20
1692.6896373057
 30
0.0
 11
2890.7644809014
 21
1697.6896373057
 31
0.0
  0
LINE
  5
143
330
1F
100
AcDbEntity
  8
0
  6
HIDDEN
 62
     7
370
    18
100
AcDbLine
 10
2875.7644809014
 20
1697.6896373057
 30
0.0
 11
2875.7644809014
 21
1692.6896373057
 31
0.0
  0
LINE
  5
144
330
1F
100
AcDbEntity
  8
0
  6
HIDDEN
 62
     7
370
    18
100
AcDbLine
 10
3558.2644809014
 20
2632.6896373057
 30
0.0
 11
3557.5644809014
 21
2632.6896373057
 31
0.0
  0
LINE
  5
145
330
1F
100
AcDbEntity
  8
0
  6
HIDDEN
 62
     7
370
    18
100
AcDbLine
 10
3638.2644809014
 20
2340.3938268319
 30
0.0
 11
3635.9644809014
 21
2340.3938268319
 31
0.0
  0
LINE
  5
146
330
1F
100
AcDbEntity
  8
0
  6
HIDDEN
 62
     7
370
    18
100
AcDbLine
 10
3635.9644809014
 20
2330.3938268319
 30
0.0
 11
3638.2644809014
 21
2330.3938268319
 31
0.0
  0
LINE
  5
147
330
1F
100
AcDbEntity
  8
0
  6
HIDDEN
 62
     7
370
    18
100
AcDbLine
 10
3638.2644809014
 20
2144.9854477795
 30
0.0
 11
3635.9644809014
 21
2144.9854477795
 31
0.0
  0
LINE
  5
148
330
1F
100
AcDbEntity
  8
0
  6
HIDDEN
 62
     7
370
    18
100
AcDbLine
 10
3635.9644809014
 20
2134.9854477795
 30
0.0
 11
3638.2644809014
 21
2134.9854477795
 31
0.0
  0
LINE
  5
149
330
1F
100
AcDbEntity
  8
0
  6
HIDDEN
 62
     7
370
    18
100
AcDbLine
 10
3597.2644809014
 20
2594.9896373057
 30
0.0
 11
3558.2644809014
 21
2594.9896373057
 31
0.0
  0
LINE
  5
14A
330
1F
100
AcDbEntity
  8
0
  6
HIDDEN
 62
     7
370
    18
100
AcDbLine
 10
3555.2644809014
 20
1882.6896373057
 30
0.0
 11
3638.2644809014
 21
1882.6896373057
 31
0.0
  0
LINE
  5
14B
330
1F
100
AcDbEntity
  8
0
  6
HIDDEN
 62
     7
370
    18
100
AcDbLine
 10
3638.2644809014
 20
2592.6896373057
 30
0.0
 11
3555.2644809014
 21
2592.6896373057
 31
0.0
  0
LINE
  5
14C
330
1F
100
AcDbEntity
  8
0
  6
HIDDEN
 62
     7
370
    18
100
AcDbLine
 10
3638.2644809014
 20
2509.6224472036
 30
0.0
 11
3635.9644809014
 21
2509.6224472036
 31
0.0
  0
LINE
  5
14D
330
1F
100
AcDbEntity
  8
0
  6
HIDDEN
 62
     7
370
    18
100
AcDbLine
 10
3635.9644809014
 20
2499.6224472036
 30
0.0
 11
3638.2644809014
 21
2499.6224472036
 31
0.0
  0
LINE
  5
14E
330
1F
100
AcDbEntity
  8
0
  6
HIDDEN
 62
     7
370
    18
100
AcDbLine
 10
3638.2644809014
 20
1975.7568274078
 30
0.0
 11
3635.9644809014
 21
1975.7568274078
 31
0.0
  0
LINE
  5
14F
330
1F
100
AcDbEntity
  8
0
  6
HIDDEN
 62
     7
370
    18
100
AcDbLine
 10
3635.9644809014
 20
1965.7568274078
 30
0.0
 11
3638.2644809014
 21
1965.7568274078
 31
0.0
  0
LINE
  5
150
330
1F
100
AcDbEntity
  8
0
  6
HIDDEN
 62
     7
370
    18
100
AcDbLine
 10
3638.2644809014
 20
2607.3266367298
 30
0.0
 11
3635.9644809014
 21
2607.3266367298
 31
0.0
  0
LINE
  5
151
330
1F
100
AcDbEntity
  8
0
  6
HIDDEN
 62
     7
370
    18
100
AcDbLine
 10
3635.9644809014
 20
2597.3266367298
 30
0.0
 11
3638.2644809014
 21
2597.3266367298
 31
0.0
  0
LINE
  5
152
330
1F
100
AcDbEntity
  8
0
  6
HIDDEN
 62
     7
370
    18
100
AcDbLine
 10
3638.2644809014
 20
1878.0526378816
 30
0.0
 11
3635.9644809014
 21
1878.0526378816
 31
0.0
  0
LINE
  5
153
330
1F
100
AcDbEntity
  8
0
  6
HIDDEN
 62
     7
370
    18
100
AcDbLine
 10
3635.9644809014
 20
1868.0526378816
 30
0.0
 11
3638.2644809014
 21
1868.0526378816
 31
0.0
  0
LINE
  5
154
330
1F
100
AcDbEntity
  8
2
100
AcDbLine
 10
2756.9052045578
 20
2237.6896373057
 30
0.0
 11
3529.9379373752
 21
2237.6896373057
 31
0.0
  0
LINE
  5
155
330
1F
100
AcDbEntity
  8
2
100
AcDbLine
 10
3290.2644809014
 20
1834.5976084209
 30
0.0
 11
3290.2644809014
 21
2897.8654528185
 31
0.0
  0
LINE
  5
156
330
1F
100
AcDbEntity
  8
2
100
AcDbLine
 10
3503.4810571716
 20
2631.6896373057
 30
0.0
 11
3036.8741314439
 21
2631.6896373057
 31
0.0
  0
LINE
  5
157
330
1F
100
AcDbEntity
  8
1
100
AcDbLine
 10
937.7261389325
 20
3756.5497409326
 30
0.0
 11
937.7261389325
 21
4126.0497409326
 31
0.0
  0
LINE
  5
158
330
1F
100
AcDbEntity
  8
1
100
AcDbLine
 10
652.7261389325
 20
4126.0497409326
 30
0.0
 11
652.7261389325
 21
3756.5497409326
 31
0.0
  0
LINE
  5
159
330
1F
100
AcDbEntity
  8
1
100
AcDbLine
 10
814.2261389325
 20
3719.0497409326
 30
0.0
 11
814.2261389325
 21
3756.5497409326
 31
0.0
  0
LINE
  5
15A
330
1F
100
AcDbEntity
  8
1
100
AcDbLine
 10
776.2261389325
 20
3756.5497409326
 30
0.0
 11
776.2261389325
 21
3719.0497409326
 31
0.0
  0
LINE
  5
15B
330
1F
100
AcDbEntity
  8
1
100
AcDbLine
 10
1300.2261389325
 20
4547.0497409326
 30
0.0
 11
1300.2261389325
 21
4544.7497409326
 31
0.0
  0
LINE
  5
15C
330
1F
100
AcDbEntity
  8
1
100
AcDbLine
 10
2090.2261389325
 20
4544.7497409326
 30
0.0
 11
2090.2261389325
 21
4547.0497409326
 31
0.0
  0
LINE
  5
15D
330
1F
100
AcDbEntity
  8
1
100
AcDbLine
 10
2090.2261389325
 20
4466.3497409326
 30
0.0
 11
2090.2261389325
 21
4467.0497409326
 31
0.0
  0
LINE
  5
15E
330
1F
100
AcDbEntity
  8
1
100
AcDbLine
 10
1300.2261389325
 20
4467.0497409326
 30
0.0
 11
1300.2261389325
 21
4466.3497409326
 31
0.0
  0
LINE
  5
15F
330
1F
100
AcDbEntity
  8
1
100
AcDbLine
 10
1337.9261389325
 20
4544.7497409326
 30
0.0
 11
1337.9261389325
 21
4467.0497409326
 31
0.0
  0
LINE
  5
160
330
1F
100
AcDbEntity
  8
1
100
AcDbLine
 10
2052.5261389325
 20
4467.0497409326
 30
0.0
 11
2052.5261389325
 21
4544.7497409326
 31
0.0
  0
LINE
  5
161
330
1F
100
AcDbEntity
  8
1
100
AcDbLine
 10
937.7261389325
 20
4126.0497409326
 30
0.0
 11
652.7261389325
 21
4126.0497409326
 31
0.0
  0
LINE
  5
162
330
1F
100
AcDbEntity
  8
1
100
AcDbLine
 10
652.7261389325
 20
3756.5497409326
 30
0.0
 11
937.7261389325
 21
3756.5497409326
 31
0.0
  0
LINE
  5
163
330
1F
100
AcDbEntity
  8
1
100
AcDbLine
 10
970.2261389325
 20
4055.5497409326
 30
0.0
 11
970.2261389325
 21
3775.5497409326
 31
0.0
  0
LINE
  5
164
330
1F
100
AcDbEntity
  8
1
100
AcDbLine
 10
970.2261389325
 20
3775.5497409326
 30
0.0
 11
937.7261389325
 21
3775.5497409326
 31
0.0
  0
LINE
  5
165
330
1F
100
AcDbEntity
  8
1
100
AcDbLine
 10
652.7261389325
 20
3775.5497409326
 30
0.0
 11
620.2261389325
 21
3775.5497409326
 31
0.0
  0
LINE
  5
166
330
1F
100
AcDbEntity
  8
1
100
AcDbLine
 10
620.2261389325
 20
3775.5497409326
 30
0.0
 11
620.2261389325
 21
4055.5497409326
 31
0.0
  0
LINE
  5
167
330
1F
100
AcDbEntity
  8
1
100
AcDbLine
 10
620.2261389325
 20
4055.5497409326
 30
0.0
 11
652.7261389325
 21
4055.5497409326
 31
0.0
  0
LINE
  5
168
330
1F
100
AcDbEntity
  8
1
100
AcDbLine
 10
937.7261389325
 20
4055.5497409326
 30
0.0
 11
970.2261389325
 21
4055.5497409326
 31
0.0
  0
LINE
  5
169
330
1F
100
AcDbEntity
  8
1
100
AcDbLine
 10
1975.2261389325
 20
3559.0497409326
 30
0.0
 11
1975.2261389325
 21
3719.0497409326
 31
0.0
  0
LINE
  5
16A
330
1F
100
AcDbEntity
  8
1
100
AcDbLine
 10
1975.2261389325
 20
3559.0497409326
 30
0.0
 11
1660.2261389325
 21
3559.0497409326
 31
0.0
  0
LINE
  5
16B
330
1F
100
AcDbEntity
  8
1
100
AcDbLine
 10
1660.2261389325
 20
3559.0497409326
 30
0.0
 11
1660.2261389325
 21
3719.0497409326
 31
0.0
  0
LINE
  5
16C
330
1F
100
AcDbEntity
  8
1
100
AcDbLine
 10
1975.2261389325
 20
3719.0497409326
 30
0.0
 11
1660.2261389325
 21
3719.0497409326
 31
0.0
  0
LINE
  5
16D
330
1F
100
AcDbEntity
  8
1
100
AcDbLine
 10
1660.2261389325
 20
3559.0497409326
 30
0.0
 11
615.2261389325
 21
3559.0497409326
 31
0.0
  0
LINE
  5
16E
330
1F
100
AcDbEntity
  8
1
100
AcDbLine
 10
615.2261389325
 20
3559.0497409326
 30
0.0
 11
615.2261389325
 21
3719.0497409326
 31
0.0
  0
LINE
  5
16F
330
1F
100
AcDbEntity
  8
1
100
AcDbLine
 10
1660.2261389325
 20
3719.0497409326
 30
0.0
 11
615.2261389325
 21
3719.0497409326
 31
0.0
  0
LINE
  5
170
330
1F
100
AcDbEntity
  8
1
100
AcDbLine
 10
530.2261389325
 20
3669.0497409326
 30
0.0
 11
615.2261389325
 21
3669.0497409326
 31
0.0
  0
LINE
  5
171
330
1F
100
AcDbEntity
  8
1
100
AcDbLine
 10
530.2261389325
 20
3799.0497409326
 30
0.0
 11
530.2261389325
 21
3669.0497409326
 31
0.0
  0
LINE
  5
172
330
1F
100
AcDbEntity
  8
1
100
AcDbLine
 10
620.2261389325
 20
3799.0497409326
 30
0.0
 11
530.2261389325
 21
3799.0497409326
 31
0.0
  0
LINE
  5
173
330
1F
100
AcDbEntity
  8
1
100
AcDbLine
 10
680.2261389325
 20
3719.0497409326
 30
0.0
 11
680.2261389325
 21
3756.5497409326
 31
0.0
  0
LINE
  5
174
330
1F
100
AcDbEntity
  8
1
100
AcDbLine
 10
1975.2261389325
 20
3669.0497409326
 30
0.0
 11
2060.2261389325
 21
3669.0497409326
 31
0.0
  0
LINE
  5
175
330
1F
100
AcDbEntity
  8
1
100
AcDbLine
 10
1910.2261389325
 20
3799.0497409326
 30
0.0
 11
1910.2261389325
 21
3719.0497409326
 31
0.0
  0
LINE
  5
176
330
1F
100
AcDbEntity
  8
1
100
AcDbLine
 10
2060.2261389325
 20
3669.0497409326
 30
0.0
 11
2060.2261389325
 21
3799.0497409326
 31
0.0
  0
LINE
  5
177
330
1F
100
AcDbEntity
  8
1
100
AcDbLine
 10
2060.2261389325
 20
3799.0497409326
 30
0.0
 11
1910.2261389325
 21
3799.0497409326
 31
0.0
  0
LINE
  5
178
330
1F
100
AcDbEntity
  8
1
100
AcDbLine
 10
2145.2261389325
 20
4517.0497409326
 30
0.0
 11
2052.5261389325
 21
4517.0497409326
 31
0.0
  0
LINE
  5
179
330
1F
100
AcDbEntity
  8
1
100
AcDbLine
 10
1337.9261389325
 20
4517.0497409326
 30
0.0
 11
595.2261389325
 21
4517.0497409326
 31
0.0
  0
LINE
  5
17A
330
1F
100
AcDbEntity
  8
1
100
AcDbLine
 10
2145.2261389325
 20
3767.0497409326
 30
0.0
 11
2145.2261389325
 21
3931.7497409326
 31
0.0
  0
LINE
  5
17B
330
1F
100
AcDbEntity
  8
1
100
AcDbLine
 10
2145.2261389325
 20
4466.3497409326
 30
0.0
 11
2145.2261389325
 21
4517.0497409326
 31
0.0
  0
LINE
  5
17C
330
1F
100
AcDbEntity
  8
1
100
AcDbLine
 10
2060.2261389325
 20
3767.0497409326
 30
0.0
 11
2145.2261389325
 21
3767.0497409326
 31
0.0
  0
LINE
  5
17D
330
1F
100
AcDbEntity
  8
1
100
AcDbLine
 10
937.7261389325
 20
3767.0497409326
 30
0.0
 11
1910.2261389325
 21
3767.0497409326
 31
0.0
  0
LINE
  5
17E
330
1F
100
AcDbEntity
  8
1
100
AcDbLine
 10
970.2261389325
 20
3817.0497409326
 30
0.0
 11
2095.2261389325
 21
3817.0497409326
 31
0.0
  0
LINE
  5
17F
330
1F
100
AcDbEntity
  8
1
100
AcDbLine
 10
2095.2261389325
 20
3817.0497409326
 30
0.0
 11
2095.2261389325
 21
3931.7497409326
 31
0.0
  0
LINE
  5
180
330
1F
100
AcDbEntity
  8
1
100
AcDbLine
 10
2095.2261389325
 20
4466.3497409326
 30
0.0
 11
2095.2261389325
 21
4467.0497409326
 31
0.0
  0
LINE
  5
181
330
1F
100
AcDbEntity
  8
1
100
AcDbLine
 10
2095.2261389325
 20
4467.0497409326
 30
0.0
 11
2090.2261389325
 21
4467.0497409326
 31
0.0
  0
LINE
  5
182
330
1F
100
AcDbEntity
  8
1
100
AcDbLine
 10
1300.2261389325
 20
4467.0497409326
 30
0.0
 11
645.2261389325
 21
4467.0497409326
 31
0.0
  0
LINE
  5
183
330
1F
100
AcDbEntity
  8
1
100
AcDbLine
 10
645.2261389325
 20
4467.0497409326
 30
0.0
 11
645.2261389325
 21
4055.5497409326
 31
0.0
  0
LINE
  5
184
330
1F
100
AcDbEntity
  8
1
100
AcDbLine
 10
595.2261389325
 20
4517.0497409326
 30
0.0
 11
595.2261389325
 21
3799.0497409326
 31
0.0
  0
LINE
  5
185
330
1F
100
AcDbEntity
  8
1
100
AcDbLine
 10
2192.2261389325
 20
3892.0497409326
 30
0.0
 11
2195.2261389325
 21
3892.0497409326
 31
0.0
  0
LINE
  5
186
330
1F
100
AcDbEntity
  8
1
100
AcDbLine
 10
2192.2261389325
 20
4506.0497409326
 30
0.0
 11
2195.2261389325
 21
4506.0497409326
 31
0.0
  0
LINE
  5
187
330
1F
100
AcDbEntity
  8
1
100
AcDbLine
 10
2195.2261389325
 20
4506.0497409326
 30
0.0
 11
2195.2261389325
 21
3892.0497409326
 31
0.0
  0
LINE
  5
188
330
1F
100
AcDbEntity
  8
1
100
AcDbLine
 10
2192.2261389325
 20
4506.0497409326
 30
0.0
 11
2192.2261389325
 21
3892.0497409326
 31
0.0
  0
LINE
  5
189
330
1F
100
AcDbEntity
  8
1
100
AcDbLine
 10
2192.2261389325
 20
3931.7497409326
 30
0.0
 11
1671.1799944543
 21
3931.7497409326
 31
0.0
  0
LINE
  5
18A
330
1F
100
AcDbEntity
  8
1
100
AcDbLine
 10
1671.1799944543
 20
3931.7497409326
 30
0.0
 11
1671.1799944543
 21
4466.3497409326
 31
0.0
  0
LINE
  5
18B
330
1F
100
AcDbEntity
  8
1
100
AcDbLine
 10
2192.2261389325
 20
4466.3497409326
 30
0.0
 11
1671.1799944543
 21
4466.3497409326
 31
0.0
  0
LINE
  5
18C
330
1F
100
AcDbEntity
  8
1
100
AcDbLine
 10
1098.6261389325
 20
3931.7497409326
 30
0.0
 11
1098.6261389325
 21
4466.3497409326
 31
0.0
  0
LINE
  5
18D
330
1F
100
AcDbEntity
  8
1
100
AcDbLine
 10
1671.1799944543
 20
3931.7497409326
 30
0.0
 11
1098.6261389325
 21
3931.7497409326
 31
0.0
  0
LINE
  5
18E
330
1F
100
AcDbEntity
  8
1
100
AcDbLine
 10
1671.1799944543
 20
4466.3497409326
 30
0.0
 11
1098.6261389325
 21
4466.3497409326
 31
0.0
  0
LINE
  5
18F
330
1F
100
AcDbEntity
  8
1
100
AcDbLine
 10
1300.2261389325
 20
4544.7497409326
 30
0.0
 11
2090.2261389325
 21
4544.7497409326
 31
0.0
  0
LINE
  5
190
330
1F
100
AcDbEntity
  8
1
100
AcDbLine
 10
1300.2261389325
 20
4547.0497409326
 30
0.0
 11
2090.2261389325
 21
4547.0497409326
 31
0.0
  0
LINE
  5
191
330
1F
100
AcDbEntity
  8
1
100
AcDbLine
 10
2090.2261389325
 20
4467.0497409326
 30
0.0
 11
1300.2261389325
 21
4467.0497409326
 31
0.0
  0
LINE
  5
192
330
1F
100
AcDbEntity
  8
0
  6
HIDDEN
 62
     7
370
    18
100
AcDbLine
 10
716.5317299825
 20
3785.5497409326
 30
0.0
 11
727.5423890364
 21
3785.5497409326
 31
0.0
  0
LINE
  5
193
330
1F
100
AcDbEntity
  8
0
  6
HIDDEN
 62
     7
370
    18
100
AcDbLine
 10
716.5317299825
 20
3785.5497409326
 30
0.0
 11
716.5317299825
 21
4045.5497409326
 31
0.0
  0
LINE
  5
194
330
1F
100
AcDbEntity
  8
0
  6
HIDDEN
 62
     7
370
    18
100
AcDbLine
 10
716.5317299825
 20
4045.5497409326
 30
0.0
 11
727.5423890364
 21
4045.5497409326
 31
0.0
  0
LINE
  5
195
330
1F
100
AcDbEntity
  8
0
  6
HIDDEN
 62
     7
370
    18
100
AcDbLine
 10
727.5423890364
 20
4126.0497409326
 30
0.0
 11
727.5423890364
 21
4045.5497409326
 31
0.0
  0
LINE
  5
196
330
1F
100
AcDbEntity
  8
0
  6
HIDDEN
 62
     7
370
    18
100
AcDbLine
 10
862.9098888287
 20
4126.0497409326
 30
0.0
 11
862.9098888287
 21
4045.5497409326
 31
0.0
  0
LINE
  5
197
330
1F
100
AcDbEntity
  8
0
  6
HIDDEN
 62
     7
370
    18
100
AcDbLine
 10
862.9098888287
 20
4045.5497409326
 30
0.0
 11
873.9205478826
 21
4045.5497409326
 31
0.0
  0
LINE
  5
198
330
1F
100
AcDbEntity
  8
0
  6
HIDDEN
 62
     7
370
    18
100
AcDbLine
 10
873.9205478826
 20
4045.5497409326
 30
0.0
 11
873.9205478826
 21
3785.5497409326
 31
0.0
  0
LINE
  5
199
330
1F
100
AcDbEntity
  8
0
  6
HIDDEN
 62
     7
370
    18
100
AcDbLine
 10
862.9098888287
 20
3785.5497409326
 30
0.0
 11
873.9205478826
 21
3785.5497409326
 31
0.0
  0
LINE
  5
19A
330
1F
100
AcDbEntity
  8
0
  6
HIDDEN
 62
     7
370
    18
100
AcDbLine
 10
862.9098888287
 20
3785.5497409326
 30
0.0
 11
862.9098888287
 21
3756.5497409326
 31
0.0
  0
LINE
  5
19B
330
1F
100
AcDbEntity
  8
0
  6
HIDDEN
 62
     7
370
    18
100
AcDbLine
 10
727.5423890364
 20
3785.5497409326
 30
0.0
 11
727.5423890364
 21
3756.5497409326
 31
0.0
  0
LINE
  5
19C
330
1F
100
AcDbEntity
  8
0
  6
HIDDEN
 62
     7
370
    18
100
AcDbLine
 10
707.7261389325
 20
3785.5497409326
 30
0.0
 11
707.7261389325
 21
4045.5497409326
 31
0.0
  0
LINE
  5
19D
330
1F
100
AcDbEntity
  8
0
  6
HIDDEN
 62
     7
370
    18
100
AcDbLine
 10
716.5317299825
 20
4045.5497409326
 30
0.0
 11
707.7261389325
 21
4045.5497409326
 31
0.0
  0
LINE
  5
19E
330
1F
100
AcDbEntity
  8
0
  6
HIDDEN
 62
     7
370
    18
100
AcDbLine
 10
716.5317299825
 20
3785.5497409326
 30
0.0
 11
707.7261389325
 21
3785.5497409326
 31
0.0
  0
LINE
  5
19F
330
1F
100
AcDbEntity
  8
0
  6
HIDDEN
 62
     7
370
    18
100
AcDbLine
 10
882.7261389325
 20
3785.5497409326
 30
0.0
 11
882.7261389325
 21
4045.5497409326
 31
0.0
  0
LINE
  5
1A0
330
1F
100
AcDbEntity
  8
0
  6
HIDDEN
 62
     7
370
    18
100
AcDbLine
 10
882.7261389325
 20
3785.5497409326
 30
0.0
 11
873.9205478826
 21
3785.5497409326
 31
0.0
  0
LINE
  5
1A1
330
1F
100
AcDbEntity
  8
0
  6
HIDDEN
 62
     7
370
    18
100
AcDbLine
 10
882.7261389325
 20
4045.5497409326
 30
0.0
 11
873.9205478826
 21
4045.5497409326
 31
0.0
  0
LINE
  5
1A2
330
1F
100
AcDbEntity
  8
0
  6
HIDDEN
 62
     7
370
    18
100
AcDbLine
 10
727.5423890364
 20
4045.5497409326
 30
0.0
 11
862.9098888287
 21
4045.5497409326
 31
0.0
  0
LINE
  5
1A3
330
1F
100
AcDbEntity
  8
0
  6
HIDDEN
 62
     7
370
    18
100
AcDbLine
 10
727.5423890364
 20
3785.5497409326
 30
0.0
 11
862.9098888287
 21
3785.5497409326
 31
0.0
  0
LINE
  5
1A4
330
1F
100
AcDbEntity
  8
0
  6
HIDDEN
 62
     7
370
    18
100
AcDbLine
 10
937.7261389325
 20
3775.5497409326
 30
0.0
 11
652.7261389325
 21
3775.5497409326
 31
0.0
  0
LINE
  5
1A5
330
1F
100
AcDbEntity
  8
0
  6
HIDDEN
 62
     7
370
    18
100
AcDbLine
 10
652.7261389325
 20
4055.5497409326
 30
0.0
 11
937.7261389325
 21
4055.5497409326
 31
0.0
  0
LINE
  5
1A6
330
1F
100
AcDbEntity
  8
0
  6
HIDDEN
 62
     7
370
    18
100
AcDbLine
 10
720.2261389325
 20
3601.5497409326
 30
0.0
 11
870.2261389325
 21
3601.5497409326
 31
0.0
  0
LINE
  5
1A7
330
1F
100
AcDbEntity
  8
0
  6
HIDDEN
 62
     7
370
    18
100
AcDbLine
 10
720.2261389325
 20
3676.5497409326
 30
0.0
 11
870.2261389325
 21
3676.5497409326
 31
0.0
  0
LINE
  5
1A8
330
1F
100
AcDbEntity
  8
0
  6
HIDDEN
 62
     7
370
    18
100
AcDbLine
 10
1707.8233192721
 20
3601.5497409326
 30
0.0
 11
1807.7261389325
 21
3601.5497409326
 31
0.0
  0
LINE
  5
1A9
330
1F
100
AcDbEntity
  8
0
  6
HIDDEN
 62
     7
370
    18
100
AcDbLine
 10
1582.7261389325
 20
3601.5497409326
 30
0.0
 11
1707.8233192721
 21
3601.5497409326
 31
0.0
  0
LINE
  5
1AA
330
1F
100
AcDbEntity
  8
0
  6
HIDDEN
 62
     7
370
    18
100
AcDbLine
 10
1707.8233192721
 20
3676.5497409326
 30
0.0
 11
1807.7261389325
 21
3676.5497409326
 31
0.0
  0
LINE
  5
1AB
330
1F
100
AcDbEntity
  8
0
  6
HIDDEN
 62
     7
370
    18
100
AcDbLine
 10
1582.7261389325
 20
3676.5497409326
 30
0.0
 11
1707.8233192721
 21
3676.5497409326
 31
0.0
  0
LINE
  5
1AC
330
1F
100
AcDbEntity
  8
0
  6
HIDDEN
 62
     7
370
    18
100
AcDbLine
 10
615.2261389325
 20
3669.0497409326
 30
0.0
 11
680.2261389325
 21
3669.0497409326
 31
0.0
  0
LINE
  5
1AD
330
1F
100
AcDbEntity
  8
0
  6
HIDDEN
 62
     7
370
    18
100
AcDbLine
 10
680.2261389325
 20
3799.0497409326
 30
0.0
 11
620.2261389325
 21
3799.0497409326
 31
0.0
  0
LINE
  5
1AE
330
1F
100
AcDbEntity
  8
0
  6
HIDDEN
 62
     7
370
    18
100
AcDbLine
 10
680.2261389325
 20
3669.0497409326
 30
0.0
 11
680.2261389325
 21
3719.0497409326
 31
0.0
  0
LINE
  5
1AF
330
1F
100
AcDbEntity
  8
0
  6
HIDDEN
 62
     7
370
    18
100
AcDbLine
 10
680.2261389325
 20
3756.5497409326
 30
0.0
 11
680.2261389325
 21
3799.0497409326
 31
0.0
  0
LINE
  5
1B0
330
1F
100
AcDbEntity
  8
0
  6
HIDDEN
 62
     7
370
    18
100
AcDbLine
 10
1910.2261389325
 20
3669.0497409326
 30
0.0
 11
1975.2261389325
 21
3669.0497409326
 31
0.0
  0
LINE
  5
1B1
330
1F
100
AcDbEntity
  8
0
  6
HIDDEN
 62
     7
370
    18
100
AcDbLine
 10
1910.2261389325
 20
3719.0497409326
 30
0.0
 11
1910.2261389325
 21
3669.0497409326
 31
0.0
  0
LINE
  5
1B2
330
1F
100
AcDbEntity
  8
0
  6
HIDDEN
 62
     7
370
    18
100
AcDbLine
 10
2052.5261389325
 20
4517.0497409326
 30
0.0
 11
1337.9261389325
 21
4517.0497409326
 31
0.0
  0
LINE
  5
1B3
330
1F
100
AcDbEntity
  8
0
  6
HIDDEN
 62
     7
370
    18
100
AcDbLine
 10
2145.2261389325
 20
3931.7497409326
 30
0.0
 11
2145.2261389325
 21
4466.3497409326
 31
0.0
  0
LINE
  5
1B4
330
1F
100
AcDbEntity
  8
0
  6
HIDDEN
 62
     7
370
    18
100
AcDbLine
 10
680.2261389325
 20
3767.0497409326
 30
0.0
 11
937.7261389325
 21
3767.0497409326
 31
0.0
  0
LINE
  5
1B5
330
1F
100
AcDbEntity
  8
0
  6
HIDDEN
 62
     7
370
    18
100
AcDbLine
 10
645.2261389325
 20
3817.0497409326
 30
0.0
 11
970.2261389325
 21
3817.0497409326
 31
0.0
  0
LINE
  5
1B6
330
1F
100
AcDbEntity
  8
0
  6
HIDDEN
 62
     7
370
    18
100
AcDbLine
 10
2095.2261389325
 20
3931.7497409326
 30
0.0
 11
2095.2261389325
 21
4466.3497409326
 31
0.0
  0
LINE
  5
1B7
330
1F
100
AcDbEntity
  8
0
  6
HIDDEN
 62
     7
370
    18
100
AcDbLine
 10
645.2261389325
 20
4055.5497409326
 30
0.0
 11
645.2261389325
 21
3817.0497409326
 31
0.0
  0
LINE
  5
1B8
330
1F
100
AcDbEntity
  8
0
  6
HIDDEN
 62
     7
370
    18
100
AcDbLine
 10
595.2261389325
 20
3799.0497409326
 30
0.0
 11
595.2261389325
 21
3767.0497409326
 31
0.0
  0
LINE
  5
1B9
330
1F
100
AcDbEntity
  8
0
  6
HIDDEN
 62
     7
370
    18
100
AcDbLine
 10
595.2261389325
 20
3767.0497409326
 30
0.0
 11
680.2261389325
 21
3767.0497409326
 31
0.0
  0
LINE
  5
1BA
330
1F
100
AcDbEntity
  8
0
  6
HIDDEN
 62
     7
370
    18
100
AcDbLine
 10
1910.2261389325
 20
3767.0497409326
 30
0.0
 11
2060.2261389325
 21
3767.0497409326
 31
0.0
  0
LINE
  5
1BB
330
1F
100
AcDbEntity
  8
0
  6
HIDDEN
 62
     7
370
    18
100
AcDbLine
 10
2100.2261389325
 20
3812.0497409326
 30
0.0
 11
2100.2261389325
 21
4472.0497409326
 31
0.0
  0
LINE
  5
1BC
330
1F
100
AcDbEntity
  8
0
  6
HIDDEN
 62
     7
370
    18
100
AcDbLine
 10
640.2261389325
 20
4472.0497409326
 30
0.0
 11
640.2261389325
 21
3812.0497409326
 31
0.0
  0
LINE
  5
1BD
330
1F
100
AcDbEntity
  8
0
  6
HIDDEN
 62
     7
370
    18
100
AcDbLine
 10
2100.2261389325
 20
4472.0497409326
 30
0.0
 11
640.2261389325
 21
4472.0497409326
 31
0.0
  0
LINE
  5
1BE
330
1F
100
AcDbEntity
  8
0
  6
HIDDEN
 62
     7
370
    18
100
AcDbLine
 10
640.2261389325
 20
3812.0497409326
 30
0.0
 11
2100.2261389325
 21
3812.0497409326
 31
0.0
  0
CIRCLE
  5
1BF
330
1F
100
AcDbEntity
  8
0
  6
HIDDEN
 62
     7
370
    18
100
AcDbCircle
 10
2060.2261389325
 20
4492.0497409326
 30
0.0
 40
7.5
  0
CIRCLE
  5
1C0
330
1F
100
AcDbEntity
  8
0
  6
HIDDEN
 62
     7
370
    18
100
AcDbCircle
 10
1370.2261389325
 20
4492.0497409326
 30
0.0
 40
7.5
  0
CIRCLE
  5
1C1
330
1F
100
AcDbEntity
  8
0
  6
HIDDEN
 62
     7
370
    18
100
AcDbCircle
 10
680.2261389325
 20
4492.0497409326
 30
0.0
 40
7.5
  0
CIRCLE
  5
1C2
330
1F
100
AcDbEntity
  8
0
  6
HIDDEN
 62
     7
370
    18
100
AcDbCircle
 10
680.2261389325
 20
3792.0497409326
 30
0.0
 40
7.5
  0
CIRCLE
  5
1C3
330
1F
100
AcDbEntity
  8
0
  6
HIDDEN
 62
     7
370
    18
100
AcDbCircle
 10
1370.2261389325
 20
3792.0497409326
 30
0.0
 40
7.499999999999545
  0
CIRCLE
  5
1C4
330
1F
100
AcDbEntity
  8
0
  6
HIDDEN
 62
     7
370
    18
100
AcDbCircle
 10
2060.2261389325
 20
3792.0497409326
 30
0.0
 40
7.499999999999545
  0
LINE
  5
1C5
330
1F
100
AcDbEntity
  8
0
  6
HIDDEN
 62
     7
370
    18
100
AcDbLine
 10
2195.2261389325
 20
4464.0497409326
 30
0.0
 11
1671.3697632831
 21
4464.0497409326
 31
0.0
  0
LINE
  5
1C6
330
1F
100
AcDbEntity
  8
0
  6
HIDDEN
 62
     7
370
    18
100
AcDbLine
 10
2195.2261389325
 20
3934.0497409326
 30
0.0
 11
1671.3697632831
 21
3934.0497409326
 31
0.0
  0
LINE
  5
1C7
330
1F
100
AcDbEntity
  8
0
  6
HIDDEN
 62
     7
370
    18
100
AcDbLine
 10
1100.2261389325
 20
3934.0497409326
 30
0.0
 11
1100.2261389325
 21
4464.0497409326
 31
0.0
  0
LINE
  5
1C8
330
1F
100
AcDbEntity
  8
0
  6
HIDDEN
 62
     7
370
    18
100
AcDbLine
 10
1671.3697632831
 20
3934.0497409326
 30
0.0
 11
1100.2261389325
 21
3934.0497409326
 31
0.0
  0
LINE
  5
1C9
330
1F
100
AcDbEntity
  8
0
  6
HIDDEN
 62
     7
370
    18
100
AcDbLine
 10
1671.3697632831
 20
3934.0497409326
 30
0.0
 11
1671.3697632831
 21
4464.0497409326
 31
0.0
  0
LINE
  5
1CA
330
1F
100
AcDbEntity
  8
0
  6
HIDDEN
 62
     7
370
    18
100
AcDbLine
 10
1671.3697632831
 20
4464.0497409326
 30
0.0
 11
1100.2261389325
 21
4464.0497409326
 31
0.0
  0
LINE
  5
1CB
330
1F
100
AcDbEntity
  8
0
  6
HIDDEN
 62
     7
370
    18
100
AcDbLine
 10
1642.2261389325
 20
3931.7497409326
 30
0.0
 11
1642.2261389325
 21
4466.3497409326
 31
0.0
  0
LINE
  5
1CC
330
1F
100
AcDbEntity
  8
0
  6
HIDDEN
 62
     7
370
    18
100
AcDbLine
 10
1642.2261389325
 20
3934.0497409326
 30
0.0
 11
1642.2261389325
 21
4464.0497409326
 31
0.0
  0
LINE
  5
1CD
330
1F
100
AcDbEntity
  8
0
  6
HIDDEN
 62
     7
370
    18
100
AcDbLine
 10
2102.2261389325
 20
3934.0497409326
 30
0.0
 11
2102.2261389325
 21
4464.0497409326
 31
0.0
  0
LINE
  5
1CE
330
1F
100
AcDbEntity
  8
0
  6
HIDDEN
 62
     7
370
    18
100
AcDbLine
 10
2103.8261389325
 20
3931.7497409326
 30
0.0
 11
2103.8261389325
 21
4466.3497409326
 31
0.0
  0
LINE
  5
1CF
330
1F
100
AcDbEntity
  8
0
  6
HIDDEN
 62
     7
370
    18
100
AcDbLine
 10
1654.2261389325
 20
3931.7497409326
 30
0.0
 11
1654.2261389325
 21
4466.3497409326
 31
0.0
  0
LINE
  5
1D0
330
1F
100
AcDbEntity
  8
0
  6
HIDDEN
 62
     7
370
    18
100
AcDbLine
 10
1654.2261389325
 20
3934.0497409326
 30
0.0
 11
1654.2261389325
 21
4464.0497409326
 31
0.0
  0
LINE
  5
1D1
330
1F
100
AcDbEntity
  8
0
  6
HIDDEN
 62
     7
370
    18
100
AcDbLine
 10
814.2261389325
 20
3676.5497409326
 30
0.0
 11
814.2261389325
 21
3719.0497409326
 31
0.0
  0
LINE
  5
1D2
330
1F
100
AcDbEntity
  8
0
  6
HIDDEN
 62
     7
370
    18
100
AcDbLine
 10
776.2261389325
 20
3719.0497409326
 30
0.0
 11
776.2261389325
 21
3676.5497409326
 31
0.0
  0
LINE
  5
1D3
330
1F
100
AcDbEntity
  8
0
  6
HIDDEN
 62
     7
370
    18
100
AcDbLine
 10
870.2261389325
 20
3601.5497409326
 30
0.0
 11
870.2261389325
 21
3676.5497409326
 31
0.0
  0
LINE
  5
1D4
330
1F
100
AcDbEntity
  8
0
  6
HIDDEN
 62
     7
370
    18
100
AcDbLine
 10
720.2261389325
 20
3676.5497409326
 30
0.0
 11
720.2261389325
 21
3601.5497409326
 31
0.0
  0
LINE
  5
1D5
330
1F
100
AcDbEntity
  8
0
  6
HIDDEN
 62
     7
370
    18
100
AcDbLine
 10
1807.7261389325
 20
3601.5497409326
 30
0.0
 11
1807.7261389325
 21
3676.5497409326
 31
0.0
  0
LINE
  5
1D6
330
1F
100
AcDbEntity
  8
0
  6
HIDDEN
 62
     7
370
    18
100
AcDbLine
 10
1582.7261389325
 20
3676.5497409326
 30
0.0
 11
1582.7261389325
 21
3601.5497409326
 31
0.0
  0
LINE
  5
1D7
330
1F
100
AcDbEntity
  8
0
  6
HIDDEN
 62
     7
370
    18
100
AcDbLine
 10
2195.2261389325
 20
4493.0497409326
 30
0.0
 11
2192.2261389325
 21
4493.0497409326
 31
0.0
  0
LINE
  5
1D8
330
1F
100
AcDbEntity
  8
0
  6
HIDDEN
 62
     7
370
    18
100
AcDbLine
 10
2192.2261389325
 20
4483.0497409326
 30
0.0
 11
2195.2261389325
 21
4483.0497409326
 31
0.0
  0
LINE
  5
1D9
330
1F
100
AcDbEntity
  8
0
  6
HIDDEN
 62
     7
370
    18
100
AcDbLine
 10
2195.2261389325
 20
4304.0497409326
 30
0.0
 11
2192.2261389325
 21
4304.0497409326
 31
0.0
  0
LINE
  5
1DA
330
1F
100
AcDbEntity
  8
0
  6
HIDDEN
 62
     7
370
    18
100
AcDbLine
 10
2192.2261389325
 20
4294.0497409326
 30
0.0
 11
2195.2261389325
 21
4294.0497409326
 31
0.0
  0
LINE
  5
1DB
330
1F
100
AcDbEntity
  8
0
  6
HIDDEN
 62
     7
370
    18
100
AcDbLine
 10
2195.2261389325
 20
4104.0497409326
 30
0.0
 11
2192.2261389325
 21
4104.0497409326
 31
0.0
  0
LINE
  5
1DC
330
1F
100
AcDbEntity
  8
0
  6
HIDDEN
 62
     7
370
    18
100
AcDbLine
 10
2192.2261389325
 20
4094.0497409326
 30
0.0
 11
2195.2261389325
 21
4094.0497409326
 31
0.0
  0
LINE
  5
1DD
330
1F
100
AcDbEntity
  8
0
  6
HIDDEN
 62
     7
370
    18
100
AcDbLine
 10
2195.2261389325
 20
3915.0497409326
 30
0.0
 11
2192.2261389325
 21
3915.0497409326
 31
0.0
  0
LINE
  5
1DE
330
1F
100
AcDbEntity
  8
0
  6
HIDDEN
 62
     7
370
    18
100
AcDbLine
 10
2192.2261389325
 20
3905.0497409326
 30
0.0
 11
2195.2261389325
 21
3905.0497409326
 31
0.0
  0
LINE
  5
1DF
330
1F
100
AcDbEntity
  8
0
  6
HIDDEN
 62
     7
370
    18
100
AcDbLine
 10
1787.9303284587
 20
4547.0497409326
 30
0.0
 11
1787.9303284587
 21
4544.7497409326
 31
0.0
  0
LINE
  5
1E0
330
1F
100
AcDbEntity
  8
0
  6
HIDDEN
 62
     7
370
    18
100
AcDbLine
 10
1797.9303284587
 20
4544.7497409326
 30
0.0
 11
1797.9303284587
 21
4547.0497409326
 31
0.0
  0
LINE
  5
1E1
330
1F
100
AcDbEntity
  8
0
  6
HIDDEN
 62
     7
370
    18
100
AcDbLine
 10
1592.5219494063
 20
4547.0497409326
 30
0.0
 11
1592.5219494063
 21
4544.7497409326
 31
0.0
  0
LINE
  5
1E2
330
1F
100
AcDbEntity
  8
0
  6
HIDDEN
 62
     7
370
    18
100
AcDbLine
 10
1602.5219494063
 20
4544.7497409326
 30
0.0
 11
1602.5219494063
 21
4547.0497409326
 31
0.0
  0
LINE
  5
1E3
330
1F
100
AcDbEntity
  8
0
  6
HIDDEN
 62
     7
370
    18
100
AcDbLine
 10
2050.2261389325
 20
4464.0497409326
 30
0.0
 11
2050.2261389325
 21
4547.0497409326
 31
0.0
  0
LINE
  5
1E4
330
1F
100
AcDbEntity
  8
0
  6
HIDDEN
 62
     7
370
    18
100
AcDbLine
 10
1340.2261389325
 20
4547.0497409326
 30
0.0
 11
1340.2261389325
 21
4464.0497409326
 31
0.0
  0
LINE
  5
1E5
330
1F
100
AcDbEntity
  8
0
  6
HIDDEN
 62
     7
370
    18
100
AcDbLine
 10
1957.1589488305
 20
4547.0497409326
 30
0.0
 11
1957.1589488305
 21
4544.7497409326
 31
0.0
  0
LINE
  5
1E6
330
1F
100
AcDbEntity
  8
0
  6
HIDDEN
 62
     7
370
    18
100
AcDbLine
 10
1967.1589488305
 20
4544.7497409326
 30
0.0
 11
1967.1589488305
 21
4547.0497409326
 31
0.0
  0
LINE
  5
1E7
330
1F
100
AcDbEntity
  8
0
  6
HIDDEN
 62
     7
370
    18
100
AcDbLine
 10
1423.2933290346
 20
4547.0497409326
 30
0.0
 11
1423.2933290346
 21
4544.7497409326
 31
0.0
  0
LINE
  5
1E8
330
1F
100
AcDbEntity
  8
0
  6
HIDDEN
 62
     7
370
    18
100
AcDbLine
 10
1433.2933290346
 20
4544.7497409326
 30
0.0
 11
1433.2933290346
 21
4547.0497409326
 31
0.0
  0
LINE
  5
1E9
330
1F
100
AcDbEntity
  8
0
  6
HIDDEN
 62
     7
370
    18
100
AcDbLine
 10
1325.5891395084
 20
4547.0497409326
 30
0.0
 11
1325.5891395084
 21
4544.7497409326
 31
0.0
  0
LINE
  5
1EA
330
1F
100
AcDbEntity
  8
0
  6
HIDDEN
 62
     7
370
    18
100
AcDbLine
 10
1335.5891395084
 20
4544.7497409326
 30
0.0
 11
1335.5891395084
 21
4547.0497409326
 31
0.0
  0
LINE
  5
1EB
330
1F
100
AcDbEntity
  8
0
  6
HIDDEN
 62
     7
370
    18
100
AcDbLine
 10
2054.8631383567
 20
4547.0497409326
 30
0.0
 11
2054.8631383567
 21
4544.7497409326
 31
0.0
  0
LINE
  5
1EC
330
1F
100
AcDbEntity
  8
0
  6
HIDDEN
 62
     7
370
    18
100
AcDbLine
 10
2064.8631383567
 20
4544.7497409326
 30
0.0
 11
2064.8631383567
 21
4547.0497409326
 31
0.0
  0
CIRCLE
  5
1ED
330
1F
100
AcDbEntity
  8
基礎穴
100
AcDbCircle
 10
2060.2261389325
 20
3792.0497409326
 30
0.0
 40
7.50000000000011
  0
CIRCLE
  5
1EE
330
1F
100
AcDbEntity
  8
基礎穴
100
AcDbCircle
 10
1370.2261389325
 20
3792.0497409326
 30
0.0
 40
7.50000000000011
  0
CIRCLE
  5
1EF
330
1F
100
AcDbEntity
  8
基礎穴
100
AcDbCircle
 10
680.2261389325
 20
3792.0497409326
 30
0.0
 40
7.500000000000002
  0
CIRCLE
  5
1F0
330
1F
100
AcDbEntity
  8
基礎穴
100
AcDbCircle
 10
2060.2261389325
 20
4492.0497409326
 30
0.0
 40
7.499999999999676
  0
CIRCLE
  5
1F1
330
1F
100
AcDbEntity
  8
基礎穴
100
AcDbCircle
 10
1370.2261389325
 20
4492.0497409326
 30
0.0
 40
7.499999999999893
  0
CIRCLE
  5
1F2
330
1F
100
AcDbEntity
  8
基礎穴
100
AcDbCircle
 10
680.2261389325
 20
4492.0497409326
 30
0.0
 40
7.499999999999784
  0
LINE
  5
1F3
330
1F
100
AcDbEntity
  8
2
100
AcDbLine
 10
1695.2261389325
 20
3677.9469215771
 30
0.0
 11
1695.2261389325
 21
4447.681391348
 31
0.0
  0
LINE
  5
1F4
330
1F
100
AcDbEntity
  8
2
100
AcDbLine
 10
2046.3935983816
 20
4199.0497409326
 30
0.0
 11
1139.0637320141
 21
4199.0497409326
 31
0.0
  0
ENDSEC
  0
SECTION
  2
OBJECTS
  0
DICTIONARY
  5
C
330
0
100
AcDbDictionary
281
     1
  3
ACAD_GROUP
350
D
  3
ACAD_LAYOUT
350
1A
  3
ACAD_MLINESTYLE
350
17
  3
ACAD_PLOTSETTINGS
350
19
  3
ACAD_PLOTSTYLENAME
350
E
  3
ACAD_SCALELIST
350
47
  3
DWGPROPS
350
1F5
  0
DICTIONARY
  5
D
102
{ACAD_REACTORS
330
C
102
}
330
C
100
AcDbDictionary
281
     1
  0
DICTIONARY
  5
1A
102
{ACAD_REACTORS
330
C
102
}
330
C
100
AcDbDictionary
281
     1
  3
Layout1
350
1E
  3
Layout2
350
26
  3
Model
350
22
  0
DICTIONARY
  5
17
102
{ACAD_REACTORS
330
C
102
}
330
C
100
AcDbDictionary
281
     1
  3
Standard
350
18
  0
DICTIONARY
  5
19
102
{ACAD_REACTORS
330
C
102
}
330
C
100
AcDbDictionary
281
     1
  0
ACDBDICTIONARYWDFLT
  5
E
102
{ACAD_REACTORS
330
C
102
}
330
C
100
AcDbDictionary
281
     1
  3
Normal
350
F
100
AcDbDictionaryWithDefault
340
F
  0
DICTIONARY
  5
47
102
{ACAD_REACTORS
330
C
102
}
330
C
100
AcDbDictionary
281
     1
  3
A0
350
48
  3
A1
350
49
  3
A2
350
4A
  3
A3
350
4B
  3
A4
350
4C
  3
A5
350
4D
  3
A6
350
4E
  3
A7
350
4F
  3
A8
350
50
  3
A9
350
51
  3
B0
350
52
  3
B1
350
53
  3
B2
350
54
  3
B3
350
55
  3
B4
350
56
  3
B5
350
57
  3
B6
350
58
  0
XRECORD
  5
1F5
102
{ACAD_REACTORS
330
C
102
}
330
C
100
AcDbXrecord
280
     1
  1
DWGPROPS COOKIE
  2

  3

  4

  6

  7

  8
yuta.kunimatsu
  9

300
=
301
=
302
=
303
=
304
=
305
=
306
=
307
=
308
=
309
=
 40
0.0
 41
2460140.080077535
 42
2460140.080077963
  1

 90
        0
  0
LAYOUT
  5
1E
102
{ACAD_REACTORS
330
1A
102
}
330
1A
100
AcDbPlotSettings
  1

  2
none_device
  4

  6

 40
0.0
 41
0.0
 42
0.0
 43
0.0
 44
0.0
 45
0.0
 46
0.0
 47
0.0
 48
0.0
 49
0.0
140
0.0
141
0.0
142
1.0
143
1.0
 70
   688
 72
     1
 73
     0
 74
     5
  7

 75
    16
147
1.0
148
0.0
149
0.0
100
AcDbLayout
  1
Layout1
 70
     1
 71
     1
 10
0.0
 20
0.0
 11
420.0
 21
297.0
 12
0.0
 22
0.0
 32
0.0
 14
1.0000000000E+20
 24
1.0000000000E+20
 34
1.0000000000E+20
 15
-1.0000000000E+20
 25
-1.0000000000E+20
 35
-1.0000000000E+20
146
0.0
 13
0.0
 23
0.0
 33
0.0
 16
1.0
 26
0.0
 36
0.0
 17
0.0
 27
1.0
 37
0.0
 76
     0
330
1B
  0
LAYOUT
  5
26
102
{ACAD_REACTORS
330
1A
102
}
330
1A
100
AcDbPlotSettings
  1

  2
none_device
  4

  6

 40
0.0
 41
0.0
 42
0.0
 43
0.0
 44
0.0
 45
0.0
 46
0.0
 47
0.0
 48
0.0
 49
0.0
140
0.0
141
0.0
142
1.0
143
1.0
 70
   688
 72
     1
 73
     0
 74
     5
  7

 75
    16
147
1.0
148
0.0
149
0.0
100
AcDbLayout
  1
Layout2
 70
     1
 71
     2
 10
0.0
 20
0.0
 11
0.0
 21
0.0
 12
0.0
 22
0.0
 32
0.0
 14
0.0
 24
0.0
 34
0.0
 15
0.0
 25
0.0
 35
0.0
146
0.0
 13
0.0
 23
0.0
 33
0.0
 16
1.0
 26
0.0
 36
0.0
 17
0.0
 27
1.0
 37
0.0
 76
     0
330
23
  0
LAYOUT
  5
22
102
{ACAD_REACTORS
330
1A
102
}
330
1A
100
AcDbPlotSettings
  1

  2
none_device
  4
Letter_(8.50_x_11.00_Inches)
  6

 40
6.35
 41
6.35
 42
6.35000508
 43
6.35000508
 44
215.9
 45
279.4
 46
0.0
 47
0.0
 48
0.0
 49
0.0
140
0.0
141
0.0
142
1.0
143
1.0
 70
  1712
 72
     1
 73
     0
 74
     0
  7

 75
     0
147
1.0
148
0.0
149
0.0
100
AcDbLayout
  1
Model
 70
     1
 71
     0
 10
0.0
 20
0.0
 11
4200.0
 21
5940.0
 12
0.0
 22
0.0
 32
0.0
 14
0.0
 24
0.0
 34
0.0
 15
4200.0
 25
5940.0
 35
0.0
146
0.0
 13
0.0
 23
0.0
 33
0.0
 16
1.0
 26
0.0
 36
0.0
 17
0.0
 27
1.0
 37
0.0
 76
     0
330
1F
331
29
  0
MLINESTYLE
  5
18
102
{ACAD_REACTORS
330
17
102
}
330
17
100
AcDbMlineStyle
  2
Standard
 70
     0
  3

 62
   256
 51
90.0
 52
90.0
 71
     2
 49
0.5
 62
   256
  6
BYLAYER
 49
-0.5
 62
   256
  6
BYLAYER
  0
ACDBPLACEHOLDER
  5
F
102
{ACAD_REACTORS
330
E
102
}
330
E
  0
SCALE
  5
48
102
{ACAD_REACTORS
330
47
102
}
330
47
100
AcDbScale
 70
     0
300
1:1
140
1.0
141
1.0
290
     1
  0
SCALE
  5
49
102
{ACAD_REACTORS
330
47
102
}
330
47
100
AcDbScale
 70
     0
300
1:2
140
1.0
141
2.0
290
     0
  0
SCALE
  5
4A
102
{ACAD_REACTORS
330
47
102
}
330
47
100
AcDbScale
 70
     0
300
1:4
140
1.0
141
4.0
290
     0
  0
SCALE
  5
4B
102
{ACAD_REACTORS
330
47
102
}
330
47
100
AcDbScale
 70
     0
300
1:5
140
1.0
141
5.0
290
     0
  0
SCALE
  5
4C
102
{ACAD_REACTORS
330
47
102
}
330
47
100
AcDbScale
 70
     0
300
1:8
140
1.0
141
8.0
290
     0
  0
SCALE
  5
4D
102
{ACAD_REACTORS
330
47
102
}
330
47
100
AcDbScale
 70
     0
300
1:10
140
1.0
141
10.0
290
     0
  0
SCALE
  5
4E
102
{ACAD_REACTORS
330
47
102
}
330
47
100
AcDbScale
 70
     0
300
1:16
140
1.0
141
16.0
290
     0
  0
SCALE
  5
4F
102
{ACAD_REACTORS
330
47
102
}
330
47
100
AcDbScale
 70
     0
300
1:20
140
1.0
141
20.0
290
     0
  0
SCALE
  5
50
102
{ACAD_REACTORS
330
47
102
}
330
47
100
AcDbScale
 70
     0
300
1:30
140
1.0
141
30.0
290
     0
  0
SCALE
  5
51
102
{ACAD_REACTORS
330
47
102
}
330
47
100
AcDbScale
 70
     0
300
1:40
140
1.0
141
40.0
290
     0
  0
SCALE
  5
52
102
{ACAD_REACTORS
330
47
102
}
330
47
100
AcDbScale
 70
     0
300
1:50
140
1.0
141
50.0
290
     0
  0
SCALE
  5
53
102
{ACAD_REACTORS
330
47
102
}
330
47
100
AcDbScale
 70
     0
300
1:100
140
1.0
141
100.0
290
     0
  0
SCALE
  5
54
102
{ACAD_REACTORS
330
47
102
}
330
47
100
AcDbScale
 70
     0
300
2:1
140
2.0
141
1.0
290
     0
  0
SCALE
  5
55
102
{ACAD_REACTORS
330
47
102
}
330
47
100
AcDbScale
 70
     0
300
4:1
140
4.0
141
1.0
290
     0
  0
SCALE
  5
56
102
{ACAD_REACTORS
330
47
102
}
330
47
100
AcDbScale
 70
     0
300
8:1
140
8.0
141
1.0
290
     0
  0
SCALE
  5
57
102
{ACAD_REACTORS
330
47
102
}
330
47
100
AcDbScale
 70
     0
300
10:1
140
10.0
141
1.0
290
     0
  0
SCALE
  5
58
102
{ACAD_REACTORS
330
47
102
}
330
47
100
AcDbScale
 70
     0
300
100:1
140
100.0
141
1.0
290
     0
  0
ENDSEC
  0
EOF
