  0
SECTION
  2
HEADER
  9
$ACADVER
  1
AC1015
  9
$ACADMAINTVER
 70
     6
  9
$DWGCODEPAGE
  3
DOS932
  9
$INSBASE
 10
0.0
 20
0.0
 30
0.0
  9
$EXTMIN
 10
0.0
 20
0.0
 30
0.0
  9
$EXTMAX
 10
4200.0
 20
5940.0
 30
0.0
  9
$LIMMIN
 10
0.0
 20
0.0
  9
$LIMMAX
 10
4200.0
 20
5940.0
  9
$ORTHOMODE
 70
     0
  9
$REGENMODE
 70
     1
  9
$FILLMODE
 70
     1
  9
$QTEXTMODE
 70
     0
  9
$MIRRTEXT
 70
     1
  9
$LTSCALE
 40
20.0
  9
$ATTMODE
 70
     1
  9
$TEXTSIZE
 40
70.5555555556
  9
$TRACEWID
 40
1.0
  9
$TEXTSTYLE
  7
Standard
  9
$CLAYER
  8
0
  9
$CELTYPE
  6
ByLayer
  9
$CECOLOR
 62
   256
  9
$CELTSCALE
 40
1.0
  9
$DISPSILH
 70
     0
  9
$DIMSCALE
 40
1.0
  9
$DIMASZ
 40
30.0
  9
$DIMEXO
 40
20.0
  9
$DIMDLI
 40
3.75
  9
$DIMRND
 40
0.0
  9
$DIMDLE
 40
0.0
  9
$DIMEXE
 40
20.0
  9
$DIMTP
 40
0.0
  9
$DIMTM
 40
0.0
  9
$DIMTXT
 40
70.5555555556
  9
$DIMCEN
 40
2.5
  9
$DIMTSZ
 40
0.0
  9
$DIMTOL
 70
     0
  9
$DIMLIM
 70
     0
  9
$DIMTIH
 70
     1
  9
$DIMTOH
 70
     1
  9
$DIMSE1
 70
     0
  9
$DIMSE2
 70
     0
  9
$DIMTAD
 70
     1
  9
$DIMZIN
 70
     0
  9
$DIMBLK
  1

  9
$DIMASO
 70
     1
  9
$DIMSHO
 70
     1
  9
$DIMPOST
  1

  9
$DIMAPOST
  1

  9
$DIMALT
 70
     0
  9
$DIMALTD
 70
     3
  9
$DIMALTF
 40
0.0393700787
  9
$DIMLFAC
 40
1.0
  9
$DIMTOFL
 70
     1
  9
$DIMTVP
 40
0.0
  9
$DIMTIX
 70
     0
  9
$DIMSOXD
 70
     0
  9
$DIMSAH
 70
     0
  9
$DIMBLK1
  1

  9
$DIMBLK2
  1

  9
$DIMSTYLE
  2
ISO-25
  9
$DIMCLRD
 70
     0
  9
$DIMCLRE
 70
     0
  9
$DIMCLRT
 70
     0
  9
$DIMTFAC
 40
1.0
  9
$DIMGAP
 40
30.48
  9
$DIMJUST
 70
     0
  9
$DIMSD1
 70
     0
  9
$DIMSD2
 70
     0
  9
$DIMTOLJ
 70
     0
  9
$DIMTZIN
 70
     0
  9
$DIMALTZ
 70
     0
  9
$DIMALTTZ
 70
     0
  9
$DIMUPT
 70
     0
  9
$DIMDEC
 70
     0
  9
$DIMTDEC
 70
     0
  9
$DIMALTU
 70
     2
  9
$DIMALTTD
 70
     3
  9
$DIMTXSTY
  7
Standard
  9
$DIMAUNIT
 70
     0
  9
$DIMADEC
 70
     2
  9
$DIMALTRND
 40
0.0
  9
$DIMAZIN
 70
     0
  9
$DIMDSEP
 70
    44
  9
$DIMATFIT
 70
     3
  9
$DIMFRAC
 70
     0
  9
$DIMLDRBLK
  1

  9
$DIMLUNIT
 70
     2
  9
$DIMLWD
 70
    -2
  9
$DIMLWE
 70
    -2
  9
$DIMTMOVE
 70
     0
  9
$LUNITS
 70
     2
  9
$LUPREC
 70
     2
  9
$SKETCHINC
 40
1.0
  9
$FILLETRAD
 40
0.0
  9
$AUNITS
 70
     0
  9
$AUPREC
 70
     2
  9
$MENU
  1
.
  9
$ELEVATION
 40
0.0
  9
$PELEVATION
 40
0.0
  9
$THICKNESS
 40
0.0
  9
$LIMCHECK
 70
     0
  9
$CHAMFERA
 40
0.0
  9
$CHAMFERB
 40
0.0
  9
$CHAMFERC
 40
0.0
  9
$CHAMFERD
 40
0.0
  9
$SKPOLY
 70
     0
  9
$TDCREATE
 40
2460154.559983553
  9
$TDUCREATE
 40
2460154.184983553
  9
$TDUPDATE
 40
2460154.55998397
  9
$TDUUPDATE
 40
2460154.18498397
  9
$TDINDWG
 40
0.0000000116
  9
$TDUSRTIMER
 40
0.0000000116
  9
$USRTIMER
 70
     1
  9
$ANGBASE
 50
0.0
  9
$ANGDIR
 70
     0
  9
$PDMODE
 70
     0
  9
$PDSIZE
 40
-1.0
  9
$PLINEWID
 40
0.0
  9
$SPLFRAME
 70
     0
  9
$SPLINETYPE
 70
     6
  9
$SPLINESEGS
 70
     8
  9
$HANDSEED
  5
217
  9
$SURFTAB1
 70
     6
  9
$SURFTAB2
 70
     6
  9
$SURFTYPE
 70
     6
  9
$SURFU
 70
     6
  9
$SURFV
 70
     6
  9
$UCSBASE
  2

  9
$UCSNAME
  2

  9
$UCSORG
 10
0.0
 20
0.0
 30
0.0
  9
$UCSXDIR
 10
1.0
 20
0.0
 30
0.0
  9
$UCSYDIR
 10
0.0
 20
1.0
 30
0.0
  9
$UCSORTHOREF
  2

  9
$UCSORTHOVIEW
 70
     0
  9
$UCSORGTOP
 10
0.0
 20
0.0
 30
0.0
  9
$UCSORGBOTTOM
 10
0.0
 20
0.0
 30
0.0
  9
$UCSORGLEFT
 10
0.0
 20
0.0
 30
0.0
  9
$UCSORGRIGHT
 10
0.0
 20
0.0
 30
0.0
  9
$UCSORGFRONT
 10
0.0
 20
0.0
 30
0.0
  9
$UCSORGBACK
 10
0.0
 20
0.0
 30
0.0
  9
$PUCSBASE
  2

  9
$PUCSNAME
  2

  9
$PUCSORG
 10
0.0
 20
0.0
 30
0.0
  9
$PUCSXDIR
 10
1.0
 20
0.0
 30
0.0
  9
$PUCSYDIR
 10
0.0
 20
1.0
 30
0.0
  9
$PUCSORTHOREF
  2

  9
$PUCSORTHOVIEW
 70
     0
  9
$PUCSORGTOP
 10
0.0
 20
0.0
 30
0.0
  9
$PUCSORGBOTTOM
 10
0.0
 20
0.0
 30
0.0
  9
$PUCSORGLEFT
 10
0.0
 20
0.0
 30
0.0
  9
$PUCSORGRIGHT
 10
0.0
 20
0.0
 30
0.0
  9
$PUCSORGFRONT
 10
0.0
 20
0.0
 30
0.0
  9
$PUCSORGBACK
 10
0.0
 20
0.0
 30
0.0
  9
$USERI1
 70
     0
  9
$USERI2
 70
     0
  9
$USERI3
 70
     0
  9
$USERI4
 70
     0
  9
$USERI5
 70
     0
  9
$USERR1
 40
0.0
  9
$USERR2
 40
0.0
  9
$USERR3
 40
0.0
  9
$USERR4
 40
0.0
  9
$USERR5
 40
0.0
  9
$WORLDVIEW
 70
     1
  9
$SHADEDGE
 70
     3
  9
$SHADEDIF
 70
    70
  9
$TILEMODE
 70
     1
  9
$MAXACTVP
 70
    64
  9
$PINSBASE
 10
0.0
 20
0.0
 30
0.0
  9
$PLIMCHECK
 70
     0
  9
$PEXTMIN
 10
1.0000000000E+20
 20
1.0000000000E+20
 30
1.0000000000E+20
  9
$PEXTMAX
 10
-1.0000000000E+20
 20
-1.0000000000E+20
 30
-1.0000000000E+20
  9
$PLIMMIN
 10
0.0
 20
0.0
  9
$PLIMMAX
 10
420.0
 20
297.0
  9
$UNITMODE
 70
     0
  9
$VISRETAIN
 70
     1
  9
$PLINEGEN
 70
     0
  9
$PSLTSCALE
 70
     1
  9
$TREEDEPTH
 70
  3020
  9
$CMLSTYLE
  2
Standard
  9
$CMLJUST
 70
     0
  9
$CMLSCALE
 40
20.0
  9
$PROXYGRAPHICS
 70
     1
  9
$MEASUREMENT
 70
     1
  9
$CELWEIGHT
370
    -1
  9
$ENDCAPS
280
     0
  9
$JOINSTYLE
280
     0
  9
$LWDISPLAY
290
     1
  9
$INSUNITS
 70
     4
  9
$HYPERLINKBASE
  1

  9
$STYLESHEET
  1

  9
$XEDIT
290
     1
  9
$CEPSNTYPE
380
     0
  9
$PSTYLEMODE
290
     1
  9
$FINGERPRINTGUID
  2
{fc27cf30-0962-43af-b539-4d887013d574}
  9
$VERSIONGUID
  2
{FAEB1C32-E019-11D5-929B-00C0DF256EC4}
  9
$EXTNAMES
290
     1
  9
$PSVPSCALE
 40
0.0
  9
$OLESTARTUP
290
     0
  0
ENDSEC
  0
SECTION
  2
CLASSES
  0
CLASS
  1
ACDBDICTIONARYWDFLT
  2
AcDbDictionaryWithDefault
  3
ObjectDBX Classes
 90
        0
280
     0
281
     0
  0
CLASS
  1
VISUALSTYLE
  2
AcDbVisualStyle
  3
ObjectDBX Classes
 90
     4095
280
     0
281
     0
  0
CLASS
  1
MATERIAL
  2
AcDbMaterial
  3
ObjectDBX Classes
 90
     1153
280
     0
281
     0
  0
CLASS
  1
SCALE
  2
AcDbScale
  3
ObjectDBX Classes
 90
     1153
280
     0
281
     0
  0
CLASS
  1
TABLESTYLE
  2
AcDbTableStyle
  3
ObjectDBX Classes
 90
     4095
280
     0
281
     0
  0
CLASS
  1
MLEADERSTYLE
  2
AcDbMLeaderStyle
  3
ACDB_MLEADERSTYLE_CLASS
 90
     4095
280
     0
281
     0
  0
CLASS
  1
SUN
  2
AcDbSun
  3
SCENEOE
 90
     1153
280
     0
281
     0
  0
CLASS
  1
ACDBPLACEHOLDER
  2
AcDbPlaceHolder
  3
ObjectDBX Classes
 90
        0
280
     0
281
     0
  0
CLASS
  1
LAYOUT
  2
AcDbLayout
  3
ObjectDBX Classes
 90
        0
280
     0
281
     0
  0
ENDSEC
  0
SECTION
  2
TABLES
  0
TABLE
  2
VPORT
  5
8
330
0
100
AcDbSymbolTable
 70
     1
  0
VPORT
  5
29
330
8
100
AcDbSymbolTableRecord
100
AcDbViewportTableRecord
  2
*Active
 70
     0
 10
0.0
 20
0.0
 11
1.0
 21
1.0
 12
2100.0
 22
2970.0
 13
0.0
 23
0.0
 14
10.0
 24
10.0
 15
10.0
 25
10.0
 16
0.0
 26
0.0
 36
1.0
 17
0.0
 27
0.0
 37
0.0
 40
5940.0
 41
0.7070707071
 42
50.0
 43
0.0
 44
0.0
 50
0.0
 51
0.0
 71
     0
 72
  2000
 73
     1
 74
     3
 75
     0
 76
     0
 77
     0
 78
     0
281
     0
 65
     1
110
0.0
120
0.0
130
0.0
111
1.0
121
0.0
131
0.0
112
0.0
122
1.0
132
0.0
 79
     0
146
0.0
  0
ENDTAB
  0
TABLE
  2
LTYPE
  5
5
330
0
100
AcDbSymbolTable
 70
     6
  0
LTYPE
  5
14
330
5
100
AcDbSymbolTableRecord
100
AcDbLinetypeTableRecord
  2
ByBlock
 70
     0
  3

 72
    65
 73
     0
 40
0.0
  0
LTYPE
  5
15
330
5
100
AcDbSymbolTableRecord
100
AcDbLinetypeTableRecord
  2
ByLayer
 70
     0
  3

 72
    65
 73
     0
 40
0.0
  0
LTYPE
  5
16
330
5
100
AcDbSymbolTableRecord
100
AcDbLinetypeTableRecord
  2
Continuous
 70
     0
  3
Solid line
 72
    65
 73
     0
 40
0.0
  0
LTYPE
  5
5E
330
5
100
AcDbSymbolTableRecord
100
AcDbLinetypeTableRecord
  2
HIDDEN
 70
     0
  3
Hidden __ __ __ __ __ __ __ __ __ __ __ __ __ __
 72
    65
 73
     2
 40
1.905
 49
1.27
 74
     0
 49
-0.635
 74
     0
  0
LTYPE
  5
5F
330
5
100
AcDbSymbolTableRecord
100
AcDbLinetypeTableRecord
  2
PHANTOM
 70
     0
  3
Phantom ______  __  __  ______  __  __  ______
 72
    65
 73
     6
 40
12.7
 49
6.35
 74
     0
 49
-1.27
 74
     0
 49
1.27
 74
     0
 49
-1.27
 74
     0
 49
1.27
 74
     0
 49
-1.27
 74
     0
  0
LTYPE
  5
60
330
5
100
AcDbSymbolTableRecord
100
AcDbLinetypeTableRecord
  2
CENTER
 70
     0
  3
Center ____ _ ____ _ ____ _ ____ _ ____ _ ____
 72
    65
 73
     4
 40
10.16
 49
6.35
 74
     0
 49
-1.27
 74
     0
 49
1.27
 74
     0
 49
-1.27
 74
     0
  0
LTYPE
  5
61
330
5
100
AcDbSymbolTableRecord
100
AcDbLinetypeTableRecord
  2
CENTERX2
 70
     0
  3
Center (2x) ________  __  ________  __  _____
 72
    65
 73
     4
 40
20.32
 49
12.7
 74
     0
 49
-2.54
 74
     0
 49
2.54
 74
     0
 49
-2.54
 74
     0
  0
LTYPE
  5
62
330
5
100
AcDbSymbolTableRecord
100
AcDbLinetypeTableRecord
  2
DOT2
 70
     0
  3
Dot (.5x) ........................................
 72
    65
 73
     2
 40
0.635
 49
0.0
 74
     0
 49
-0.635
 74
     0
  0
ENDTAB
  0
TABLE
  2
LAYER
  5
2
330
0
100
AcDbSymbolTable
 70
     6
  0
LAYER
  5
10
330
2
100
AcDbSymbolTableRecord
100
AcDbLayerTableRecord
  2
0
 70
     0
 62
     7
  6
Continuous
370
    -3
390
F
  0
LAYER
  5
63
330
2
100
AcDbSymbolTableRecord
100
AcDbLayerTableRecord
  2
1
 70
     0
 62
     4
  6
Continuous
370
    25
390
F
  0
LAYER
  5
64
330
2
100
AcDbSymbolTableRecord
100
AcDbLayerTableRecord
  2
2
 70
     0
 62
     3
  6
CENTERX2
370
    -3
390
F
  0
LAYER
  5
65
330
2
100
AcDbSymbolTableRecord
100
AcDbLayerTableRecord
  2
3
 70
     0
 62
     2
  6
Continuous
370
    -3
390
F
  0
LAYER
  5
66
330
2
100
AcDbSymbolTableRecord
100
AcDbLayerTableRecord
  2
4
 70
     0
 62
     7
  6
Continuous
370
    -3
390
F
  0
LAYER
  5
67
330
2
100
AcDbSymbolTableRecord
100
AcDbLayerTableRecord
  2
基礎穴
 70
     0
 62
     1
  6
PHANTOM
370
    35
390
F
  0
ENDTAB
  0
TABLE
  2
STYLE
  5
3
330
0
100
AcDbSymbolTable
 70
     2
  0
STYLE
  5
11
330
3
100
AcDbSymbolTableRecord
100
AcDbTextStyleTableRecord
  2
Standard
 70
     0
 40
0.0
 41
1.0
 50
0.0
 71
     0
 42
70.5555555556
  3
txt
  4
bigfont
  0
STYLE
  5
68
330
3
100
AcDbSymbolTableRecord
100
AcDbTextStyleTableRecord
  2
SLDTEXTSTYLE0
 70
     0
 40
0.0
 41
0.7
 50
0.0
 71
     0
 42
70.5555555556
  3
TXT
  4
bigfont
  0
ENDTAB
  0
TABLE
  2
VIEW
  5
6
330
0
100
AcDbSymbolTable
 70
     0
  0
ENDTAB
  0
TABLE
  2
UCS
  5
7
330
0
100
AcDbSymbolTable
 70
     0
  0
ENDTAB
  0
TABLE
  2
APPID
  5
9
330
0
100
AcDbSymbolTable
 70
     1
  0
APPID
  5
12
330
9
100
AcDbSymbolTableRecord
100
AcDbRegAppTableRecord
  2
ACAD
 70
     0
  0
ENDTAB
  0
TABLE
  2
DIMSTYLE
  5
A
330
0
100
AcDbSymbolTable
 70
     1
100
AcDbDimStyleTable
  0
DIMSTYLE
105
27
330
A
100
AcDbSymbolTableRecord
100
AcDbDimStyleTableRecord
  2
ISO-25
 70
     0
 41
2.5
 42
0.625
 43
3.75
 44
1.25
 73
     0
 74
     0
 77
     1
 78
     8
140
2.5
141
2.5
143
0.0393700787
147
0.625
171
     3
172
     1
178
     0
271
     2
272
     2
274
     3
278
    44
283
     0
284
     8
340
11
  0
ENDTAB
  0
TABLE
  2
BLOCK_RECORD
  5
1
330
0
100
AcDbSymbolTable
 70
     2
  0
BLOCK_RECORD
  5
1F
330
1
100
AcDbSymbolTableRecord
100
AcDbBlockTableRecord
  2
*Model_Space
340
22
  0
BLOCK_RECORD
  5
1B
330
1
100
AcDbSymbolTableRecord
100
AcDbBlockTableRecord
  2
*Paper_Space
340
1E
  0
BLOCK_RECORD
  5
23
330
1
100
AcDbSymbolTableRecord
100
AcDbBlockTableRecord
  2
*Paper_Space0
340
26
  0
BLOCK_RECORD
  5
D6
330
1
100
AcDbSymbolTableRecord
100
AcDbBlockTableRecord
  2
SW_CENTERMARKSYMBOL_0
340
0
102
{BLKREFS
331
E1
102
}
  0
ENDTAB
  0
ENDSEC
  0
SECTION
  2
BLOCKS
  0
BLOCK
  5
20
330
1F
100
AcDbEntity
  8
0
100
AcDbBlockBegin
  2
*Model_Space
 70
     0
 10
0.0
 20
0.0
 30
0.0
  3
*Model_Space
  1

  0
ENDBLK
  5
21
330
1F
100
AcDbEntity
  8
0
100
AcDbBlockEnd
  0
BLOCK
  5
1C
330
1B
100
AcDbEntity
 67
     1
  8
0
100
AcDbBlockBegin
  2
*Paper_Space
 70
     0
 10
0.0
 20
0.0
 30
0.0
  3
*Paper_Space
  1

  0
ENDBLK
  5
1D
330
1B
100
AcDbEntity
 67
     1
  8
0
100
AcDbBlockEnd
  0
BLOCK
  5
24
330
23
100
AcDbEntity
  8
0
100
AcDbBlockBegin
  2
*Paper_Space0
 70
     0
 10
0.0
 20
0.0
 30
0.0
  3
*Paper_Space0
  1

  0
ENDBLK
  5
25
330
23
100
AcDbEntity
  8
0
100
AcDbBlockEnd
  0
BLOCK
  5
D7
330
D6
100
AcDbEntity
  8
0
100
AcDbBlockBegin
  2
SW_CENTERMARKSYMBOL_0
 70
     0
 10
0.0
 20
0.0
 30
0.0
  3
SW_CENTERMARKSYMBOL_0
  1

  0
LINE
  5
D9
330
D6
100
AcDbEntity
  8
2
 62
     0
100
AcDbLine
 10
0.0
 20
0.0
 30
0.0
 11
0.0
 21
2.5
 31
0.0
  0
LINE
  5
DA
330
D6
100
AcDbEntity
  8
2
 62
     0
100
AcDbLine
 10
0.0
 20
0.0
 30
0.0
 11
-2.5
 21
0.0
 31
0.0
  0
LINE
  5
DB
330
D6
100
AcDbEntity
  8
2
 62
     0
100
AcDbLine
 10
0.0
 20
0.0
 30
0.0
 11
0.0
 21
-2.5
 31
0.0
  0
LINE
  5
DC
330
D6
100
AcDbEntity
  8
2
 62
     0
100
AcDbLine
 10
0.0
 20
0.0
 30
0.0
 11
2.5
 21
0.0
 31
0.0
  0
LINE
  5
DD
330
D6
100
AcDbEntity
  8
2
 62
     0
100
AcDbLine
 10
0.0
 20
5.0
 30
0.0
 11
0.0
 21
357.5
 31
0.0
  0
LINE
  5
DE
330
D6
100
AcDbEntity
  8
2
 62
     0
100
AcDbLine
 10
-5.0
 20
0.0
 30
0.0
 11
-357.5
 21
0.0
 31
0.0
  0
LINE
  5
DF
330
D6
100
AcDbEntity
  8
2
 62
     0
100
AcDbLine
 10
0.0
 20
-5.0
 30
0.0
 11
0.0
 21
-357.5
 31
0.0
  0
LINE
  5
E0
330
D6
100
AcDbEntity
  8
2
 62
     0
100
AcDbLine
 10
5.0
 20
0.0
 30
0.0
 11
357.5
 21
0.0
 31
0.0
  0
ENDBLK
  5
D8
330
D6
100
AcDbEntity
  8
0
100
AcDbBlockEnd
  0
ENDSEC
  0
SECTION
  2
ENTITIES
  0
MTEXT
  5
69
330
1F
100
AcDbEntity
  8
0
  6
Continuous
 62
     7
370
     0
100
AcDbMText
 10
2721.754949934
 20
1523.3998043097
 30
0.0
 40
52.9166666667
 41
0.0
 71
     1
 72
     1
  1
LL04040YG01K-R2
  7
SLDTEXTSTYLE0
 73
     1
 44
1.0
  0
LINE
  5
6A
330
1F
100
AcDbEntity
  8
1
100
AcDbLine
 10
2104.3043772745
 20
1846.0378238342
 30
0.0
 11
2104.3043772745
 21
1809.0378238342
 31
0.0
  0
LINE
  5
6B
330
1F
100
AcDbEntity
  8
1
100
AcDbLine
 10
2139.3043772745
 20
1809.0378238342
 30
0.0
 11
2139.3043772745
 21
1846.0378238342
 31
0.0
  0
LINE
  5
6C
330
1F
100
AcDbEntity
  8
1
100
AcDbLine
 10
804.3043772745
 20
1846.0378238342
 30
0.0
 11
804.3043772745
 21
1809.0378238342
 31
0.0
  0
LINE
  5
6D
330
1F
100
AcDbEntity
  8
1
100
AcDbLine
 10
839.3043772745
 20
1809.0378238342
 30
0.0
 11
839.3043772745
 21
1846.0378238342
 31
0.0
  0
LINE
  5
6E
330
1F
100
AcDbEntity
  8
1
100
AcDbLine
 10
1121.8043772745
 20
1946.0378238342
 30
0.0
 11
1121.8043772745
 21
1950.5378238342
 31
0.0
  0
LINE
  5
6F
330
1F
100
AcDbEntity
  8
1
100
AcDbLine
 10
2021.8043772745
 20
2660.5378238342
 30
0.0
 11
1756.8043772745
 21
2660.5378238342
 31
0.0
  0
LINE
  5
70
330
1F
100
AcDbEntity
  8
1
100
AcDbLine
 10
2021.8043772745
 20
1950.5378238342
 30
0.0
 11
2021.8043772745
 21
2660.5378238342
 31
0.0
  0
LINE
  5
71
330
1F
100
AcDbEntity
  8
1
100
AcDbLine
 10
771.8043772745
 20
1950.5378238342
 30
0.0
 11
2021.8043772745
 21
1950.5378238342
 31
0.0
  0
LINE
  5
72
330
1F
100
AcDbEntity
  8
1
100
AcDbLine
 10
771.8043772745
 20
2305.5378238342
 30
0.0
 11
771.8043772745
 21
1950.5378238342
 31
0.0
  0
LINE
  5
73
330
1F
100
AcDbEntity
  8
1
100
AcDbLine
 10
1756.8043772745
 20
2660.5378238342
 30
0.0
 11
771.8043772745
 21
2305.5378238342
 31
0.0
  0
LINE
  5
74
330
1F
100
AcDbEntity
  8
1
100
AcDbLine
 10
771.8043772745
 20
1809.0378238342
 30
0.0
 11
2171.8043772745
 21
1809.0378238342
 31
0.0
  0
LINE
  5
75
330
1F
100
AcDbEntity
  8
1
100
AcDbLine
 10
2171.8043772745
 20
1804.0378238342
 30
0.0
 11
2171.8043772745
 21
1809.0378238342
 31
0.0
  0
LINE
  5
76
330
1F
100
AcDbEntity
  8
1
100
AcDbLine
 10
771.8043772745
 20
1804.0378238342
 30
0.0
 11
2171.8043772745
 21
1804.0378238342
 31
0.0
  0
LINE
  5
77
330
1F
100
AcDbEntity
  8
1
100
AcDbLine
 10
771.8043772745
 20
1804.0378238342
 30
0.0
 11
771.8043772745
 21
1809.0378238342
 31
0.0
  0
LINE
  5
78
330
1F
100
AcDbEntity
  8
1
100
AcDbLine
 10
2171.8043772745
 20
1709.0378238342
 30
0.0
 11
771.8043772745
 21
1709.0378238342
 31
0.0
  0
LINE
  5
79
330
1F
100
AcDbEntity
  8
1
100
AcDbLine
 10
771.8043772745
 20
1709.0378238342
 30
0.0
 11
771.8043772745
 21
1714.0378238342
 31
0.0
  0
LINE
  5
7A
330
1F
100
AcDbEntity
  8
1
100
AcDbLine
 10
2171.8043772745
 20
1714.0378238342
 30
0.0
 11
771.8043772745
 21
1714.0378238342
 31
0.0
  0
LINE
  5
7B
330
1F
100
AcDbEntity
  8
1
100
AcDbLine
 10
2171.8043772745
 20
1709.0378238342
 30
0.0
 11
2171.8043772745
 21
1714.0378238342
 31
0.0
  0
LINE
  5
7C
330
1F
100
AcDbEntity
  8
1
100
AcDbLine
 10
2126.8043772745
 20
1714.0378238342
 30
0.0
 11
2126.8043772745
 21
1804.0378238342
 31
0.0
  0
LINE
  5
7D
330
1F
100
AcDbEntity
  8
1
100
AcDbLine
 10
816.8043772745
 20
1714.0378238342
 30
0.0
 11
816.8043772745
 21
1804.0378238342
 31
0.0
  0
LINE
  5
7E
330
1F
100
AcDbEntity
  8
1
100
AcDbLine
 10
686.8043772745
 20
1950.5378238342
 30
0.0
 11
686.8043772745
 21
1946.0378238342
 31
0.0
  0
LINE
  5
7F
330
1F
100
AcDbEntity
  8
1
100
AcDbLine
 10
686.8043772745
 20
1950.5378238342
 30
0.0
 11
771.8043772745
 21
1950.5378238342
 31
0.0
  0
LINE
  5
80
330
1F
100
AcDbEntity
  8
1
100
AcDbLine
 10
686.8043772745
 20
1946.0378238342
 30
0.0
 11
836.8043772745
 21
1946.0378238342
 31
0.0
  0
LINE
  5
81
330
1F
100
AcDbEntity
  8
1
100
AcDbLine
 10
836.8043772745
 20
1950.5378238342
 30
0.0
 11
836.8043772745
 21
1946.0378238342
 31
0.0
  0
LINE
  5
82
330
1F
100
AcDbEntity
  8
1
100
AcDbLine
 10
2106.8043772745
 20
1950.5378238342
 30
0.0
 11
2106.8043772745
 21
1946.0378238342
 31
0.0
  0
LINE
  5
83
330
1F
100
AcDbEntity
  8
1
100
AcDbLine
 10
1956.8043772745
 20
1946.0378238342
 30
0.0
 11
2106.8043772745
 21
1946.0378238342
 31
0.0
  0
LINE
  5
84
330
1F
100
AcDbEntity
  8
1
100
AcDbLine
 10
1956.8043772745
 20
1950.5378238342
 30
0.0
 11
1956.8043772745
 21
1946.0378238342
 31
0.0
  0
LINE
  5
85
330
1F
100
AcDbEntity
  8
1
100
AcDbLine
 10
2021.8043772745
 20
1950.5378238342
 30
0.0
 11
2106.8043772745
 21
1950.5378238342
 31
0.0
  0
LINE
  5
86
330
1F
100
AcDbEntity
  8
1
100
AcDbLine
 10
2171.8043772745
 20
1851.0378238342
 30
0.0
 11
2171.8043772745
 21
1846.0378238342
 31
0.0
  0
LINE
  5
87
330
1F
100
AcDbEntity
  8
1
100
AcDbLine
 10
771.8043772745
 20
1846.0378238342
 30
0.0
 11
2171.8043772745
 21
1846.0378238342
 31
0.0
  0
LINE
  5
88
330
1F
100
AcDbEntity
  8
1
100
AcDbLine
 10
771.8043772745
 20
1851.0378238342
 30
0.0
 11
771.8043772745
 21
1846.0378238342
 31
0.0
  0
LINE
  5
89
330
1F
100
AcDbEntity
  8
1
100
AcDbLine
 10
771.8043772745
 20
1851.0378238342
 30
0.0
 11
2171.8043772745
 21
1851.0378238342
 31
0.0
  0
LINE
  5
8A
330
1F
100
AcDbEntity
  8
1
100
AcDbLine
 10
2171.8043772745
 20
1946.0378238342
 30
0.0
 11
2171.8043772745
 21
1941.0378238342
 31
0.0
  0
LINE
  5
8B
330
1F
100
AcDbEntity
  8
1
100
AcDbLine
 10
771.8043772745
 20
1946.0378238342
 30
0.0
 11
771.8043772745
 21
1941.0378238342
 31
0.0
  0
LINE
  5
8C
330
1F
100
AcDbEntity
  8
1
100
AcDbLine
 10
771.8043772745
 20
1941.0378238342
 30
0.0
 11
2171.8043772745
 21
1941.0378238342
 31
0.0
  0
LINE
  5
8D
330
1F
100
AcDbEntity
  8
1
100
AcDbLine
 10
2106.8043772745
 20
1946.0378238342
 30
0.0
 11
2171.8043772745
 21
1946.0378238342
 31
0.0
  0
LINE
  5
8E
330
1F
100
AcDbEntity
  8
1
100
AcDbLine
 10
836.8043772745
 20
1946.0378238342
 30
0.0
 11
1956.8043772745
 21
1946.0378238342
 31
0.0
  0
LINE
  5
8F
330
1F
100
AcDbEntity
  8
1
100
AcDbLine
 10
2126.8043772745
 20
1941.0378238342
 30
0.0
 11
2126.8043772745
 21
1851.0378238342
 31
0.0
  0
LINE
  5
90
330
1F
100
AcDbEntity
  8
1
100
AcDbLine
 10
816.8043772745
 20
1941.0378238342
 30
0.0
 11
816.8043772745
 21
1851.0378238342
 31
0.0
  0
LINE
  5
91
330
1F
100
AcDbEntity
  8
1
100
AcDbLine
 10
1785.8043772745
 20
2883.0378238342
 30
0.0
 11
1785.8043772745
 21
2886.0378238342
 31
0.0
  0
LINE
  5
92
330
1F
100
AcDbEntity
  8
1
100
AcDbLine
 10
1051.8043772745
 20
2883.0378238342
 30
0.0
 11
1785.8043772745
 21
2883.0378238342
 31
0.0
  0
LINE
  5
93
330
1F
100
AcDbEntity
  8
1
100
AcDbLine
 10
1051.8043772745
 20
2883.0378238342
 30
0.0
 11
1051.8043772745
 21
2886.0378238342
 31
0.0
  0
LINE
  5
94
330
1F
100
AcDbEntity
  8
1
100
AcDbLine
 10
1051.8043772745
 20
2886.0378238342
 30
0.0
 11
1785.8043772745
 21
2886.0378238342
 31
0.0
  0
LINE
  5
95
330
1F
100
AcDbEntity
  8
1
100
AcDbLine
 10
1745.0043772745
 20
2805.2378238342
 30
0.0
 11
1745.0043772745
 21
2883.0378238342
 31
0.0
  0
LINE
  5
96
330
1F
100
AcDbEntity
  8
1
100
AcDbLine
 10
1809.8043772745
 20
2805.2378238342
 30
0.0
 11
1745.0043772745
 21
2805.2378238342
 31
0.0
  0
ARC
  5
97
330
1F
100
AcDbEntity
  8
1
100
AcDbCircle
 10
1809.8043772745
 20
2388.0378238342
 30
0.0
 40
417.2
100
AcDbArc
 50
0.0
 51
90.0
  0
ARC
  5
98
330
1F
100
AcDbEntity
  8
1
100
AcDbCircle
 10
1724.8043772745
 20
2379.0378238342
 30
0.0
 40
502.2000000000001
100
AcDbArc
 50
306.2562667086
 51
0.0
  0
LWPOLYLINE
  5
99
330
1F
100
AcDbEntity
  8
1
100
AcDbPolyline
 90
        3
 70
   128
 43
0.0
 10
1437.6664487454
 20
1950.5378238342
 10
1445.2207172523
 20
1946.4569496576
 10
1446.0115509679
 20
1946.0378238342
  0
LINE
  5
9A
330
1F
100
AcDbEntity
  8
1
100
AcDbLine
 10
1092.8472104003
 20
2883.0378238342
 30
0.0
 11
1129.7565808969
 21
2434.5459784392
 31
0.0
  0
LINE
  5
9B
330
1F
100
AcDbEntity
  8
1
100
AcDbLine
 10
2227.0043772745
 20
2379.0378238342
 30
0.0
 11
2227.0043772745
 21
2388.0378238342
 31
0.0
  0
CIRCLE
  5
9C
330
1F
100
AcDbEntity
  8
0
  6
HIDDEN
 62
     7
370
    18
100
AcDbCircle
 10
946.8043772745
 20
2123.0378238342
 30
0.0
 40
18.99999999999977
  0
ARC
  5
9D
330
1F
100
AcDbEntity
  8
0
  6
HIDDEN
 62
     7
370
    18
100
AcDbCircle
 10
946.8043772745
 20
2123.0378238342
 30
0.0
 40
142.4999999999997
100
AcDbArc
 50
298.3576365763
 51
241.6423634237
  0
LINE
  5
9E
330
1F
100
AcDbEntity
  8
0
  6
HIDDEN
 62
     7
370
    18
100
AcDbLine
 10
1014.4881271706
 20
1997.6378238342
 30
0.0
 11
879.1206273784
 21
1997.6378238342
 31
0.0
  0
LINE
  5
9F
330
1F
100
AcDbEntity
  8
0
  6
HIDDEN
 62
     7
370
    18
100
AcDbLine
 10
1121.8043772745
 20
1950.5378238342
 30
0.0
 11
1121.8043772745
 21
1991.0378238342
 31
0.0
  0
LINE
  5
A0
330
1F
100
AcDbEntity
  8
0
  6
HIDDEN
 62
     7
370
    18
100
AcDbLine
 10
771.8043772745
 20
1946.0378238342
 30
0.0
 11
771.8043772745
 21
1950.5378238342
 31
0.0
  0
LINE
  5
A1
330
1F
100
AcDbEntity
  8
0
  6
HIDDEN
 62
     7
370
    18
100
AcDbLine
 10
1121.8043772745
 20
1991.0378238342
 30
0.0
 11
771.8043772745
 21
1991.0378238342
 31
0.0
  0
LINE
  5
A2
330
1F
100
AcDbEntity
  8
0
  6
HIDDEN
 62
     7
370
    18
100
AcDbLine
 10
1034.3043772745
 20
2004.2378238342
 30
0.0
 11
1025.4987862246
 21
2004.2378238342
 31
0.0
  0
LINE
  5
A3
330
1F
100
AcDbEntity
  8
0
  6
HIDDEN
 62
     7
370
    18
100
AcDbLine
 10
1034.3043772745
 20
1991.0378238342
 30
0.0
 11
1034.3043772745
 21
2004.2378238342
 31
0.0
  0
LINE
  5
A4
330
1F
100
AcDbEntity
  8
0
  6
HIDDEN
 62
     7
370
    18
100
AcDbLine
 10
859.3043772745
 20
2004.2378238342
 30
0.0
 11
859.3043772745
 21
1991.0378238342
 31
0.0
  0
LINE
  5
A5
330
1F
100
AcDbEntity
  8
0
  6
HIDDEN
 62
     7
370
    18
100
AcDbLine
 10
868.1099683244
 20
2004.2378238342
 30
0.0
 11
859.3043772745
 21
2004.2378238342
 31
0.0
  0
CIRCLE
  5
A6
330
1F
100
AcDbEntity
  8
0
  6
HIDDEN
 62
     7
370
    18
100
AcDbCircle
 10
946.8043772745
 20
2123.0378238342
 30
0.0
 40
75.00000000000001
  0
CIRCLE
  5
A7
330
1F
100
AcDbEntity
  8
0
  6
HIDDEN
 62
     7
370
    18
100
AcDbCircle
 10
1771.8043772745
 20
2426.0378238342
 30
0.0
 40
112.5000000000001
  0
LINE
  5
A8
330
1F
100
AcDbEntity
  8
0
  6
HIDDEN
 62
     7
370
    18
100
AcDbLine
 10
2121.8043772745
 20
1709.0378238342
 30
0.0
 11
2121.8043772745
 21
1809.0378238342
 31
0.0
  0
LINE
  5
A9
330
1F
100
AcDbEntity
  8
0
  6
HIDDEN
 62
     7
370
    18
100
AcDbLine
 10
821.8043772745
 20
1709.0378238342
 30
0.0
 11
821.8043772745
 21
1809.0378238342
 31
0.0
  0
LINE
  5
AA
330
1F
100
AcDbEntity
  8
0
  6
HIDDEN
 62
     7
370
    18
100
AcDbLine
 10
2121.8043772745
 20
1946.0378238342
 30
0.0
 11
2121.8043772745
 21
1846.0378238342
 31
0.0
  0
LINE
  5
AB
330
1F
100
AcDbEntity
  8
0
  6
HIDDEN
 62
     7
370
    18
100
AcDbLine
 10
821.8043772745
 20
1946.0378238342
 30
0.0
 11
821.8043772745
 21
1846.0378238342
 31
0.0
  0
ARC
  5
AC
330
1F
100
AcDbEntity
  8
0
  6
HIDDEN
 62
     7
370
    18
100
AcDbCircle
 10
1724.8043772745
 20
2379.0378238342
 30
0.0
 40
502.2000000000001
100
AcDbArc
 50
270.0
 51
306.2562667086
  0
ARC
  5
AD
330
1F
100
AcDbEntity
  8
0
  6
HIDDEN
 62
     7
370
    18
100
AcDbCircle
 10
1724.8043772745
 20
2473.0378238342
 30
0.0
 40
596.2
100
AcDbArc
 50
184.7046479564
 51
241.2091690406
  0
ARC
  5
AE
330
1F
100
AcDbEntity
  8
0
  6
HIDDEN
 62
     7
370
    18
100
AcDbCircle
 10
1724.8043772745
 20
2473.0378238342
 30
0.0
 40
596.2000000000003
100
AcDbArc
 50
242.120324944
 51
270.0
  0
LINE
  5
AF
330
1F
100
AcDbEntity
  8
0
  6
HIDDEN
 62
     7
370
    18
100
AcDbLine
 10
1129.7565808969
 20
2434.5459784392
 30
0.0
 11
1130.6131321665
 21
2424.1378827611
 31
0.0
  0
ARC
  5
B0
330
1F
100
AcDbEntity
  8
0
  6
HIDDEN
 62
     7
370
    18
100
AcDbCircle
 10
1724.8043772745
 20
2473.0378238342
 30
0.0
 40
595.0
100
AcDbArc
 50
184.7046479564
 51
270.0
  0
LINE
  5
B1
330
1F
100
AcDbEntity
  8
0
  6
HIDDEN
 62
     7
370
    18
100
AcDbLine
 10
1809.8043772745
 20
2804.0378238342
 30
0.0
 11
1743.8043772745
 21
2804.0378238342
 31
0.0
  0
LINE
  5
B2
330
1F
100
AcDbEntity
  8
0
  6
HIDDEN
 62
     7
370
    18
100
AcDbLine
 10
1093.8043772745
 20
2886.0378238342
 30
0.0
 11
1131.8090890503
 21
2424.2363059904
 31
0.0
  0
LINE
  5
B3
330
1F
100
AcDbEntity
  8
0
  6
HIDDEN
 62
     7
370
    18
100
AcDbLine
 10
1743.8043772745
 20
2804.0378238342
 30
0.0
 11
1743.8043772745
 21
2886.0378238342
 31
0.0
  0
ARC
  5
B4
330
1F
100
AcDbEntity
  8
0
  6
HIDDEN
 62
     7
370
    18
100
AcDbCircle
 10
1724.8043772745
 20
2379.0378238342
 30
0.0
 40
501.0
100
AcDbArc
 50
270.0
 51
0.0
  0
LINE
  5
B5
330
1F
100
AcDbEntity
  8
0
  6
HIDDEN
 62
     7
370
    18
100
AcDbLine
 10
2225.8043772745
 20
2379.0378238342
 30
0.0
 11
2225.8043772745
 21
2388.0378238342
 31
0.0
  0
ARC
  5
B6
330
1F
100
AcDbEntity
  8
0
  6
HIDDEN
 62
     7
370
    18
100
AcDbCircle
 10
1809.8043772745
 20
2388.0378238342
 30
0.0
 40
415.9999999999998
100
AcDbArc
 50
0.0
 51
90.0
  0
CIRCLE
  5
B7
330
1F
100
AcDbEntity
  8
0
  6
HIDDEN
 62
     7
370
    18
100
AcDbCircle
 10
1771.8043772745
 20
2426.0378238342
 30
0.0
 40
315.0
  0
CIRCLE
  5
B8
330
1F
100
AcDbEntity
  8
0
  6
HIDDEN
 62
     7
370
    18
100
AcDbCircle
 10
1771.8043772745
 20
2426.0378238342
 30
0.0
 40
355.0
  0
CIRCLE
  5
B9
330
1F
100
AcDbEntity
  8
0
  6
HIDDEN
 62
     7
370
    18
100
AcDbCircle
 10
1771.8043772745
 20
2426.0378238342
 30
0.0
 40
317.3000000000002
  0
CIRCLE
  5
BA
330
1F
100
AcDbEntity
  8
0
  6
HIDDEN
 62
     7
370
    18
100
AcDbCircle
 10
1533.155838624
 20
2664.6863624847
 30
0.0
 40
5.0
  0
CIRCLE
  5
BB
330
1F
100
AcDbEntity
  8
0
  6
HIDDEN
 62
     7
370
    18
100
AcDbCircle
 10
1684.4529495524
 20
2752.0377902068
 30
0.0
 40
5.0
  0
CIRCLE
  5
BC
330
1F
100
AcDbEntity
  8
0
  6
HIDDEN
 62
     7
370
    18
100
AcDbCircle
 10
2010.452915925
 20
2664.6863624847
 30
0.0
 40
5.0
  0
CIRCLE
  5
BD
330
1F
100
AcDbEntity
  8
0
  6
HIDDEN
 62
     7
370
    18
100
AcDbCircle
 10
2097.8043436471
 20
2513.3892515563
 30
0.0
 40
5.0
  0
CIRCLE
  5
BE
330
1F
100
AcDbEntity
  8
0
  6
HIDDEN
 62
     7
370
    18
100
AcDbCircle
 10
2097.8043436471
 20
2338.6863961121
 30
0.0
 40
5.0
  0
CIRCLE
  5
BF
330
1F
100
AcDbEntity
  8
0
  6
HIDDEN
 62
     7
370
    18
100
AcDbCircle
 10
2010.452915925
 20
2187.3892851837
 30
0.0
 40
5.0
  0
CIRCLE
  5
C0
330
1F
100
AcDbEntity
  8
0
  6
HIDDEN
 62
     7
370
    18
100
AcDbCircle
 10
1859.1558049966
 20
2100.0378574616
 30
0.0
 40
5.0
  0
CIRCLE
  5
C1
330
1F
100
AcDbEntity
  8
0
  6
HIDDEN
 62
     7
370
    18
100
AcDbCircle
 10
1684.4529495524
 20
2100.0378574616
 30
0.0
 40
5.0
  0
CIRCLE
  5
C2
330
1F
100
AcDbEntity
  8
0
  6
HIDDEN
 62
     7
370
    18
100
AcDbCircle
 10
1533.155838624
 20
2187.3892851837
 30
0.0
 40
5.0
  0
CIRCLE
  5
C3
330
1F
100
AcDbEntity
  8
0
  6
HIDDEN
 62
     7
370
    18
100
AcDbCircle
 10
1445.8044109019
 20
2338.6863961121
 30
0.0
 40
5.0
  0
CIRCLE
  5
C4
330
1F
100
AcDbEntity
  8
0
  6
HIDDEN
 62
     7
370
    18
100
AcDbCircle
 10
1445.8044109019
 20
2513.3892515563
 30
0.0
 40
5.0
  0
CIRCLE
  5
C5
330
1F
100
AcDbEntity
  8
0
  6
HIDDEN
 62
     7
370
    18
100
AcDbCircle
 10
1859.1558049966
 20
2752.0377902068
 30
0.0
 40
5.0
  0
LINE
  5
C6
330
1F
100
AcDbEntity
  8
0
  6
HIDDEN
 62
     7
370
    18
100
AcDbLine
 10
1479.3043772745
 20
1709.0378238342
 30
0.0
 11
1479.3043772745
 21
1714.0378238342
 31
0.0
  0
LINE
  5
C7
330
1F
100
AcDbEntity
  8
0
  6
HIDDEN
 62
     7
370
    18
100
AcDbLine
 10
1464.3043772745
 20
1714.0378238342
 30
0.0
 11
1464.3043772745
 21
1709.0378238342
 31
0.0
  0
LINE
  5
C8
330
1F
100
AcDbEntity
  8
0
  6
HIDDEN
 62
     7
370
    18
100
AcDbLine
 10
2099.3043772745
 20
1709.0378238342
 30
0.0
 11
2099.3043772745
 21
1714.0378238342
 31
0.0
  0
LINE
  5
C9
330
1F
100
AcDbEntity
  8
0
  6
HIDDEN
 62
     7
370
    18
100
AcDbLine
 10
2084.3043772745
 20
1714.0378238342
 30
0.0
 11
2084.3043772745
 21
1709.0378238342
 31
0.0
  0
LINE
  5
CA
330
1F
100
AcDbEntity
  8
0
  6
HIDDEN
 62
     7
370
    18
100
AcDbLine
 10
859.3043772745
 20
1709.0378238342
 30
0.0
 11
859.3043772745
 21
1714.0378238342
 31
0.0
  0
LINE
  5
CB
330
1F
100
AcDbEntity
  8
0
  6
HIDDEN
 62
     7
370
    18
100
AcDbLine
 10
844.3043772745
 20
1714.0378238342
 30
0.0
 11
844.3043772745
 21
1709.0378238342
 31
0.0
  0
LINE
  5
CC
330
1F
100
AcDbEntity
  8
0
  6
HIDDEN
 62
     7
370
    18
100
AcDbLine
 10
1064.8043772745
 20
2886.0378238342
 30
0.0
 11
1064.8043772745
 21
2883.0378238342
 31
0.0
  0
LINE
  5
CD
330
1F
100
AcDbEntity
  8
0
  6
HIDDEN
 62
     7
370
    18
100
AcDbLine
 10
1074.8043772745
 20
2883.0378238342
 30
0.0
 11
1074.8043772745
 21
2886.0378238342
 31
0.0
  0
LINE
  5
CE
330
1F
100
AcDbEntity
  8
0
  6
HIDDEN
 62
     7
370
    18
100
AcDbLine
 10
1213.8043772745
 20
2886.0378238342
 30
0.0
 11
1213.8043772745
 21
2883.0378238342
 31
0.0
  0
LINE
  5
CF
330
1F
100
AcDbEntity
  8
0
  6
HIDDEN
 62
     7
370
    18
100
AcDbLine
 10
1223.8043772745
 20
2883.0378238342
 30
0.0
 11
1223.8043772745
 21
2886.0378238342
 31
0.0
  0
LINE
  5
D0
330
1F
100
AcDbEntity
  8
0
  6
HIDDEN
 62
     7
370
    18
100
AcDbLine
 10
1762.8043772745
 20
2886.0378238342
 30
0.0
 11
1762.8043772745
 21
2883.0378238342
 31
0.0
  0
LINE
  5
D1
330
1F
100
AcDbEntity
  8
0
  6
HIDDEN
 62
     7
370
    18
100
AcDbLine
 10
1772.8043772745
 20
2883.0378238342
 30
0.0
 11
1772.8043772745
 21
2886.0378238342
 31
0.0
  0
LINE
  5
D2
330
1F
100
AcDbEntity
  8
0
  6
HIDDEN
 62
     7
370
    18
100
AcDbLine
 10
1613.8043772745
 20
2886.0378238342
 30
0.0
 11
1613.8043772745
 21
2883.0378238342
 31
0.0
  0
LINE
  5
D3
330
1F
100
AcDbEntity
  8
0
  6
HIDDEN
 62
     7
370
    18
100
AcDbLine
 10
1623.8043772745
 20
2883.0378238342
 30
0.0
 11
1623.8043772745
 21
2886.0378238342
 31
0.0
  0
LINE
  5
D4
330
1F
100
AcDbEntity
  8
0
  6
HIDDEN
 62
     7
370
    18
100
AcDbLine
 10
1413.8043772745
 20
2886.0378238342
 30
0.0
 11
1413.8043772745
 21
2883.0378238342
 31
0.0
  0
LINE
  5
D5
330
1F
100
AcDbEntity
  8
0
  6
HIDDEN
 62
     7
370
    18
100
AcDbLine
 10
1423.8043772745
 20
2883.0378238342
 30
0.0
 11
1423.8043772745
 21
2886.0378238342
 31
0.0
  0
INSERT
  5
E1
330
1F
100
AcDbEntity
  8
2
100
AcDbBlockReference
  2
SW_CENTERMARKSYMBOL_0
 10
1771.8043772745
 20
2426.0378238342
 30
0.0
  0
LINE
  5
E2
330
1F
100
AcDbEntity
  8
1
100
AcDbLine
 10
3078.7054135439
 20
2265.5378238342
 30
0.0
 11
2926.0054135439
 21
2265.5378238342
 31
0.0
  0
LINE
  5
E3
330
1F
100
AcDbEntity
  8
1
100
AcDbLine
 10
2888.5054135439
 20
2104.0378238342
 30
0.0
 11
2926.0054135439
 21
2104.0378238342
 31
0.0
  0
LINE
  5
E4
330
1F
100
AcDbEntity
  8
1
100
AcDbLine
 10
2926.0054135439
 20
2142.0378238342
 30
0.0
 11
2888.5054135439
 21
2142.0378238342
 31
0.0
  0
LINE
  5
E5
330
1F
100
AcDbEntity
  8
1
100
AcDbLine
 10
3566.0054135439
 20
1846.0378238342
 30
0.0
 11
3566.0054135439
 21
1809.0378238342
 31
0.0
  0
LINE
  5
E6
330
1F
100
AcDbEntity
  8
1
100
AcDbLine
 10
3601.0054135439
 20
1809.0378238342
 30
0.0
 11
3601.0054135439
 21
1846.0378238342
 31
0.0
  0
LINE
  5
E7
330
1F
100
AcDbEntity
  8
1
100
AcDbLine
 10
2926.0054135439
 20
1846.0378238342
 30
0.0
 11
2926.0054135439
 21
1809.0378238342
 31
0.0
  0
LINE
  5
E8
330
1F
100
AcDbEntity
  8
1
100
AcDbLine
 10
2961.0054135439
 20
1809.0378238342
 30
0.0
 11
2961.0054135439
 21
1846.0378238342
 31
0.0
  0
LINE
  5
E9
330
1F
100
AcDbEntity
  8
1
100
AcDbLine
 10
3638.5054135439
 20
2781.0378238342
 30
0.0
 11
3636.2054135439
 21
2781.0378238342
 31
0.0
  0
LINE
  5
EA
330
1F
100
AcDbEntity
  8
1
100
AcDbLine
 10
3636.2054135439
 20
2071.0378238342
 30
0.0
 11
3638.5054135439
 21
2071.0378238342
 31
0.0
  0
LINE
  5
EB
330
1F
100
AcDbEntity
  8
1
100
AcDbLine
 10
3558.3054135439
 20
2071.0378238342
 30
0.0
 11
3559.5054135439
 21
2071.0378238342
 31
0.0
  0
LINE
  5
EC
330
1F
100
AcDbEntity
  8
1
100
AcDbLine
 10
3559.5054135439
 20
2781.0378238342
 30
0.0
 11
3558.3054135439
 21
2781.0378238342
 31
0.0
  0
LINE
  5
ED
330
1F
100
AcDbEntity
  8
1
100
AcDbLine
 10
3636.2054135439
 20
2743.3378238342
 30
0.0
 11
3559.5054135439
 21
2743.3378238342
 31
0.0
  0
LINE
  5
EE
330
1F
100
AcDbEntity
  8
1
100
AcDbLine
 10
3559.5054135439
 20
2108.7378238342
 30
0.0
 11
3636.2054135439
 21
2108.7378238342
 31
0.0
  0
LINE
  5
EF
330
1F
100
AcDbEntity
  8
1
100
AcDbLine
 10
2945.0054135439
 20
1950.5378238342
 30
0.0
 11
2945.0054135439
 21
1991.0378238342
 31
0.0
  0
LINE
  5
F0
330
1F
100
AcDbEntity
  8
1
100
AcDbLine
 10
3078.7054135439
 20
1991.0378238342
 30
0.0
 11
2945.0054135439
 21
1991.0378238342
 31
0.0
  0
LINE
  5
F1
330
1F
100
AcDbEntity
  8
1
100
AcDbLine
 10
2955.0054135439
 20
1997.6378238342
 30
0.0
 11
2926.0054135439
 21
1997.6378238342
 31
0.0
  0
LINE
  5
F2
330
1F
100
AcDbEntity
  8
1
100
AcDbLine
 10
2926.0054135439
 20
2265.5378238342
 30
0.0
 11
2926.0054135439
 21
1997.6378238342
 31
0.0
  0
LINE
  5
F3
330
1F
100
AcDbEntity
  8
1
100
AcDbLine
 10
2955.0054135439
 20
1991.0378238342
 30
0.0
 11
2955.0054135439
 21
2004.2378238342
 31
0.0
  0
LINE
  5
F4
330
1F
100
AcDbEntity
  8
1
100
AcDbLine
 10
2955.0054135439
 20
2004.2378238342
 30
0.0
 11
3078.7054135439
 21
2004.2378238342
 31
0.0
  0
LINE
  5
F5
330
1F
100
AcDbEntity
  8
1
100
AcDbLine
 10
2728.5054135439
 20
1950.5378238342
 30
0.0
 11
2820.5054135439
 21
1950.5378238342
 31
0.0
  0
LINE
  5
F6
330
1F
100
AcDbEntity
  8
1
100
AcDbLine
 10
2728.5054135439
 20
1950.5378238342
 30
0.0
 11
2728.5054135439
 21
2660.5378238342
 31
0.0
  0
LINE
  5
F7
330
1F
100
AcDbEntity
  8
1
100
AcDbLine
 10
2728.5054135439
 20
2660.5378238342
 30
0.0
 11
2888.5054135439
 21
2660.5378238342
 31
0.0
  0
LINE
  5
F8
330
1F
100
AcDbEntity
  8
1
100
AcDbLine
 10
2888.5054135439
 20
1950.5378238342
 30
0.0
 11
2888.5054135439
 21
2660.5378238342
 31
0.0
  0
LINE
  5
F9
330
1F
100
AcDbEntity
  8
1
100
AcDbLine
 10
2918.505413544
 20
1809.0378238342
 30
0.0
 11
3608.505413544
 21
1809.0378238342
 31
0.0
  0
LINE
  5
FA
330
1F
100
AcDbEntity
  8
1
100
AcDbLine
 10
3608.505413544
 20
1804.0378238342
 30
0.0
 11
3608.505413544
 21
1809.0378238342
 31
0.0
  0
LINE
  5
FB
330
1F
100
AcDbEntity
  8
1
100
AcDbLine
 10
2918.505413544
 20
1804.0378238342
 30
0.0
 11
3608.505413544
 21
1804.0378238342
 31
0.0
  0
LINE
  5
FC
330
1F
100
AcDbEntity
  8
1
100
AcDbLine
 10
2918.505413544
 20
1804.0378238342
 30
0.0
 11
2918.505413544
 21
1809.0378238342
 31
0.0
  0
LINE
  5
FD
330
1F
100
AcDbEntity
  8
1
100
AcDbLine
 10
2918.505413544
 20
1709.0378238342
 30
0.0
 11
2918.505413544
 21
1714.0378238342
 31
0.0
  0
LINE
  5
FE
330
1F
100
AcDbEntity
  8
1
100
AcDbLine
 10
3608.505413544
 20
1709.0378238342
 30
0.0
 11
3608.505413544
 21
1714.0378238342
 31
0.0
  0
LINE
  5
FF
330
1F
100
AcDbEntity
  8
1
100
AcDbLine
 10
3608.505413544
 20
1709.0378238342
 30
0.0
 11
2918.505413544
 21
1709.0378238342
 31
0.0
  0
LINE
  5
100
330
1F
100
AcDbEntity
  8
1
100
AcDbLine
 10
3608.505413544
 20
1714.0378238342
 30
0.0
 11
2918.505413544
 21
1714.0378238342
 31
0.0
  0
LINE
  5
101
330
1F
100
AcDbEntity
  8
1
100
AcDbLine
 10
2963.5054135439
 20
1714.0378238342
 30
0.0
 11
2963.5054135439
 21
1804.0378238342
 31
0.0
  0
LINE
  5
102
330
1F
100
AcDbEntity
  8
1
100
AcDbLine
 10
3563.5054135439
 20
1714.0378238342
 30
0.0
 11
3563.5054135439
 21
1804.0378238342
 31
0.0
  0
LINE
  5
103
330
1F
100
AcDbEntity
  8
1
100
AcDbLine
 10
3608.5054135439
 20
1946.0378238342
 30
0.0
 11
3608.5054135439
 21
1941.0378238342
 31
0.0
  0
LINE
  5
104
330
1F
100
AcDbEntity
  8
1
100
AcDbLine
 10
2918.5054135439
 20
1941.0378238342
 30
0.0
 11
3608.5054135439
 21
1941.0378238342
 31
0.0
  0
LINE
  5
105
330
1F
100
AcDbEntity
  8
1
100
AcDbLine
 10
2918.5054135439
 20
1946.0378238342
 30
0.0
 11
2918.5054135439
 21
1941.0378238342
 31
0.0
  0
LINE
  5
106
330
1F
100
AcDbEntity
  8
1
100
AcDbLine
 10
2918.5054135439
 20
1946.0378238342
 30
0.0
 11
3608.5054135439
 21
1946.0378238342
 31
0.0
  0
LINE
  5
107
330
1F
100
AcDbEntity
  8
1
100
AcDbLine
 10
2918.5054135439
 20
1851.0378238342
 30
0.0
 11
2918.5054135439
 21
1846.0378238342
 31
0.0
  0
LINE
  5
108
330
1F
100
AcDbEntity
  8
1
100
AcDbLine
 10
2918.5054135439
 20
1851.0378238342
 30
0.0
 11
3608.5054135439
 21
1851.0378238342
 31
0.0
  0
LINE
  5
109
330
1F
100
AcDbEntity
  8
1
100
AcDbLine
 10
3608.5054135439
 20
1851.0378238342
 30
0.0
 11
3608.5054135439
 21
1846.0378238342
 31
0.0
  0
LINE
  5
10A
330
1F
100
AcDbEntity
  8
1
100
AcDbLine
 10
2918.5054135439
 20
1846.0378238342
 30
0.0
 11
3608.5054135439
 21
1846.0378238342
 31
0.0
  0
LINE
  5
10B
330
1F
100
AcDbEntity
  8
1
100
AcDbLine
 10
3563.5054135439
 20
1941.0378238342
 30
0.0
 11
3563.5054135439
 21
1851.0378238342
 31
0.0
  0
LINE
  5
10C
330
1F
100
AcDbEntity
  8
1
100
AcDbLine
 10
2963.5054135439
 20
1941.0378238342
 30
0.0
 11
2963.5054135439
 21
1851.0378238342
 31
0.0
  0
LINE
  5
10D
330
1F
100
AcDbEntity
  8
1
100
AcDbLine
 10
2820.5054135439
 20
1950.5378238342
 30
0.0
 11
2820.5054135439
 21
1946.0378238342
 31
0.0
  0
LINE
  5
10E
330
1F
100
AcDbEntity
  8
1
100
AcDbLine
 10
2820.5054135439
 20
1950.5378238342
 30
0.0
 11
2950.5054135439
 21
1950.5378238342
 31
0.0
  0
LINE
  5
10F
330
1F
100
AcDbEntity
  8
1
100
AcDbLine
 10
2950.5054135439
 20
1950.5378238342
 30
0.0
 11
2950.5054135439
 21
1946.0378238342
 31
0.0
  0
LINE
  5
110
330
1F
100
AcDbEntity
  8
1
100
AcDbLine
 10
2820.5054135439
 20
1946.0378238342
 30
0.0
 11
2918.5054135439
 21
1946.0378238342
 31
0.0
  0
LINE
  5
111
330
1F
100
AcDbEntity
  8
1
100
AcDbLine
 10
3078.7054135439
 20
1946.0378238342
 30
0.0
 11
3078.7054135439
 21
2379.0378238342
 31
0.0
  0
LINE
  5
112
330
1F
100
AcDbEntity
  8
1
100
AcDbLine
 10
3558.3054135439
 20
1946.0378238342
 30
0.0
 11
3558.3054135439
 21
2379.0378238342
 31
0.0
  0
LINE
  5
113
330
1F
100
AcDbEntity
  8
1
100
AcDbLine
 10
3078.7054135439
 20
2379.0378238342
 30
0.0
 11
3078.7054135439
 21
2388.0378238342
 31
0.0
  0
LINE
  5
114
330
1F
100
AcDbEntity
  8
1
100
AcDbLine
 10
3558.3054135439
 20
2379.0378238342
 30
0.0
 11
3558.3054135439
 21
2388.0378238342
 31
0.0
  0
LINE
  5
115
330
1F
100
AcDbEntity
  8
1
100
AcDbLine
 10
3078.7054135439
 20
2388.0378238342
 30
0.0
 11
3078.7054135439
 21
2805.2378238342
 31
0.0
  0
LINE
  5
116
330
1F
100
AcDbEntity
  8
1
100
AcDbLine
 10
3078.7054135439
 20
2805.2378238342
 30
0.0
 11
3558.3054135439
 21
2805.2378238342
 31
0.0
  0
LINE
  5
117
330
1F
100
AcDbEntity
  8
1
100
AcDbLine
 10
3558.3054135439
 20
2388.0378238342
 30
0.0
 11
3558.3054135439
 21
2805.2378238342
 31
0.0
  0
LINE
  5
118
330
1F
100
AcDbEntity
  8
1
100
AcDbLine
 10
3636.2054135439
 20
2781.0378238342
 30
0.0
 11
3636.2054135439
 21
2071.0378238342
 31
0.0
  0
LINE
  5
119
330
1F
100
AcDbEntity
  8
1
100
AcDbLine
 10
3638.5054135439
 20
2781.0378238342
 30
0.0
 11
3638.5054135439
 21
2071.0378238342
 31
0.0
  0
LINE
  5
11A
330
1F
100
AcDbEntity
  8
1
100
AcDbLine
 10
3559.5054135439
 20
2071.0378238342
 30
0.0
 11
3559.5054135439
 21
2781.0378238342
 31
0.0
  0
LINE
  5
11B
330
1F
100
AcDbEntity
  8
1
100
AcDbLine
 10
3598.5054135439
 20
2883.0378238342
 30
0.0
 11
3598.5054135439
 21
2886.0378238342
 31
0.0
  0
LINE
  5
11C
330
1F
100
AcDbEntity
  8
1
100
AcDbLine
 10
3038.5054135439
 20
2883.0378238342
 30
0.0
 11
3038.5054135439
 21
2886.0378238342
 31
0.0
  0
LINE
  5
11D
330
1F
100
AcDbEntity
  8
1
100
AcDbLine
 10
3038.5054135439
 20
2886.0378238342
 30
0.0
 11
3598.5054135439
 21
2886.0378238342
 31
0.0
  0
LINE
  5
11E
330
1F
100
AcDbEntity
  8
1
100
AcDbLine
 10
3038.5054135439
 20
2883.0378238342
 30
0.0
 11
3598.5054135439
 21
2883.0378238342
 31
0.0
  0
LINE
  5
11F
330
1F
100
AcDbEntity
  8
1
100
AcDbLine
 10
3078.7054135439
 20
2805.2378238342
 30
0.0
 11
3078.7054135439
 21
2883.0378238342
 31
0.0
  0
LINE
  5
120
330
1F
100
AcDbEntity
  8
1
100
AcDbLine
 10
3558.3054135439
 20
2805.2378238342
 30
0.0
 11
3558.3054135439
 21
2883.0378238342
 31
0.0
  0
LINE
  5
121
330
1F
100
AcDbEntity
  8
0
  6
HIDDEN
 62
     7
370
    18
100
AcDbLine
 10
3225.0054135439
 20
1946.0378238342
 30
0.0
 11
3225.0054135439
 21
1991.0378238342
 31
0.0
  0
LINE
  5
122
330
1F
100
AcDbEntity
  8
0
  6
HIDDEN
 62
     7
370
    18
100
AcDbLine
 10
2945.0054135439
 20
1946.0378238342
 30
0.0
 11
2945.0054135439
 21
1950.5378238342
 31
0.0
  0
LINE
  5
123
330
1F
100
AcDbEntity
  8
0
  6
HIDDEN
 62
     7
370
    18
100
AcDbLine
 10
3225.0054135439
 20
1991.0378238342
 30
0.0
 11
3078.7054135439
 21
1991.0378238342
 31
0.0
  0
LINE
  5
124
330
1F
100
AcDbEntity
  8
0
  6
HIDDEN
 62
     7
370
    18
100
AcDbLine
 10
3295.5054135439
 20
1997.6378238342
 30
0.0
 11
3295.5054135439
 21
2265.5378238342
 31
0.0
  0
LINE
  5
125
330
1F
100
AcDbEntity
  8
0
  6
HIDDEN
 62
     7
370
    18
100
AcDbLine
 10
3295.5054135439
 20
1997.6378238342
 30
0.0
 11
3215.0054135439
 21
1997.6378238342
 31
0.0
  0
LINE
  5
126
330
1F
100
AcDbEntity
  8
0
  6
HIDDEN
 62
     7
370
    18
100
AcDbLine
 10
3215.0054135439
 20
1991.0378238342
 30
0.0
 11
3215.0054135439
 21
2004.2378238342
 31
0.0
  0
LINE
  5
127
330
1F
100
AcDbEntity
  8
0
  6
HIDDEN
 62
     7
370
    18
100
AcDbLine
 10
3078.7054135439
 20
2004.2378238342
 30
0.0
 11
3215.0054135439
 21
2004.2378238342
 31
0.0
  0
LINE
  5
128
330
1F
100
AcDbEntity
  8
0
  6
HIDDEN
 62
     7
370
    18
100
AcDbLine
 10
2771.0054135439
 20
2048.2771958316
 30
0.0
 11
2771.0054135439
 21
2048.0378238342
 31
0.0
  0
LINE
  5
129
330
1F
100
AcDbEntity
  8
0
  6
HIDDEN
 62
     7
370
    18
100
AcDbLine
 10
2771.0054135439
 20
2198.0378238342
 30
0.0
 11
2771.0054135439
 21
2048.2771958316
 31
0.0
  0
LINE
  5
12A
330
1F
100
AcDbEntity
  8
0
  6
HIDDEN
 62
     7
370
    18
100
AcDbLine
 10
2846.0054135439
 20
2048.2771958316
 30
0.0
 11
2846.0054135439
 21
2048.0378238342
 31
0.0
  0
LINE
  5
12B
330
1F
100
AcDbEntity
  8
0
  6
HIDDEN
 62
     7
370
    18
100
AcDbLine
 10
2846.0054135439
 20
2198.0378238342
 30
0.0
 11
2846.0054135439
 21
2048.2771958316
 31
0.0
  0
LINE
  5
12C
330
1F
100
AcDbEntity
  8
0
  6
HIDDEN
 62
     7
370
    18
100
AcDbLine
 10
2771.0054135439
 20
2537.7709723581
 30
0.0
 11
2771.0054135439
 21
2313.5378238342
 31
0.0
  0
LINE
  5
12D
330
1F
100
AcDbEntity
  8
0
  6
HIDDEN
 62
     7
370
    18
100
AcDbLine
 10
2771.0054135439
 20
2538.5378238342
 30
0.0
 11
2771.0054135439
 21
2537.7709723581
 31
0.0
  0
LINE
  5
12E
330
1F
100
AcDbEntity
  8
0
  6
HIDDEN
 62
     7
370
    18
100
AcDbLine
 10
2846.0054135439
 20
2537.7709723581
 30
0.0
 11
2846.0054135439
 21
2313.5378238342
 31
0.0
  0
LINE
  5
12F
330
1F
100
AcDbEntity
  8
0
  6
HIDDEN
 62
     7
370
    18
100
AcDbLine
 10
2846.0054135439
 20
2538.5378238342
 30
0.0
 11
2846.0054135439
 21
2537.7709723581
 31
0.0
  0
LINE
  5
130
330
1F
100
AcDbEntity
  8
0
  6
HIDDEN
 62
     7
370
    18
100
AcDbLine
 10
2728.5054135439
 20
2305.5378238342
 30
0.0
 11
2888.5054135439
 21
2305.5378238342
 31
0.0
  0
LINE
  5
131
330
1F
100
AcDbEntity
  8
0
  6
HIDDEN
 62
     7
370
    18
100
AcDbLine
 10
3558.5054135439
 20
1709.0378238342
 30
0.0
 11
3558.5054135439
 21
1809.0378238342
 31
0.0
  0
LINE
  5
132
330
1F
100
AcDbEntity
  8
0
  6
HIDDEN
 62
     7
370
    18
100
AcDbLine
 10
2968.5054135439
 20
1709.0378238342
 30
0.0
 11
2968.5054135439
 21
1809.0378238342
 31
0.0
  0
LINE
  5
133
330
1F
100
AcDbEntity
  8
0
  6
HIDDEN
 62
     7
370
    18
100
AcDbLine
 10
3558.5054135439
 20
1946.0378238342
 30
0.0
 11
3558.5054135439
 21
1846.0378238342
 31
0.0
  0
LINE
  5
134
330
1F
100
AcDbEntity
  8
0
  6
HIDDEN
 62
     7
370
    18
100
AcDbLine
 10
2968.5054135439
 20
1946.0378238342
 30
0.0
 11
2968.5054135439
 21
1846.0378238342
 31
0.0
  0
LINE
  5
135
330
1F
100
AcDbEntity
  8
0
  6
HIDDEN
 62
     7
370
    18
100
AcDbLine
 10
3078.7054135439
 20
1876.8378238342
 30
0.0
 11
3558.3054135439
 21
1876.8378238342
 31
0.0
  0
LINE
  5
136
330
1F
100
AcDbEntity
  8
0
  6
HIDDEN
 62
     7
370
    18
100
AcDbLine
 10
3078.7054135439
 20
1876.8378238342
 30
0.0
 11
3078.7054135439
 21
1946.0378238342
 31
0.0
  0
LINE
  5
137
330
1F
100
AcDbEntity
  8
0
  6
HIDDEN
 62
     7
370
    18
100
AcDbLine
 10
3558.3054135439
 20
1876.8378238342
 30
0.0
 11
3558.3054135439
 21
1946.0378238342
 31
0.0
  0
LINE
  5
138
330
1F
100
AcDbEntity
  8
0
  6
HIDDEN
 62
     7
370
    18
100
AcDbLine
 10
3081.0054135439
 20
1878.0378238342
 30
0.0
 11
3081.0054135439
 21
2379.0378238342
 31
0.0
  0
LINE
  5
139
330
1F
100
AcDbEntity
  8
0
  6
HIDDEN
 62
     7
370
    18
100
AcDbLine
 10
3081.0054135439
 20
1878.0378238342
 30
0.0
 11
3556.0054135439
 21
1878.0378238342
 31
0.0
  0
LINE
  5
13A
330
1F
100
AcDbEntity
  8
0
  6
HIDDEN
 62
     7
370
    18
100
AcDbLine
 10
3556.0054135439
 20
1878.0378238342
 30
0.0
 11
3556.0054135439
 21
2379.0378238342
 31
0.0
  0
LINE
  5
13B
330
1F
100
AcDbEntity
  8
0
  6
HIDDEN
 62
     7
370
    18
100
AcDbLine
 10
3556.0054135439
 20
2379.0378238342
 30
0.0
 11
3556.0054135439
 21
2388.0378238342
 31
0.0
  0
LINE
  5
13C
330
1F
100
AcDbEntity
  8
0
  6
HIDDEN
 62
     7
370
    18
100
AcDbLine
 10
3081.0054135439
 20
2804.0378238342
 30
0.0
 11
3556.0054135439
 21
2804.0378238342
 31
0.0
  0
LINE
  5
13D
330
1F
100
AcDbEntity
  8
0
  6
HIDDEN
 62
     7
370
    18
100
AcDbLine
 10
3081.0054135439
 20
2388.0378238342
 30
0.0
 11
3081.0054135439
 21
2804.0378238342
 31
0.0
  0
LINE
  5
13E
330
1F
100
AcDbEntity
  8
0
  6
HIDDEN
 62
     7
370
    18
100
AcDbLine
 10
3556.0054135439
 20
2388.0378238342
 30
0.0
 11
3556.0054135439
 21
2804.0378238342
 31
0.0
  0
LINE
  5
13F
330
1F
100
AcDbEntity
  8
0
  6
HIDDEN
 62
     7
370
    18
100
AcDbLine
 10
3081.0054135439
 20
2379.0378238342
 30
0.0
 11
3081.0054135439
 21
2388.0378238342
 31
0.0
  0
LINE
  5
140
330
1F
100
AcDbEntity
  8
0
  6
HIDDEN
 62
     7
370
    18
100
AcDbLine
 10
3081.0054135439
 20
2804.0378238342
 30
0.0
 11
3081.0054135439
 21
2886.0378238342
 31
0.0
  0
LINE
  5
141
330
1F
100
AcDbEntity
  8
0
  6
HIDDEN
 62
     7
370
    18
100
AcDbLine
 10
3556.0054135439
 20
2804.0378238342
 30
0.0
 11
3556.0054135439
 21
2886.0378238342
 31
0.0
  0
LINE
  5
142
330
1F
100
AcDbEntity
  8
0
  6
HIDDEN
 62
     7
370
    18
100
AcDbLine
 10
3295.5054135439
 20
2265.5378238342
 30
0.0
 11
3078.7054135439
 21
2265.5378238342
 31
0.0
  0
LINE
  5
143
330
1F
100
AcDbEntity
  8
0
  6
HIDDEN
 62
     7
370
    18
100
AcDbLine
 10
2846.0054135439
 20
2104.0378238342
 30
0.0
 11
2888.5054135439
 21
2104.0378238342
 31
0.0
  0
LINE
  5
144
330
1F
100
AcDbEntity
  8
0
  6
HIDDEN
 62
     7
370
    18
100
AcDbLine
 10
2888.5054135439
 20
2142.0378238342
 30
0.0
 11
2846.0054135439
 21
2142.0378238342
 31
0.0
  0
LINE
  5
145
330
1F
100
AcDbEntity
  8
0
  6
HIDDEN
 62
     7
370
    18
100
AcDbLine
 10
2771.0054135439
 20
2048.0378238342
 30
0.0
 11
2846.0054135439
 21
2048.0378238342
 31
0.0
  0
LINE
  5
146
330
1F
100
AcDbEntity
  8
0
  6
HIDDEN
 62
     7
370
    18
100
AcDbLine
 10
2846.0054135439
 20
2198.0378238342
 30
0.0
 11
2771.0054135439
 21
2198.0378238342
 31
0.0
  0
LINE
  5
147
330
1F
100
AcDbEntity
  8
0
  6
HIDDEN
 62
     7
370
    18
100
AcDbLine
 10
2771.0054135439
 20
2313.5378238342
 30
0.0
 11
2846.0054135439
 21
2313.5378238342
 31
0.0
  0
LINE
  5
148
330
1F
100
AcDbEntity
  8
0
  6
HIDDEN
 62
     7
370
    18
100
AcDbLine
 10
2846.0054135439
 20
2538.5378238342
 30
0.0
 11
2771.0054135439
 21
2538.5378238342
 31
0.0
  0
LINE
  5
149
330
1F
100
AcDbEntity
  8
0
  6
HIDDEN
 62
     7
370
    18
100
AcDbLine
 10
3591.0054135439
 20
1709.0378238342
 30
0.0
 11
3591.0054135439
 21
1714.0378238342
 31
0.0
  0
LINE
  5
14A
330
1F
100
AcDbEntity
  8
0
  6
HIDDEN
 62
     7
370
    18
100
AcDbLine
 10
3576.0054135439
 20
1714.0378238342
 30
0.0
 11
3576.0054135439
 21
1709.0378238342
 31
0.0
  0
LINE
  5
14B
330
1F
100
AcDbEntity
  8
0
  6
HIDDEN
 62
     7
370
    18
100
AcDbLine
 10
2951.0054135439
 20
1709.0378238342
 30
0.0
 11
2951.0054135439
 21
1714.0378238342
 31
0.0
  0
LINE
  5
14C
330
1F
100
AcDbEntity
  8
0
  6
HIDDEN
 62
     7
370
    18
100
AcDbLine
 10
2936.0054135439
 20
1714.0378238342
 30
0.0
 11
2936.0054135439
 21
1709.0378238342
 31
0.0
  0
LINE
  5
14D
330
1F
100
AcDbEntity
  8
0
  6
HIDDEN
 62
     7
370
    18
100
AcDbLine
 10
3638.5054135439
 20
2518.3892515563
 30
0.0
 11
3636.2054135439
 21
2518.3892515563
 31
0.0
  0
LINE
  5
14E
330
1F
100
AcDbEntity
  8
0
  6
HIDDEN
 62
     7
370
    18
100
AcDbLine
 10
3636.2054135439
 20
2508.3892515563
 30
0.0
 11
3638.5054135439
 21
2508.3892515563
 31
0.0
  0
LINE
  5
14F
330
1F
100
AcDbEntity
  8
0
  6
HIDDEN
 62
     7
370
    18
100
AcDbLine
 10
3638.5054135439
 20
2343.6863961121
 30
0.0
 11
3636.2054135439
 21
2343.6863961121
 31
0.0
  0
LINE
  5
150
330
1F
100
AcDbEntity
  8
0
  6
HIDDEN
 62
     7
370
    18
100
AcDbLine
 10
3636.2054135439
 20
2333.6863961121
 30
0.0
 11
3638.5054135439
 21
2333.6863961121
 31
0.0
  0
LINE
  5
151
330
1F
100
AcDbEntity
  8
0
  6
HIDDEN
 62
     7
370
    18
100
AcDbLine
 10
3556.0054135439
 20
2111.0378238342
 30
0.0
 11
3638.5054135439
 21
2111.0378238342
 31
0.0
  0
LINE
  5
152
330
1F
100
AcDbEntity
  8
0
  6
HIDDEN
 62
     7
370
    18
100
AcDbLine
 10
3638.5054135439
 20
2741.0378238342
 30
0.0
 11
3556.0054135439
 21
2741.0378238342
 31
0.0
  0
LINE
  5
153
330
1F
100
AcDbEntity
  8
0
  6
HIDDEN
 62
     7
370
    18
100
AcDbLine
 10
3638.5054135439
 20
2669.6863624847
 30
0.0
 11
3636.2054135439
 21
2669.6863624847
 31
0.0
  0
LINE
  5
154
330
1F
100
AcDbEntity
  8
0
  6
HIDDEN
 62
     7
370
    18
100
AcDbLine
 10
3636.2054135439
 20
2659.6863624847
 30
0.0
 11
3638.5054135439
 21
2659.6863624847
 31
0.0
  0
LINE
  5
155
330
1F
100
AcDbEntity
  8
0
  6
HIDDEN
 62
     7
370
    18
100
AcDbLine
 10
3638.5054135439
 20
2192.3892851837
 30
0.0
 11
3636.2054135439
 21
2192.3892851837
 31
0.0
  0
LINE
  5
156
330
1F
100
AcDbEntity
  8
0
  6
HIDDEN
 62
     7
370
    18
100
AcDbLine
 10
3636.2054135439
 20
2182.3892851837
 30
0.0
 11
3638.5054135439
 21
2182.3892851837
 31
0.0
  0
LINE
  5
157
330
1F
100
AcDbEntity
  8
0
  6
HIDDEN
 62
     7
370
    18
100
AcDbLine
 10
3638.5054135439
 20
2757.0377902068
 30
0.0
 11
3636.2054135439
 21
2757.0377902068
 31
0.0
  0
LINE
  5
158
330
1F
100
AcDbEntity
  8
0
  6
HIDDEN
 62
     7
370
    18
100
AcDbLine
 10
3636.2054135439
 20
2747.0377902068
 30
0.0
 11
3638.5054135439
 21
2747.0377902068
 31
0.0
  0
LINE
  5
159
330
1F
100
AcDbEntity
  8
0
  6
HIDDEN
 62
     7
370
    18
100
AcDbLine
 10
3638.5054135439
 20
2105.0378574616
 30
0.0
 11
3636.2054135439
 21
2105.0378574616
 31
0.0
  0
LINE
  5
15A
330
1F
100
AcDbEntity
  8
0
  6
HIDDEN
 62
     7
370
    18
100
AcDbLine
 10
3636.2054135439
 20
2095.0378574616
 30
0.0
 11
3638.5054135439
 21
2095.0378574616
 31
0.0
  0
LINE
  5
15B
330
1F
100
AcDbEntity
  8
0
  6
HIDDEN
 62
     7
370
    18
100
AcDbLine
 10
3575.5054135439
 20
2886.0378238342
 30
0.0
 11
3575.5054135439
 21
2883.0378238342
 31
0.0
  0
LINE
  5
15C
330
1F
100
AcDbEntity
  8
0
  6
HIDDEN
 62
     7
370
    18
100
AcDbLine
 10
3585.5054135439
 20
2883.0378238342
 30
0.0
 11
3585.5054135439
 21
2886.0378238342
 31
0.0
  0
LINE
  5
15D
330
1F
100
AcDbEntity
  8
0
  6
HIDDEN
 62
     7
370
    18
100
AcDbLine
 10
3413.5054135439
 20
2886.0378238342
 30
0.0
 11
3413.5054135439
 21
2883.0378238342
 31
0.0
  0
LINE
  5
15E
330
1F
100
AcDbEntity
  8
0
  6
HIDDEN
 62
     7
370
    18
100
AcDbLine
 10
3423.5054135439
 20
2883.0378238342
 30
0.0
 11
3423.5054135439
 21
2886.0378238342
 31
0.0
  0
LINE
  5
15F
330
1F
100
AcDbEntity
  8
0
  6
HIDDEN
 62
     7
370
    18
100
AcDbLine
 10
3213.5054135439
 20
2886.0378238342
 30
0.0
 11
3213.5054135439
 21
2883.0378238342
 31
0.0
  0
LINE
  5
160
330
1F
100
AcDbEntity
  8
0
  6
HIDDEN
 62
     7
370
    18
100
AcDbLine
 10
3223.5054135439
 20
2883.0378238342
 30
0.0
 11
3223.5054135439
 21
2886.0378238342
 31
0.0
  0
LINE
  5
161
330
1F
100
AcDbEntity
  8
0
  6
HIDDEN
 62
     7
370
    18
100
AcDbLine
 10
3051.5054135439
 20
2886.0378238342
 30
0.0
 11
3051.5054135439
 21
2883.0378238342
 31
0.0
  0
LINE
  5
162
330
1F
100
AcDbEntity
  8
0
  6
HIDDEN
 62
     7
370
    18
100
AcDbLine
 10
3061.5054135439
 20
2883.0378238342
 30
0.0
 11
3061.5054135439
 21
2886.0378238342
 31
0.0
  0
LINE
  5
163
330
1F
100
AcDbEntity
  8
2
100
AcDbLine
 10
2804.8314320692
 20
2426.0378238342
 30
0.0
 11
3568.757163435
 21
2426.0378238342
 31
0.0
  0
LINE
  5
164
330
1F
100
AcDbEntity
  8
2
100
AcDbLine
 10
3318.5054135439
 20
1940.5747706784
 30
0.0
 11
3318.5054135439
 21
2826.8865365266
 31
0.0
  0
LINE
  5
165
330
1F
100
AcDbEntity
  8
1
100
AcDbLine
 10
1089.3043772745
 20
3720.7134425666
 30
0.0
 11
1089.3043772745
 21
3833.2134425666
 31
0.0
  0
LINE
  5
166
330
1F
100
AcDbEntity
  8
1
100
AcDbLine
 10
804.3043772745
 20
4090.2134425666
 30
0.0
 11
804.3043772745
 21
3720.7134425666
 31
0.0
  0
LINE
  5
167
330
1F
100
AcDbEntity
  8
1
100
AcDbLine
 10
965.8043772745
 20
3683.2134425666
 30
0.0
 11
965.8043772745
 21
3720.7134425666
 31
0.0
  0
LINE
  5
168
330
1F
100
AcDbEntity
  8
1
100
AcDbLine
 10
927.8043772745
 20
3720.7134425666
 30
0.0
 11
927.8043772745
 21
3683.2134425666
 31
0.0
  0
LINE
  5
169
330
1F
100
AcDbEntity
  8
1
100
AcDbLine
 10
1416.8043772745
 20
4433.2134425666
 30
0.0
 11
1416.8043772745
 21
4430.9134425666
 31
0.0
  0
LINE
  5
16A
330
1F
100
AcDbEntity
  8
1
100
AcDbLine
 10
2126.8043772745
 20
4430.9134425666
 30
0.0
 11
2126.8043772745
 21
4433.2134425666
 31
0.0
  0
LINE
  5
16B
330
1F
100
AcDbEntity
  8
1
100
AcDbLine
 10
2126.8043772745
 20
4353.0134425666
 30
0.0
 11
2126.8043772745
 21
4354.2134425666
 31
0.0
  0
LINE
  5
16C
330
1F
100
AcDbEntity
  8
1
100
AcDbLine
 10
1454.5043772745
 20
4430.9134425666
 30
0.0
 11
1454.5043772745
 21
4393.2134425666
 31
0.0
  0
LINE
  5
16D
330
1F
100
AcDbEntity
  8
1
100
AcDbLine
 10
2089.1043772745
 20
4354.2134425666
 30
0.0
 11
2089.1043772745
 21
4430.9134425666
 31
0.0
  0
LINE
  5
16E
330
1F
100
AcDbEntity
  8
1
100
AcDbLine
 10
804.3043772745
 20
3720.7134425666
 30
0.0
 11
1089.3043772745
 21
3720.7134425666
 31
0.0
  0
LINE
  5
16F
330
1F
100
AcDbEntity
  8
1
100
AcDbLine
 10
1051.8043772745
 20
4090.2134425666
 30
0.0
 11
804.3043772745
 21
4090.2134425666
 31
0.0
  0
LINE
  5
170
330
1F
100
AcDbEntity
  8
1
100
AcDbLine
 10
1121.8043772745
 20
3739.7134425666
 30
0.0
 11
1089.3043772745
 21
3739.7134425666
 31
0.0
  0
LINE
  5
171
330
1F
100
AcDbEntity
  8
1
100
AcDbLine
 10
804.3043772745
 20
3739.7134425666
 30
0.0
 11
771.8043772745
 21
3739.7134425666
 31
0.0
  0
LINE
  5
172
330
1F
100
AcDbEntity
  8
1
100
AcDbLine
 10
771.8043772745
 20
3739.7134425666
 30
0.0
 11
771.8043772745
 21
4019.7134425666
 31
0.0
  0
LINE
  5
173
330
1F
100
AcDbEntity
  8
1
100
AcDbLine
 10
771.8043772745
 20
4019.7134425666
 30
0.0
 11
804.3043772745
 21
4019.7134425666
 31
0.0
  0
LINE
  5
174
330
1F
100
AcDbEntity
  8
1
100
AcDbLine
 10
1121.8043772745
 20
3833.2134425666
 30
0.0
 11
1121.8043772745
 21
3739.7134425666
 31
0.0
  0
LINE
  5
175
330
1F
100
AcDbEntity
  8
1
100
AcDbLine
 10
2021.8043772745
 20
3523.2134425666
 30
0.0
 11
2021.8043772745
 21
3683.2134425666
 31
0.0
  0
LINE
  5
176
330
1F
100
AcDbEntity
  8
1
100
AcDbLine
 10
2021.8043772745
 20
3523.2134425666
 30
0.0
 11
1756.8043772745
 21
3523.2134425666
 31
0.0
  0
LINE
  5
177
330
1F
100
AcDbEntity
  8
1
100
AcDbLine
 10
1756.8043772745
 20
3523.2134425666
 30
0.0
 11
1756.8043772745
 21
3683.2134425666
 31
0.0
  0
LINE
  5
178
330
1F
100
AcDbEntity
  8
1
100
AcDbLine
 10
2021.8043772745
 20
3683.2134425666
 30
0.0
 11
1756.8043772745
 21
3683.2134425666
 31
0.0
  0
LINE
  5
179
330
1F
100
AcDbEntity
  8
1
100
AcDbLine
 10
1756.8043772745
 20
3523.2134425666
 30
0.0
 11
771.8043772745
 21
3523.2134425666
 31
0.0
  0
LINE
  5
17A
330
1F
100
AcDbEntity
  8
1
100
AcDbLine
 10
771.8043772745
 20
3523.2134425666
 30
0.0
 11
771.8043772745
 21
3683.2134425666
 31
0.0
  0
LINE
  5
17B
330
1F
100
AcDbEntity
  8
1
100
AcDbLine
 10
1756.8043772745
 20
3683.2134425666
 30
0.0
 11
771.8043772745
 21
3683.2134425666
 31
0.0
  0
LINE
  5
17C
330
1F
100
AcDbEntity
  8
1
100
AcDbLine
 10
771.8043772745
 20
3745.2134425666
 30
0.0
 11
686.8043772745
 21
3745.2134425666
 31
0.0
  0
LINE
  5
17D
330
1F
100
AcDbEntity
  8
1
100
AcDbLine
 10
836.8043772745
 20
3683.2134425666
 30
0.0
 11
836.8043772745
 21
3720.7134425666
 31
0.0
  0
LINE
  5
17E
330
1F
100
AcDbEntity
  8
1
100
AcDbLine
 10
686.8043772745
 20
3615.2134425666
 30
0.0
 11
771.8043772745
 21
3615.2134425666
 31
0.0
  0
LINE
  5
17F
330
1F
100
AcDbEntity
  8
1
100
AcDbLine
 10
686.8043772745
 20
3745.2134425666
 30
0.0
 11
686.8043772745
 21
3615.2134425666
 31
0.0
  0
LINE
  5
180
330
1F
100
AcDbEntity
  8
1
100
AcDbLine
 10
2106.8043772745
 20
3745.2134425666
 30
0.0
 11
1956.8043772745
 21
3745.2134425666
 31
0.0
  0
LINE
  5
181
330
1F
100
AcDbEntity
  8
1
100
AcDbLine
 10
2106.8043772745
 20
3615.2134425666
 30
0.0
 11
2106.8043772745
 21
3745.2134425666
 31
0.0
  0
LINE
  5
182
330
1F
100
AcDbEntity
  8
1
100
AcDbLine
 10
2021.8043772745
 20
3615.2134425666
 30
0.0
 11
2106.8043772745
 21
3615.2134425666
 31
0.0
  0
LINE
  5
183
330
1F
100
AcDbEntity
  8
1
100
AcDbLine
 10
1956.8043772745
 20
3745.2134425666
 30
0.0
 11
1956.8043772745
 21
3683.2134425666
 31
0.0
  0
LINE
  5
184
330
1F
100
AcDbEntity
  8
1
100
AcDbLine
 10
2106.8043772745
 20
3713.2134425666
 30
0.0
 11
2171.8043772745
 21
3713.2134425666
 31
0.0
  0
LINE
  5
185
330
1F
100
AcDbEntity
  8
1
100
AcDbLine
 10
836.8043772745
 20
3713.2134425666
 30
0.0
 11
927.8043772745
 21
3713.2134425666
 31
0.0
  0
LINE
  5
186
330
1F
100
AcDbEntity
  8
1
100
AcDbLine
 10
965.8043772745
 20
3713.2134425666
 30
0.0
 11
1956.8043772745
 21
3713.2134425666
 31
0.0
  0
LINE
  5
187
330
1F
100
AcDbEntity
  8
1
100
AcDbLine
 10
1121.8043772745
 20
3763.2134425666
 30
0.0
 11
2121.8043772745
 21
3763.2134425666
 31
0.0
  0
LINE
  5
188
330
1F
100
AcDbEntity
  8
1
100
AcDbLine
 10
2121.8043772745
 20
3763.2134425666
 30
0.0
 11
2121.8043772745
 21
3873.4134425666
 31
0.0
  0
LINE
  5
189
330
1F
100
AcDbEntity
  8
1
100
AcDbLine
 10
1051.8043772745
 20
4353.2134425666
 30
0.0
 11
821.8043772745
 21
4353.2134425666
 31
0.0
  0
LINE
  5
18A
330
1F
100
AcDbEntity
  8
1
100
AcDbLine
 10
821.8043772745
 20
4353.2134425666
 30
0.0
 11
821.8043772745
 21
4090.2134425666
 31
0.0
  0
LINE
  5
18B
330
1F
100
AcDbEntity
  8
1
100
AcDbLine
 10
2171.8043772745
 20
4403.2134425666
 30
0.0
 11
2089.1043772745
 21
4403.2134425666
 31
0.0
  0
LINE
  5
18C
330
1F
100
AcDbEntity
  8
1
100
AcDbLine
 10
1454.5043772745
 20
4403.2134425666
 30
0.0
 11
771.8043772745
 21
4403.2134425666
 31
0.0
  0
LINE
  5
18D
330
1F
100
AcDbEntity
  8
1
100
AcDbLine
 10
771.8043772745
 20
4403.2134425666
 30
0.0
 11
771.8043772745
 21
4019.7134425666
 31
0.0
  0
LINE
  5
18E
330
1F
100
AcDbEntity
  8
1
100
AcDbLine
 10
2171.8043772745
 20
3713.2134425666
 30
0.0
 11
2171.8043772745
 21
3873.4134425666
 31
0.0
  0
LINE
  5
18F
330
1F
100
AcDbEntity
  8
1
100
AcDbLine
 10
2171.8043772745
 20
4353.0134425666
 30
0.0
 11
2171.8043772745
 21
4403.2134425666
 31
0.0
  0
CIRCLE
  5
190
330
1F
100
AcDbEntity
  8
1
100
AcDbCircle
 10
1069.8043772745
 20
3851.2134425666
 30
0.0
 40
5.0
  0
CIRCLE
  5
191
330
1F
100
AcDbEntity
  8
1
100
AcDbCircle
 10
1069.8043772745
 20
4013.2134425666
 30
0.0
 40
5.0
  0
CIRCLE
  5
192
330
1F
100
AcDbEntity
  8
1
100
AcDbCircle
 10
1218.8043772745
 20
3851.2134425666
 30
0.0
 40
5.0
  0
CIRCLE
  5
193
330
1F
100
AcDbEntity
  8
1
100
AcDbCircle
 10
1418.8043772745
 20
3851.2134425666
 30
0.0
 40
5.0
  0
CIRCLE
  5
194
330
1F
100
AcDbEntity
  8
1
100
AcDbCircle
 10
1418.8043772745
 20
4375.2134425666
 30
0.0
 40
5.0
  0
CIRCLE
  5
195
330
1F
100
AcDbEntity
  8
1
100
AcDbCircle
 10
1069.8043772745
 20
4213.2134425666
 30
0.0
 40
5.0
  0
CIRCLE
  5
196
330
1F
100
AcDbEntity
  8
1
100
AcDbCircle
 10
1069.8043772745
 20
4375.2134425666
 30
0.0
 40
5.0
  0
CIRCLE
  5
197
330
1F
100
AcDbEntity
  8
1
100
AcDbCircle
 10
1767.8043772745
 20
4375.2134425666
 30
0.0
 40
5.0
  0
CIRCLE
  5
198
330
1F
100
AcDbEntity
  8
1
100
AcDbCircle
 10
1767.8043772745
 20
4213.2134425666
 30
0.0
 40
5.0
  0
CIRCLE
  5
199
330
1F
100
AcDbEntity
  8
1
100
AcDbCircle
 10
1618.8043772745
 20
4375.2134425666
 30
0.0
 40
5.0
  0
CIRCLE
  5
19A
330
1F
100
AcDbEntity
  8
1
100
AcDbCircle
 10
1618.8043772745
 20
3851.2134425666
 30
0.0
 40
5.0
  0
CIRCLE
  5
19B
330
1F
100
AcDbEntity
  8
1
100
AcDbCircle
 10
1767.8043772745
 20
4013.2134425666
 30
0.0
 40
5.0
  0
LINE
  5
19C
330
1F
100
AcDbEntity
  8
1
100
AcDbLine
 10
1051.8043772745
 20
4393.2134425666
 30
0.0
 11
1051.8043772745
 21
3833.2134425666
 31
0.0
  0
LINE
  5
19D
330
1F
100
AcDbEntity
  8
1
100
AcDbLine
 10
1785.8043772745
 20
4393.2134425666
 30
0.0
 11
1051.8043772745
 21
4393.2134425666
 31
0.0
  0
LINE
  5
19E
330
1F
100
AcDbEntity
  8
1
100
AcDbLine
 10
1051.8043772745
 20
3833.2134425666
 30
0.0
 11
1785.8043772745
 21
3833.2134425666
 31
0.0
  0
LINE
  5
19F
330
1F
100
AcDbEntity
  8
1
100
AcDbLine
 10
1093.8043772745
 20
3875.7134425666
 30
0.0
 11
1093.8043772745
 21
4350.7134425666
 31
0.0
  0
LINE
  5
1A0
330
1F
100
AcDbEntity
  8
1
100
AcDbLine
 10
1743.8043772745
 20
3875.7134425666
 30
0.0
 11
1093.8043772745
 21
3875.7134425666
 31
0.0
  0
LINE
  5
1A1
330
1F
100
AcDbEntity
  8
1
100
AcDbLine
 10
1743.8043772745
 20
3875.7134425666
 30
0.0
 11
1743.8043772745
 21
4350.7134425666
 31
0.0
  0
LINE
  5
1A2
330
1F
100
AcDbEntity
  8
1
100
AcDbLine
 10
1743.8043772745
 20
4350.7134425666
 30
0.0
 11
1093.8043772745
 21
4350.7134425666
 31
0.0
  0
CIRCLE
  5
1A3
330
1F
100
AcDbEntity
  8
1
100
AcDbCircle
 10
1767.8043772745
 20
3851.2134425666
 30
0.0
 40
5.0
  0
CIRCLE
  5
1A4
330
1F
100
AcDbEntity
  8
1
100
AcDbCircle
 10
1218.8043772745
 20
4375.2134425666
 30
0.0
 40
5.0
  0
LINE
  5
1A5
330
1F
100
AcDbEntity
  8
1
100
AcDbLine
 10
1785.8043772745
 20
3833.2134425666
 30
0.0
 11
1785.8043772745
 21
4393.2134425666
 31
0.0
  0
LINE
  5
1A6
330
1F
100
AcDbEntity
  8
1
100
AcDbLine
 10
1809.8043772745
 20
3873.4134425666
 30
0.0
 11
1785.8043772745
 21
3873.4134425666
 31
0.0
  0
LINE
  5
1A7
330
1F
100
AcDbEntity
  8
1
100
AcDbLine
 10
1809.8043772745
 20
4353.0134425666
 30
0.0
 11
1785.8043772745
 21
4353.0134425666
 31
0.0
  0
LINE
  5
1A8
330
1F
100
AcDbEntity
  8
1
100
AcDbLine
 10
2227.0043772745
 20
3873.4134425666
 30
0.0
 11
2227.0043772745
 21
4353.0134425666
 31
0.0
  0
LINE
  5
1A9
330
1F
100
AcDbEntity
  8
1
100
AcDbLine
 10
2227.0043772745
 20
3873.4134425666
 30
0.0
 11
1809.8043772745
 21
3873.4134425666
 31
0.0
  0
LINE
  5
1AA
330
1F
100
AcDbEntity
  8
1
100
AcDbLine
 10
2227.0043772745
 20
4353.0134425666
 30
0.0
 11
1809.8043772745
 21
4353.0134425666
 31
0.0
  0
LINE
  5
1AB
330
1F
100
AcDbEntity
  8
1
100
AcDbLine
 10
1416.8043772745
 20
4430.9134425666
 30
0.0
 11
2126.8043772745
 21
4430.9134425666
 31
0.0
  0
LINE
  5
1AC
330
1F
100
AcDbEntity
  8
1
100
AcDbLine
 10
1416.8043772745
 20
4433.2134425666
 30
0.0
 11
2126.8043772745
 21
4433.2134425666
 31
0.0
  0
LINE
  5
1AD
330
1F
100
AcDbEntity
  8
1
100
AcDbLine
 10
2126.8043772745
 20
4354.2134425666
 30
0.0
 11
1785.8043772745
 21
4354.2134425666
 31
0.0
  0
LINE
  5
1AE
330
1F
100
AcDbEntity
  8
0
  6
HIDDEN
 62
     7
370
    18
100
AcDbLine
 10
868.1099683244
 20
3749.7134425666
 30
0.0
 11
879.1206273784
 21
3749.7134425666
 31
0.0
  0
LINE
  5
1AF
330
1F
100
AcDbEntity
  8
0
  6
HIDDEN
 62
     7
370
    18
100
AcDbLine
 10
868.1099683244
 20
3749.7134425666
 30
0.0
 11
868.1099683244
 21
4009.7134425666
 31
0.0
  0
LINE
  5
1B0
330
1F
100
AcDbEntity
  8
0
  6
HIDDEN
 62
     7
370
    18
100
AcDbLine
 10
868.1099683244
 20
4009.7134425666
 30
0.0
 11
879.1206273784
 21
4009.7134425666
 31
0.0
  0
LINE
  5
1B1
330
1F
100
AcDbEntity
  8
0
  6
HIDDEN
 62
     7
370
    18
100
AcDbLine
 10
879.1206273784
 20
4090.2134425666
 30
0.0
 11
879.1206273784
 21
4009.7134425666
 31
0.0
  0
LINE
  5
1B2
330
1F
100
AcDbEntity
  8
0
  6
HIDDEN
 62
     7
370
    18
100
AcDbLine
 10
1014.4881271706
 20
4090.2134425666
 30
0.0
 11
1014.4881271706
 21
4009.7134425666
 31
0.0
  0
LINE
  5
1B3
330
1F
100
AcDbEntity
  8
0
  6
HIDDEN
 62
     7
370
    18
100
AcDbLine
 10
1014.4881271706
 20
4009.7134425666
 30
0.0
 11
1025.4987862246
 21
4009.7134425666
 31
0.0
  0
LINE
  5
1B4
330
1F
100
AcDbEntity
  8
0
  6
HIDDEN
 62
     7
370
    18
100
AcDbLine
 10
1025.4987862246
 20
4009.7134425666
 30
0.0
 11
1025.4987862246
 21
3749.7134425666
 31
0.0
  0
LINE
  5
1B5
330
1F
100
AcDbEntity
  8
0
  6
HIDDEN
 62
     7
370
    18
100
AcDbLine
 10
1014.4881271706
 20
3749.7134425666
 30
0.0
 11
1025.4987862246
 21
3749.7134425666
 31
0.0
  0
LINE
  5
1B6
330
1F
100
AcDbEntity
  8
0
  6
HIDDEN
 62
     7
370
    18
100
AcDbLine
 10
1014.4881271706
 20
3749.7134425666
 30
0.0
 11
1014.4881271706
 21
3720.7134425666
 31
0.0
  0
LINE
  5
1B7
330
1F
100
AcDbEntity
  8
0
  6
HIDDEN
 62
     7
370
    18
100
AcDbLine
 10
879.1206273784
 20
3749.7134425666
 30
0.0
 11
879.1206273784
 21
3720.7134425666
 31
0.0
  0
LINE
  5
1B8
330
1F
100
AcDbEntity
  8
0
  6
HIDDEN
 62
     7
370
    18
100
AcDbLine
 10
1089.3043772745
 20
4090.2134425666
 30
0.0
 11
1051.8043772745
 21
4090.2134425666
 31
0.0
  0
LINE
  5
1B9
330
1F
100
AcDbEntity
  8
0
  6
HIDDEN
 62
     7
370
    18
100
AcDbLine
 10
859.3043772745
 20
3749.7134425666
 30
0.0
 11
859.3043772745
 21
4009.7134425666
 31
0.0
  0
LINE
  5
1BA
330
1F
100
AcDbEntity
  8
0
  6
HIDDEN
 62
     7
370
    18
100
AcDbLine
 10
868.1099683244
 20
3749.7134425666
 30
0.0
 11
859.3043772745
 21
3749.7134425666
 31
0.0
  0
LINE
  5
1BB
330
1F
100
AcDbEntity
  8
0
  6
HIDDEN
 62
     7
370
    18
100
AcDbLine
 10
868.1099683244
 20
4009.7134425666
 30
0.0
 11
859.3043772745
 21
4009.7134425666
 31
0.0
  0
LINE
  5
1BC
330
1F
100
AcDbEntity
  8
0
  6
HIDDEN
 62
     7
370
    18
100
AcDbLine
 10
1034.3043772745
 20
3749.7134425666
 30
0.0
 11
1025.4987862246
 21
3749.7134425666
 31
0.0
  0
LINE
  5
1BD
330
1F
100
AcDbEntity
  8
0
  6
HIDDEN
 62
     7
370
    18
100
AcDbLine
 10
1034.3043772745
 20
3749.7134425666
 30
0.0
 11
1034.3043772745
 21
4009.7134425666
 31
0.0
  0
LINE
  5
1BE
330
1F
100
AcDbEntity
  8
0
  6
HIDDEN
 62
     7
370
    18
100
AcDbLine
 10
1034.3043772745
 20
4009.7134425666
 30
0.0
 11
1025.4987862246
 21
4009.7134425666
 31
0.0
  0
LINE
  5
1BF
330
1F
100
AcDbEntity
  8
0
  6
HIDDEN
 62
     7
370
    18
100
AcDbLine
 10
879.1206273784
 20
4009.7134425666
 30
0.0
 11
1014.4881271706
 21
4009.7134425666
 31
0.0
  0
LINE
  5
1C0
330
1F
100
AcDbEntity
  8
0
  6
HIDDEN
 62
     7
370
    18
100
AcDbLine
 10
879.1206273784
 20
3749.7134425666
 30
0.0
 11
1014.4881271706
 21
3749.7134425666
 31
0.0
  0
LINE
  5
1C1
330
1F
100
AcDbEntity
  8
0
  6
HIDDEN
 62
     7
370
    18
100
AcDbLine
 10
1089.3043772745
 20
3739.7134425666
 30
0.0
 11
804.3043772745
 21
3739.7134425666
 31
0.0
  0
LINE
  5
1C2
330
1F
100
AcDbEntity
  8
0
  6
HIDDEN
 62
     7
370
    18
100
AcDbLine
 10
804.3043772745
 20
4019.7134425666
 30
0.0
 11
1121.8043772745
 21
4019.7134425666
 31
0.0
  0
LINE
  5
1C3
330
1F
100
AcDbEntity
  8
0
  6
HIDDEN
 62
     7
370
    18
100
AcDbLine
 10
1121.8043772745
 20
4019.7134425666
 30
0.0
 11
1121.8043772745
 21
3833.2134425666
 31
0.0
  0
LINE
  5
1C4
330
1F
100
AcDbEntity
  8
0
  6
HIDDEN
 62
     7
370
    18
100
AcDbLine
 10
871.8043772745
 20
3565.7134425666
 30
0.0
 11
1021.8043772745
 21
3565.7134425666
 31
0.0
  0
LINE
  5
1C5
330
1F
100
AcDbEntity
  8
0
  6
HIDDEN
 62
     7
370
    18
100
AcDbLine
 10
871.8043772745
 20
3640.7134425666
 30
0.0
 11
1021.8043772745
 21
3640.7134425666
 31
0.0
  0
LINE
  5
1C6
330
1F
100
AcDbEntity
  8
0
  6
HIDDEN
 62
     7
370
    18
100
AcDbLine
 10
1784.9174822057
 20
3565.7134425666
 30
0.0
 11
1884.3043772745
 21
3565.7134425666
 31
0.0
  0
LINE
  5
1C7
330
1F
100
AcDbEntity
  8
0
  6
HIDDEN
 62
     7
370
    18
100
AcDbLine
 10
1659.3043772745
 20
3565.7134425666
 30
0.0
 11
1784.9174822057
 21
3565.7134425666
 31
0.0
  0
LINE
  5
1C8
330
1F
100
AcDbEntity
  8
0
  6
HIDDEN
 62
     7
370
    18
100
AcDbLine
 10
1784.9174822057
 20
3640.7134425666
 30
0.0
 11
1884.3043772745
 21
3640.7134425666
 31
0.0
  0
LINE
  5
1C9
330
1F
100
AcDbEntity
  8
0
  6
HIDDEN
 62
     7
370
    18
100
AcDbLine
 10
1659.3043772745
 20
3640.7134425666
 30
0.0
 11
1784.9174822057
 21
3640.7134425666
 31
0.0
  0
CIRCLE
  5
1CA
330
1F
100
AcDbEntity
  8
0
  6
HIDDEN
 62
     7
370
    18
100
AcDbCircle
 10
851.8043772745
 20
3738.2134425666
 30
0.0
 40
7.5
  0
CIRCLE
  5
1CB
330
1F
100
AcDbEntity
  8
0
  6
HIDDEN
 62
     7
370
    18
100
AcDbCircle
 10
1471.8043772745
 20
3738.2134425666
 30
0.0
 40
7.499999999999545
  0
CIRCLE
  5
1CC
330
1F
100
AcDbEntity
  8
0
  6
HIDDEN
 62
     7
370
    18
100
AcDbCircle
 10
2091.8043772745
 20
3738.2134425666
 30
0.0
 40
7.499999999999545
  0
CIRCLE
  5
1CD
330
1F
100
AcDbEntity
  8
0
  6
HIDDEN
 62
     7
370
    18
100
AcDbCircle
 10
2091.8043772745
 20
4378.2134425666
 30
0.0
 40
7.500000000000909
  0
CIRCLE
  5
1CE
330
1F
100
AcDbEntity
  8
0
  6
HIDDEN
 62
     7
370
    18
100
AcDbCircle
 10
851.8043772745
 20
4378.2134425666
 30
0.0
 40
7.500000000000909
  0
CIRCLE
  5
1CF
330
1F
100
AcDbEntity
  8
0
  6
HIDDEN
 62
     7
370
    18
100
AcDbCircle
 10
1471.8043772745
 20
4378.2134425666
 30
0.0
 40
7.500000000000909
  0
LINE
  5
1D0
330
1F
100
AcDbEntity
  8
0
  6
HIDDEN
 62
     7
370
    18
100
AcDbLine
 10
836.8043772745
 20
3745.2134425666
 30
0.0
 11
771.8043772745
 21
3745.2134425666
 31
0.0
  0
LINE
  5
1D1
330
1F
100
AcDbEntity
  8
0
  6
HIDDEN
 62
     7
370
    18
100
AcDbLine
 10
836.8043772745
 20
3615.2134425666
 30
0.0
 11
836.8043772745
 21
3683.2134425666
 31
0.0
  0
LINE
  5
1D2
330
1F
100
AcDbEntity
  8
0
  6
HIDDEN
 62
     7
370
    18
100
AcDbLine
 10
836.8043772745
 20
3720.7134425666
 30
0.0
 11
836.8043772745
 21
3745.2134425666
 31
0.0
  0
LINE
  5
1D3
330
1F
100
AcDbEntity
  8
0
  6
HIDDEN
 62
     7
370
    18
100
AcDbLine
 10
771.8043772745
 20
3615.2134425666
 30
0.0
 11
836.8043772745
 21
3615.2134425666
 31
0.0
  0
LINE
  5
1D4
330
1F
100
AcDbEntity
  8
0
  6
HIDDEN
 62
     7
370
    18
100
AcDbLine
 10
1956.8043772745
 20
3615.2134425666
 30
0.0
 11
2021.8043772745
 21
3615.2134425666
 31
0.0
  0
LINE
  5
1D5
330
1F
100
AcDbEntity
  8
0
  6
HIDDEN
 62
     7
370
    18
100
AcDbLine
 10
1956.8043772745
 20
3683.2134425666
 30
0.0
 11
1956.8043772745
 21
3615.2134425666
 31
0.0
  0
LINE
  5
1D6
330
1F
100
AcDbEntity
  8
0
  6
HIDDEN
 62
     7
370
    18
100
AcDbLine
 10
927.8043772745
 20
3713.2134425666
 30
0.0
 11
965.8043772745
 21
3713.2134425666
 31
0.0
  0
LINE
  5
1D7
330
1F
100
AcDbEntity
  8
0
  6
HIDDEN
 62
     7
370
    18
100
AcDbLine
 10
821.8043772745
 20
3763.2134425666
 30
0.0
 11
1121.8043772745
 21
3763.2134425666
 31
0.0
  0
LINE
  5
1D8
330
1F
100
AcDbEntity
  8
0
  6
HIDDEN
 62
     7
370
    18
100
AcDbLine
 10
2121.8043772745
 20
3873.4134425666
 30
0.0
 11
2121.8043772745
 21
4353.2134425666
 31
0.0
  0
LINE
  5
1D9
330
1F
100
AcDbEntity
  8
0
  6
HIDDEN
 62
     7
370
    18
100
AcDbLine
 10
2121.8043772745
 20
4353.2134425666
 30
0.0
 11
1051.8043772745
 21
4353.2134425666
 31
0.0
  0
LINE
  5
1DA
330
1F
100
AcDbEntity
  8
0
  6
HIDDEN
 62
     7
370
    18
100
AcDbLine
 10
821.8043772745
 20
4090.2134425666
 30
0.0
 11
821.8043772745
 21
3763.2134425666
 31
0.0
  0
LINE
  5
1DB
330
1F
100
AcDbEntity
  8
0
  6
HIDDEN
 62
     7
370
    18
100
AcDbLine
 10
2089.1043772745
 20
4403.2134425666
 30
0.0
 11
1454.5043772745
 21
4403.2134425666
 31
0.0
  0
LINE
  5
1DC
330
1F
100
AcDbEntity
  8
0
  6
HIDDEN
 62
     7
370
    18
100
AcDbLine
 10
2171.8043772745
 20
3873.4134425666
 30
0.0
 11
2171.8043772745
 21
4353.0134425666
 31
0.0
  0
LINE
  5
1DD
330
1F
100
AcDbEntity
  8
0
  6
HIDDEN
 62
     7
370
    18
100
AcDbLine
 10
771.8043772745
 20
3713.2134425666
 30
0.0
 11
836.8043772745
 21
3713.2134425666
 31
0.0
  0
LINE
  5
1DE
330
1F
100
AcDbEntity
  8
0
  6
HIDDEN
 62
     7
370
    18
100
AcDbLine
 10
771.8043772745
 20
3739.7134425666
 30
0.0
 11
771.8043772745
 21
3713.2134425666
 31
0.0
  0
LINE
  5
1DF
330
1F
100
AcDbEntity
  8
0
  6
HIDDEN
 62
     7
370
    18
100
AcDbLine
 10
1956.8043772745
 20
3713.2134425666
 30
0.0
 11
2106.8043772745
 21
3713.2134425666
 31
0.0
  0
LINE
  5
1E0
330
1F
100
AcDbEntity
  8
0
  6
HIDDEN
 62
     7
370
    18
100
AcDbLine
 10
2126.8043772745
 20
4358.2134425666
 30
0.0
 11
816.8043772745
 21
4358.2134425666
 31
0.0
  0
LINE
  5
1E1
330
1F
100
AcDbEntity
  8
0
  6
HIDDEN
 62
     7
370
    18
100
AcDbLine
 10
816.8043772745
 20
4358.2134425666
 30
0.0
 11
816.8043772745
 21
3758.2134425666
 31
0.0
  0
LINE
  5
1E2
330
1F
100
AcDbEntity
  8
0
  6
HIDDEN
 62
     7
370
    18
100
AcDbLine
 10
2126.8043772745
 20
3758.2134425666
 30
0.0
 11
2126.8043772745
 21
4353.0134425666
 31
0.0
  0
LINE
  5
1E3
330
1F
100
AcDbEntity
  8
0
  6
HIDDEN
 62
     7
370
    18
100
AcDbLine
 10
2126.8043772745
 20
4354.2134425666
 30
0.0
 11
2126.8043772745
 21
4358.2134425666
 31
0.0
  0
LINE
  5
1E4
330
1F
100
AcDbEntity
  8
0
  6
HIDDEN
 62
     7
370
    18
100
AcDbLine
 10
816.8043772745
 20
3758.2134425666
 30
0.0
 11
2126.8043772745
 21
3758.2134425666
 31
0.0
  0
CIRCLE
  5
1E5
330
1F
100
AcDbEntity
  8
0
  6
HIDDEN
 62
     7
370
    18
100
AcDbCircle
 10
821.8043772745
 20
4378.2134425666
 30
0.0
 40
17.50000000000091
  0
CIRCLE
  5
1E6
330
1F
100
AcDbEntity
  8
0
  6
HIDDEN
 62
     7
370
    18
100
AcDbCircle
 10
2121.8043772745
 20
4378.2134425666
 30
0.0
 40
17.50000000000091
  0
CIRCLE
  5
1E7
330
1F
100
AcDbEntity
  8
0
  6
HIDDEN
 62
     7
370
    18
100
AcDbCircle
 10
2121.8043772745
 20
3738.2134425666
 30
0.0
 40
17.5
  0
CIRCLE
  5
1E8
330
1F
100
AcDbEntity
  8
0
  6
HIDDEN
 62
     7
370
    18
100
AcDbCircle
 10
821.8043772745
 20
3738.2134425666
 30
0.0
 40
17.5
  0
LINE
  5
1E9
330
1F
100
AcDbEntity
  8
0
  6
HIDDEN
 62
     7
370
    18
100
AcDbLine
 10
1092.8472104003
 20
4353.0134425666
 30
0.0
 11
1745.0043772745
 21
4353.0134425666
 31
0.0
  0
LINE
  5
1EA
330
1F
100
AcDbEntity
  8
0
  6
HIDDEN
 62
     7
370
    18
100
AcDbLine
 10
1092.8472104003
 20
4353.0134425666
 30
0.0
 11
1092.8472104003
 21
3873.4134425666
 31
0.0
  0
LINE
  5
1EB
330
1F
100
AcDbEntity
  8
0
  6
HIDDEN
 62
     7
370
    18
100
AcDbLine
 10
1745.0043772745
 20
3873.4134425666
 30
0.0
 11
1745.0043772745
 21
4353.0134425666
 31
0.0
  0
LINE
  5
1EC
330
1F
100
AcDbEntity
  8
0
  6
HIDDEN
 62
     7
370
    18
100
AcDbLine
 10
1092.8472104003
 20
3873.4134425666
 30
0.0
 11
1745.0043772745
 21
3873.4134425666
 31
0.0
  0
LINE
  5
1ED
330
1F
100
AcDbEntity
  8
0
  6
HIDDEN
 62
     7
370
    18
100
AcDbLine
 10
1785.8043772745
 20
3873.4134425666
 30
0.0
 11
1745.0043772745
 21
3873.4134425666
 31
0.0
  0
LINE
  5
1EE
330
1F
100
AcDbEntity
  8
0
  6
HIDDEN
 62
     7
370
    18
100
AcDbLine
 10
1785.8043772745
 20
4353.0134425666
 30
0.0
 11
1745.0043772745
 21
4353.0134425666
 31
0.0
  0
LINE
  5
1EF
330
1F
100
AcDbEntity
  8
0
  6
HIDDEN
 62
     7
370
    18
100
AcDbLine
 10
1809.8043772745
 20
3875.7134425666
 30
0.0
 11
1743.8043772745
 21
3875.7134425666
 31
0.0
  0
LINE
  5
1F0
330
1F
100
AcDbEntity
  8
0
  6
HIDDEN
 62
     7
370
    18
100
AcDbLine
 10
1809.8043772745
 20
4350.7134425666
 30
0.0
 11
1743.8043772745
 21
4350.7134425666
 31
0.0
  0
LINE
  5
1F1
330
1F
100
AcDbEntity
  8
0
  6
HIDDEN
 62
     7
370
    18
100
AcDbLine
 10
2225.8043772745
 20
3875.7134425666
 30
0.0
 11
2225.8043772745
 21
4350.7134425666
 31
0.0
  0
LINE
  5
1F2
330
1F
100
AcDbEntity
  8
0
  6
HIDDEN
 62
     7
370
    18
100
AcDbLine
 10
2225.8043772745
 20
3875.7134425666
 30
0.0
 11
1809.8043772745
 21
3875.7134425666
 31
0.0
  0
LINE
  5
1F3
330
1F
100
AcDbEntity
  8
0
  6
HIDDEN
 62
     7
370
    18
100
AcDbLine
 10
2225.8043772745
 20
4350.7134425666
 30
0.0
 11
1809.8043772745
 21
4350.7134425666
 31
0.0
  0
LINE
  5
1F4
330
1F
100
AcDbEntity
  8
0
  6
HIDDEN
 62
     7
370
    18
100
AcDbLine
 10
1771.8043772745
 20
4354.2134425666
 30
0.0
 11
1416.8043772745
 21
4354.2134425666
 31
0.0
  0
LINE
  5
1F5
330
1F
100
AcDbEntity
  8
0
  6
HIDDEN
 62
     7
370
    18
100
AcDbLine
 10
1785.8043772745
 20
4354.2134425666
 30
0.0
 11
1771.8043772745
 21
4354.2134425666
 31
0.0
  0
LINE
  5
1F6
330
1F
100
AcDbEntity
  8
0
  6
HIDDEN
 62
     7
370
    18
100
AcDbLine
 10
1089.3043772745
 20
3833.2134425666
 30
0.0
 11
1089.3043772745
 21
4090.2134425666
 31
0.0
  0
LINE
  5
1F7
330
1F
100
AcDbEntity
  8
0
  6
HIDDEN
 62
     7
370
    18
100
AcDbLine
 10
965.8043772745
 20
3640.7134425666
 30
0.0
 11
965.8043772745
 21
3683.2134425666
 31
0.0
  0
LINE
  5
1F8
330
1F
100
AcDbEntity
  8
0
  6
HIDDEN
 62
     7
370
    18
100
AcDbLine
 10
927.8043772745
 20
3683.2134425666
 30
0.0
 11
927.8043772745
 21
3640.7134425666
 31
0.0
  0
LINE
  5
1F9
330
1F
100
AcDbEntity
  8
0
  6
HIDDEN
 62
     7
370
    18
100
AcDbLine
 10
1021.8043772745
 20
3565.7134425666
 30
0.0
 11
1021.8043772745
 21
3640.7134425666
 31
0.0
  0
LINE
  5
1FA
330
1F
100
AcDbEntity
  8
0
  6
HIDDEN
 62
     7
370
    18
100
AcDbLine
 10
871.8043772745
 20
3640.7134425666
 30
0.0
 11
871.8043772745
 21
3565.7134425666
 31
0.0
  0
LINE
  5
1FB
330
1F
100
AcDbEntity
  8
0
  6
HIDDEN
 62
     7
370
    18
100
AcDbLine
 10
1884.3043772745
 20
3565.7134425666
 30
0.0
 11
1884.3043772745
 21
3640.7134425666
 31
0.0
  0
LINE
  5
1FC
330
1F
100
AcDbEntity
  8
0
  6
HIDDEN
 62
     7
370
    18
100
AcDbLine
 10
1659.3043772745
 20
3640.7134425666
 30
0.0
 11
1659.3043772745
 21
3565.7134425666
 31
0.0
  0
LINE
  5
1FD
330
1F
100
AcDbEntity
  8
0
  6
HIDDEN
 62
     7
370
    18
100
AcDbLine
 10
1416.8043772745
 20
4354.2134425666
 30
0.0
 11
1416.8043772745
 21
4353.0134425666
 31
0.0
  0
LINE
  5
1FE
330
1F
100
AcDbEntity
  8
0
  6
HIDDEN
 62
     7
370
    18
100
AcDbLine
 10
1679.4529495524
 20
4433.2134425666
 30
0.0
 11
1679.4529495524
 21
4430.9134425666
 31
0.0
  0
LINE
  5
1FF
330
1F
100
AcDbEntity
  8
0
  6
HIDDEN
 62
     7
370
    18
100
AcDbLine
 10
1689.4529495524
 20
4430.9134425666
 30
0.0
 11
1689.4529495524
 21
4433.2134425666
 31
0.0
  0
LINE
  5
200
330
1F
100
AcDbEntity
  8
0
  6
HIDDEN
 62
     7
370
    18
100
AcDbLine
 10
1854.1558049966
 20
4433.2134425666
 30
0.0
 11
1854.1558049966
 21
4430.9134425666
 31
0.0
  0
LINE
  5
201
330
1F
100
AcDbEntity
  8
0
  6
HIDDEN
 62
     7
370
    18
100
AcDbLine
 10
1864.1558049966
 20
4430.9134425666
 30
0.0
 11
1864.1558049966
 21
4433.2134425666
 31
0.0
  0
LINE
  5
202
330
1F
100
AcDbEntity
  8
0
  6
HIDDEN
 62
     7
370
    18
100
AcDbLine
 10
1454.5043772745
 20
4393.2134425666
 30
0.0
 11
1454.5043772745
 21
4354.2134425666
 31
0.0
  0
LINE
  5
203
330
1F
100
AcDbEntity
  8
0
  6
HIDDEN
 62
     7
370
    18
100
AcDbLine
 10
2086.8043772745
 20
4350.7134425666
 30
0.0
 11
2086.8043772745
 21
4433.2134425666
 31
0.0
  0
LINE
  5
204
330
1F
100
AcDbEntity
  8
0
  6
HIDDEN
 62
     7
370
    18
100
AcDbLine
 10
1456.8043772745
 20
4433.2134425666
 30
0.0
 11
1456.8043772745
 21
4350.7134425666
 31
0.0
  0
LINE
  5
205
330
1F
100
AcDbEntity
  8
0
  6
HIDDEN
 62
     7
370
    18
100
AcDbLine
 10
1528.155838624
 20
4433.2134425666
 30
0.0
 11
1528.155838624
 21
4430.9134425666
 31
0.0
  0
LINE
  5
206
330
1F
100
AcDbEntity
  8
0
  6
HIDDEN
 62
     7
370
    18
100
AcDbLine
 10
1538.155838624
 20
4430.9134425666
 30
0.0
 11
1538.155838624
 21
4433.2134425666
 31
0.0
  0
LINE
  5
207
330
1F
100
AcDbEntity
  8
0
  6
HIDDEN
 62
     7
370
    18
100
AcDbLine
 10
2005.452915925
 20
4433.2134425666
 30
0.0
 11
2005.452915925
 21
4430.9134425666
 31
0.0
  0
LINE
  5
208
330
1F
100
AcDbEntity
  8
0
  6
HIDDEN
 62
     7
370
    18
100
AcDbLine
 10
2015.452915925
 20
4430.9134425666
 30
0.0
 11
2015.452915925
 21
4433.2134425666
 31
0.0
  0
LINE
  5
209
330
1F
100
AcDbEntity
  8
0
  6
HIDDEN
 62
     7
370
    18
100
AcDbLine
 10
1440.8044109019
 20
4433.2134425666
 30
0.0
 11
1440.8044109019
 21
4430.9134425666
 31
0.0
  0
LINE
  5
20A
330
1F
100
AcDbEntity
  8
0
  6
HIDDEN
 62
     7
370
    18
100
AcDbLine
 10
1450.8044109019
 20
4430.9134425666
 30
0.0
 11
1450.8044109019
 21
4433.2134425666
 31
0.0
  0
LINE
  5
20B
330
1F
100
AcDbEntity
  8
0
  6
HIDDEN
 62
     7
370
    18
100
AcDbLine
 10
2092.8043436471
 20
4433.2134425666
 30
0.0
 11
2092.8043436471
 21
4430.9134425666
 31
0.0
  0
LINE
  5
20C
330
1F
100
AcDbEntity
  8
0
  6
HIDDEN
 62
     7
370
    18
100
AcDbLine
 10
2102.8043436471
 20
4430.9134425666
 30
0.0
 11
2102.8043436471
 21
4433.2134425666
 31
0.0
  0
CIRCLE
  5
20D
330
1F
100
AcDbEntity
  8
基礎穴
100
AcDbCircle
 10
851.8043772745
 20
3738.2134425666
 30
0.0
 40
7.499999999999784
  0
CIRCLE
  5
20E
330
1F
100
AcDbEntity
  8
基礎穴
100
AcDbCircle
 10
1471.8043772745
 20
3738.2134425666
 30
0.0
 40
7.50000000000011
  0
CIRCLE
  5
20F
330
1F
100
AcDbEntity
  8
基礎穴
100
AcDbCircle
 10
2091.8043772745
 20
3738.2134425666
 30
0.0
 40
7.499999999999676
  0
CIRCLE
  5
210
330
1F
100
AcDbEntity
  8
基礎穴
100
AcDbCircle
 10
2091.8043772745
 20
4378.2134425666
 30
0.0
 40
7.499999999999676
  0
CIRCLE
  5
211
330
1F
100
AcDbEntity
  8
基礎穴
100
AcDbCircle
 10
1471.8043772745
 20
4378.2134425666
 30
0.0
 40
7.50000000000011
  0
CIRCLE
  5
212
330
1F
100
AcDbEntity
  8
基礎穴
100
AcDbCircle
 10
851.8043772745
 20
4378.2134425666
 30
0.0
 40
7.500000000000002
  0
LINE
  5
213
330
1F
100
AcDbEntity
  8
2
100
AcDbLine
 10
1418.8043772745
 20
3865.0146792364
 30
0.0
 11
1418.8043772745
 21
4346.0909829235
 31
0.0
  0
LINE
  5
214
330
1F
100
AcDbEntity
  8
2
100
AcDbLine
 10
1096.8043772745
 20
4113.2134425666
 30
0.0
 11
2152.5649899102
 21
4113.2134425666
 31
0.0
  0
LINE
  5
215
330
1F
100
AcDbEntity
  8
2
100
AcDbLine
 10
1771.8043772745
 20
3597.3220052626
 30
0.0
 11
1771.8043772745
 21
4365.1266406146
 31
0.0
  0
ENDSEC
  0
SECTION
  2
OBJECTS
  0
DICTIONARY
  5
C
330
0
100
AcDbDictionary
281
     1
  3
ACAD_GROUP
350
D
  3
ACAD_LAYOUT
350
1A
  3
ACAD_MLINESTYLE
350
17
  3
ACAD_PLOTSETTINGS
350
19
  3
ACAD_PLOTSTYLENAME
350
E
  3
ACAD_SCALELIST
350
47
  3
DWGPROPS
350
216
  0
DICTIONARY
  5
D
102
{ACAD_REACTORS
330
C
102
}
330
C
100
AcDbDictionary
281
     1
  0
DICTIONARY
  5
1A
102
{ACAD_REACTORS
330
C
102
}
330
C
100
AcDbDictionary
281
     1
  3
Layout1
350
1E
  3
Layout2
350
26
  3
Model
350
22
  0
DICTIONARY
  5
17
102
{ACAD_REACTORS
330
C
102
}
330
C
100
AcDbDictionary
281
     1
  3
Standard
350
18
  0
DICTIONARY
  5
19
102
{ACAD_REACTORS
330
C
102
}
330
C
100
AcDbDictionary
281
     1
  0
ACDBDICTIONARYWDFLT
  5
E
102
{ACAD_REACTORS
330
C
102
}
330
C
100
AcDbDictionary
281
     1
  3
Normal
350
F
100
AcDbDictionaryWithDefault
340
F
  0
DICTIONARY
  5
47
102
{ACAD_REACTORS
330
C
102
}
330
C
100
AcDbDictionary
281
     1
  3
A0
350
48
  3
A1
350
49
  3
A2
350
4A
  3
A3
350
4B
  3
A4
350
4C
  3
A5
350
4D
  3
A6
350
4E
  3
A7
350
4F
  3
A8
350
50
  3
A9
350
51
  3
B0
350
52
  3
B1
350
53
  3
B2
350
54
  3
B3
350
55
  3
B4
350
56
  3
B5
350
57
  3
B6
350
58
  0
XRECORD
  5
216
102
{ACAD_REACTORS
330
C
102
}
330
C
100
AcDbXrecord
280
     1
  1
DWGPROPS COOKIE
  2

  3

  4

  6

  7

  8
yuta.kunimatsu
  9

300
=
301
=
302
=
303
=
304
=
305
=
306
=
307
=
308
=
309
=
 40
0.0
 41
2460154.184983553
 42
2460154.18498397
  1

 90
        0
  0
LAYOUT
  5
1E
102
{ACAD_REACTORS
330
1A
102
}
330
1A
100
AcDbPlotSettings
  1

  2
none_device
  4

  6

 40
0.0
 41
0.0
 42
0.0
 43
0.0
 44
0.0
 45
0.0
 46
0.0
 47
0.0
 48
0.0
 49
0.0
140
0.0
141
0.0
142
1.0
143
1.0
 70
   688
 72
     1
 73
     0
 74
     5
  7

 75
    16
147
1.0
148
0.0
149
0.0
100
AcDbLayout
  1
Layout1
 70
     1
 71
     1
 10
0.0
 20
0.0
 11
420.0
 21
297.0
 12
0.0
 22
0.0
 32
0.0
 14
1.0000000000E+20
 24
1.0000000000E+20
 34
1.0000000000E+20
 15
-1.0000000000E+20
 25
-1.0000000000E+20
 35
-1.0000000000E+20
146
0.0
 13
0.0
 23
0.0
 33
0.0
 16
1.0
 26
0.0
 36
0.0
 17
0.0
 27
1.0
 37
0.0
 76
     0
330
1B
  0
LAYOUT
  5
26
102
{ACAD_REACTORS
330
1A
102
}
330
1A
100
AcDbPlotSettings
  1

  2
none_device
  4

  6

 40
0.0
 41
0.0
 42
0.0
 43
0.0
 44
0.0
 45
0.0
 46
0.0
 47
0.0
 48
0.0
 49
0.0
140
0.0
141
0.0
142
1.0
143
1.0
 70
   688
 72
     1
 73
     0
 74
     5
  7

 75
    16
147
1.0
148
0.0
149
0.0
100
AcDbLayout
  1
Layout2
 70
     1
 71
     2
 10
0.0
 20
0.0
 11
0.0
 21
0.0
 12
0.0
 22
0.0
 32
0.0
 14
0.0
 24
0.0
 34
0.0
 15
0.0
 25
0.0
 35
0.0
146
0.0
 13
0.0
 23
0.0
 33
0.0
 16
1.0
 26
0.0
 36
0.0
 17
0.0
 27
1.0
 37
0.0
 76
     0
330
23
  0
LAYOUT
  5
22
102
{ACAD_REACTORS
330
1A
102
}
330
1A
100
AcDbPlotSettings
  1

  2
none_device
  4
Letter_(8.50_x_11.00_Inches)
  6

 40
6.35
 41
6.35
 42
6.35000508
 43
6.35000508
 44
215.9
 45
279.4
 46
0.0
 47
0.0
 48
0.0
 49
0.0
140
0.0
141
0.0
142
1.0
143
1.0
 70
  1712
 72
     1
 73
     0
 74
     0
  7

 75
     0
147
1.0
148
0.0
149
0.0
100
AcDbLayout
  1
Model
 70
     1
 71
     0
 10
0.0
 20
0.0
 11
4200.0
 21
5940.0
 12
0.0
 22
0.0
 32
0.0
 14
0.0
 24
0.0
 34
0.0
 15
4200.0
 25
5940.0
 35
0.0
146
0.0
 13
0.0
 23
0.0
 33
0.0
 16
1.0
 26
0.0
 36
0.0
 17
0.0
 27
1.0
 37
0.0
 76
     0
330
1F
331
29
  0
MLINESTYLE
  5
18
102
{ACAD_REACTORS
330
17
102
}
330
17
100
AcDbMlineStyle
  2
Standard
 70
     0
  3

 62
   256
 51
90.0
 52
90.0
 71
     2
 49
0.5
 62
   256
  6
BYLAYER
 49
-0.5
 62
   256
  6
BYLAYER
  0
ACDBPLACEHOLDER
  5
F
102
{ACAD_REACTORS
330
E
102
}
330
E
  0
SCALE
  5
48
102
{ACAD_REACTORS
330
47
102
}
330
47
100
AcDbScale
 70
     0
300
1:1
140
1.0
141
1.0
290
     1
  0
SCALE
  5
49
102
{ACAD_REACTORS
330
47
102
}
330
47
100
AcDbScale
 70
     0
300
1:2
140
1.0
141
2.0
290
     0
  0
SCALE
  5
4A
102
{ACAD_REACTORS
330
47
102
}
330
47
100
AcDbScale
 70
     0
300
1:4
140
1.0
141
4.0
290
     0
  0
SCALE
  5
4B
102
{ACAD_REACTORS
330
47
102
}
330
47
100
AcDbScale
 70
     0
300
1:5
140
1.0
141
5.0
290
     0
  0
SCALE
  5
4C
102
{ACAD_REACTORS
330
47
102
}
330
47
100
AcDbScale
 70
     0
300
1:8
140
1.0
141
8.0
290
     0
  0
SCALE
  5
4D
102
{ACAD_REACTORS
330
47
102
}
330
47
100
AcDbScale
 70
     0
300
1:10
140
1.0
141
10.0
290
     0
  0
SCALE
  5
4E
102
{ACAD_REACTORS
330
47
102
}
330
47
100
AcDbScale
 70
     0
300
1:16
140
1.0
141
16.0
290
     0
  0
SCALE
  5
4F
102
{ACAD_REACTORS
330
47
102
}
330
47
100
AcDbScale
 70
     0
300
1:20
140
1.0
141
20.0
290
     0
  0
SCALE
  5
50
102
{ACAD_REACTORS
330
47
102
}
330
47
100
AcDbScale
 70
     0
300
1:30
140
1.0
141
30.0
290
     0
  0
SCALE
  5
51
102
{ACAD_REACTORS
330
47
102
}
330
47
100
AcDbScale
 70
     0
300
1:40
140
1.0
141
40.0
290
     0
  0
SCALE
  5
52
102
{ACAD_REACTORS
330
47
102
}
330
47
100
AcDbScale
 70
     0
300
1:50
140
1.0
141
50.0
290
     0
  0
SCALE
  5
53
102
{ACAD_REACTORS
330
47
102
}
330
47
100
AcDbScale
 70
     0
300
1:100
140
1.0
141
100.0
290
     0
  0
SCALE
  5
54
102
{ACAD_REACTORS
330
47
102
}
330
47
100
AcDbScale
 70
     0
300
2:1
140
2.0
141
1.0
290
     0
  0
SCALE
  5
55
102
{ACAD_REACTORS
330
47
102
}
330
47
100
AcDbScale
 70
     0
300
4:1
140
4.0
141
1.0
290
     0
  0
SCALE
  5
56
102
{ACAD_REACTORS
330
47
102
}
330
47
100
AcDbScale
 70
     0
300
8:1
140
8.0
141
1.0
290
     0
  0
SCALE
  5
57
102
{ACAD_REACTORS
330
47
102
}
330
47
100
AcDbScale
 70
     0
300
10:1
140
10.0
141
1.0
290
     0
  0
SCALE
  5
58
102
{ACAD_REACTORS
330
47
102
}
330
47
100
AcDbScale
 70
     0
300
100:1
140
100.0
141
1.0
290
     0
  0
ENDSEC
  0
EOF
