  0
SECTION
  2
HEADER
  9
$ACADVER
  1
AC1015
  9
$ACADMAINTVER
 70
     6
  9
$DWGCODEPAGE
  3
DOS932
  9
$INSBASE
 10
0.0
 20
0.0
 30
0.0
  9
$EXTMIN
 10
0.0
 20
0.0
 30
0.0
  9
$EXTMAX
 10
3150.0
 20
4455.0
 30
0.0
  9
$LIMMIN
 10
0.0
 20
0.0
  9
$LIMMAX
 10
3150.0
 20
4455.0
  9
$ORTHOMODE
 70
     0
  9
$REGENMODE
 70
     1
  9
$FILLMODE
 70
     1
  9
$QTEXTMODE
 70
     0
  9
$MIRRTEXT
 70
     1
  9
$LTSCALE
 40
15.0
  9
$ATTMODE
 70
     1
  9
$TEXTSIZE
 40
52.9166666667
  9
$TRACEWID
 40
1.0
  9
$TEXTSTYLE
  7
Standard
  9
$CLAYER
  8
0
  9
$CELTYPE
  6
ByLayer
  9
$CECOLOR
 62
   256
  9
$CELTSCALE
 40
1.0
  9
$DISPSILH
 70
     0
  9
$DIMSCALE
 40
1.0
  9
$DIMASZ
 40
22.5
  9
$DIMEXO
 40
15.0
  9
$DIMDLI
 40
3.75
  9
$DIMRND
 40
0.0
  9
$DIMDLE
 40
0.0
  9
$DIMEXE
 40
15.0
  9
$DIMTP
 40
0.0
  9
$DIMTM
 40
0.0
  9
$DIMTXT
 40
52.9166666667
  9
$DIMCEN
 40
2.5
  9
$DIMTSZ
 40
0.0
  9
$DIMTOL
 70
     0
  9
$DIMLIM
 70
     0
  9
$DIMTIH
 70
     1
  9
$DIMTOH
 70
     1
  9
$DIMSE1
 70
     0
  9
$DIMSE2
 70
     0
  9
$DIMTAD
 70
     1
  9
$DIMZIN
 70
     0
  9
$DIMBLK
  1

  9
$DIMASO
 70
     1
  9
$DIMSHO
 70
     1
  9
$DIMPOST
  1

  9
$DIMAPOST
  1

  9
$DIMALT
 70
     0
  9
$DIMALTD
 70
     3
  9
$DIMALTF
 40
0.0393700787
  9
$DIMLFAC
 40
1.0
  9
$DIMTOFL
 70
     1
  9
$DIMTVP
 40
0.0
  9
$DIMTIX
 70
     0
  9
$DIMSOXD
 70
     0
  9
$DIMSAH
 70
     0
  9
$DIMBLK1
  1

  9
$DIMBLK2
  1

  9
$DIMSTYLE
  2
ISO-25
  9
$DIMCLRD
 70
     0
  9
$DIMCLRE
 70
     0
  9
$DIMCLRT
 70
     0
  9
$DIMTFAC
 40
1.0
  9
$DIMGAP
 40
22.86
  9
$DIMJUST
 70
     0
  9
$DIMSD1
 70
     0
  9
$DIMSD2
 70
     0
  9
$DIMTOLJ
 70
     0
  9
$DIMTZIN
 70
     0
  9
$DIMALTZ
 70
     0
  9
$DIMALTTZ
 70
     0
  9
$DIMUPT
 70
     0
  9
$DIMDEC
 70
     0
  9
$DIMTDEC
 70
     0
  9
$DIMALTU
 70
     2
  9
$DIMALTTD
 70
     3
  9
$DIMTXSTY
  7
Standard
  9
$DIMAUNIT
 70
     0
  9
$DIMADEC
 70
     2
  9
$DIMALTRND
 40
0.0
  9
$DIMAZIN
 70
     0
  9
$DIMDSEP
 70
    44
  9
$DIMATFIT
 70
     3
  9
$DIMFRAC
 70
     0
  9
$DIMLDRBLK
  1

  9
$DIMLUNIT
 70
     2
  9
$DIMLWD
 70
    -2
  9
$DIMLWE
 70
    -2
  9
$DIMTMOVE
 70
     0
  9
$LUNITS
 70
     2
  9
$LUPREC
 70
     2
  9
$SKETCHINC
 40
1.0
  9
$FILLETRAD
 40
0.0
  9
$AUNITS
 70
     0
  9
$AUPREC
 70
     2
  9
$MENU
  1
.
  9
$ELEVATION
 40
0.0
  9
$PELEVATION
 40
0.0
  9
$THICKNESS
 40
0.0
  9
$LIMCHECK
 70
     0
  9
$CHAMFERA
 40
0.0
  9
$CHAMFERB
 40
0.0
  9
$CHAMFERC
 40
0.0
  9
$CHAMFERD
 40
0.0
  9
$SKPOLY
 70
     0
  9
$TDCREATE
 40
2460105.775826736
  9
$TDUCREATE
 40
2460105.400826736
  9
$TDUPDATE
 40
2460105.77582728
  9
$TDUUPDATE
 40
2460105.40082728
  9
$TDINDWG
 40
0.0000000116
  9
$TDUSRTIMER
 40
0.0000000116
  9
$USRTIMER
 70
     1
  9
$ANGBASE
 50
0.0
  9
$ANGDIR
 70
     0
  9
$PDMODE
 70
     0
  9
$PDSIZE
 40
-1.0
  9
$PLINEWID
 40
0.0
  9
$SPLFRAME
 70
     0
  9
$SPLINETYPE
 70
     6
  9
$SPLINESEGS
 70
     8
  9
$HANDSEED
  5
1F3
  9
$SURFTAB1
 70
     6
  9
$SURFTAB2
 70
     6
  9
$SURFTYPE
 70
     6
  9
$SURFU
 70
     6
  9
$SURFV
 70
     6
  9
$UCSBASE
  2

  9
$UCSNAME
  2

  9
$UCSORG
 10
0.0
 20
0.0
 30
0.0
  9
$UCSXDIR
 10
1.0
 20
0.0
 30
0.0
  9
$UCSYDIR
 10
0.0
 20
1.0
 30
0.0
  9
$UCSORTHOREF
  2

  9
$UCSORTHOVIEW
 70
     0
  9
$UCSORGTOP
 10
0.0
 20
0.0
 30
0.0
  9
$UCSORGBOTTOM
 10
0.0
 20
0.0
 30
0.0
  9
$UCSORGLEFT
 10
0.0
 20
0.0
 30
0.0
  9
$UCSORGRIGHT
 10
0.0
 20
0.0
 30
0.0
  9
$UCSORGFRONT
 10
0.0
 20
0.0
 30
0.0
  9
$UCSORGBACK
 10
0.0
 20
0.0
 30
0.0
  9
$PUCSBASE
  2

  9
$PUCSNAME
  2

  9
$PUCSORG
 10
0.0
 20
0.0
 30
0.0
  9
$PUCSXDIR
 10
1.0
 20
0.0
 30
0.0
  9
$PUCSYDIR
 10
0.0
 20
1.0
 30
0.0
  9
$PUCSORTHOREF
  2

  9
$PUCSORTHOVIEW
 70
     0
  9
$PUCSORGTOP
 10
0.0
 20
0.0
 30
0.0
  9
$PUCSORGBOTTOM
 10
0.0
 20
0.0
 30
0.0
  9
$PUCSORGLEFT
 10
0.0
 20
0.0
 30
0.0
  9
$PUCSORGRIGHT
 10
0.0
 20
0.0
 30
0.0
  9
$PUCSORGFRONT
 10
0.0
 20
0.0
 30
0.0
  9
$PUCSORGBACK
 10
0.0
 20
0.0
 30
0.0
  9
$USERI1
 70
     0
  9
$USERI2
 70
     0
  9
$USERI3
 70
     0
  9
$USERI4
 70
     0
  9
$USERI5
 70
     0
  9
$USERR1
 40
0.0
  9
$USERR2
 40
0.0
  9
$USERR3
 40
0.0
  9
$USERR4
 40
0.0
  9
$USERR5
 40
0.0
  9
$WORLDVIEW
 70
     1
  9
$SHADEDGE
 70
     3
  9
$SHADEDIF
 70
    70
  9
$TILEMODE
 70
     1
  9
$MAXACTVP
 70
    64
  9
$PINSBASE
 10
0.0
 20
0.0
 30
0.0
  9
$PLIMCHECK
 70
     0
  9
$PEXTMIN
 10
1.0000000000E+20
 20
1.0000000000E+20
 30
1.0000000000E+20
  9
$PEXTMAX
 10
-1.0000000000E+20
 20
-1.0000000000E+20
 30
-1.0000000000E+20
  9
$PLIMMIN
 10
0.0
 20
0.0
  9
$PLIMMAX
 10
420.0
 20
297.0
  9
$UNITMODE
 70
     0
  9
$VISRETAIN
 70
     1
  9
$PLINEGEN
 70
     0
  9
$PSLTSCALE
 70
     1
  9
$TREEDEPTH
 70
  3020
  9
$CMLSTYLE
  2
Standard
  9
$CMLJUST
 70
     0
  9
$CMLSCALE
 40
20.0
  9
$PROXYGRAPHICS
 70
     1
  9
$MEASUREMENT
 70
     1
  9
$CELWEIGHT
370
    -1
  9
$ENDCAPS
280
     0
  9
$JOINSTYLE
280
     0
  9
$LWDISPLAY
290
     1
  9
$INSUNITS
 70
     4
  9
$HYPERLINKBASE
  1

  9
$STYLESHEET
  1

  9
$XEDIT
290
     1
  9
$CEPSNTYPE
380
     0
  9
$PSTYLEMODE
290
     1
  9
$FINGERPRINTGUID
  2
{a17bb068-455d-4408-bad6-ea5083e4724a}
  9
$VERSIONGUID
  2
{FAEB1C32-E019-11D5-929B-00C0DF256EC4}
  9
$EXTNAMES
290
     1
  9
$PSVPSCALE
 40
0.0
  9
$OLESTARTUP
290
     0
  0
ENDSEC
  0
SECTION
  2
CLASSES
  0
CLASS
  1
ACDBDICTIONARYWDFLT
  2
AcDbDictionaryWithDefault
  3
ObjectDBX Classes
 90
        0
280
     0
281
     0
  0
CLASS
  1
VISUALSTYLE
  2
AcDbVisualStyle
  3
ObjectDBX Classes
 90
     4095
280
     0
281
     0
  0
CLASS
  1
MATERIAL
  2
AcDbMaterial
  3
ObjectDBX Classes
 90
     1153
280
     0
281
     0
  0
CLASS
  1
SCALE
  2
AcDbScale
  3
ObjectDBX Classes
 90
     1153
280
     0
281
     0
  0
CLASS
  1
TABLESTYLE
  2
AcDbTableStyle
  3
ObjectDBX Classes
 90
     4095
280
     0
281
     0
  0
CLASS
  1
MLEADERSTYLE
  2
AcDbMLeaderStyle
  3
ACDB_MLEADERSTYLE_CLASS
 90
     4095
280
     0
281
     0
  0
CLASS
  1
SUN
  2
AcDbSun
  3
SCENEOE
 90
     1153
280
     0
281
     0
  0
CLASS
  1
ACDBPLACEHOLDER
  2
AcDbPlaceHolder
  3
ObjectDBX Classes
 90
        0
280
     0
281
     0
  0
CLASS
  1
LAYOUT
  2
AcDbLayout
  3
ObjectDBX Classes
 90
        0
280
     0
281
     0
  0
ENDSEC
  0
SECTION
  2
TABLES
  0
TABLE
  2
VPORT
  5
8
330
0
100
AcDbSymbolTable
 70
     1
  0
VPORT
  5
29
330
8
100
AcDbSymbolTableRecord
100
AcDbViewportTableRecord
  2
*Active
 70
     0
 10
0.0
 20
0.0
 11
1.0
 21
1.0
 12
1575.0
 22
2227.5
 13
0.0
 23
0.0
 14
10.0
 24
10.0
 15
10.0
 25
10.0
 16
0.0
 26
0.0
 36
1.0
 17
0.0
 27
0.0
 37
0.0
 40
4455.0
 41
0.7070707071
 42
50.0
 43
0.0
 44
0.0
 50
0.0
 51
0.0
 71
     0
 72
  2000
 73
     1
 74
     3
 75
     0
 76
     0
 77
     0
 78
     0
281
     0
 65
     1
110
0.0
120
0.0
130
0.0
111
1.0
121
0.0
131
0.0
112
0.0
122
1.0
132
0.0
 79
     0
146
0.0
  0
ENDTAB
  0
TABLE
  2
LTYPE
  5
5
330
0
100
AcDbSymbolTable
 70
     6
  0
LTYPE
  5
14
330
5
100
AcDbSymbolTableRecord
100
AcDbLinetypeTableRecord
  2
ByBlock
 70
     0
  3

 72
    65
 73
     0
 40
0.0
  0
LTYPE
  5
15
330
5
100
AcDbSymbolTableRecord
100
AcDbLinetypeTableRecord
  2
ByLayer
 70
     0
  3

 72
    65
 73
     0
 40
0.0
  0
LTYPE
  5
16
330
5
100
AcDbSymbolTableRecord
100
AcDbLinetypeTableRecord
  2
Continuous
 70
     0
  3
Solid line
 72
    65
 73
     0
 40
0.0
  0
LTYPE
  5
5E
330
5
100
AcDbSymbolTableRecord
100
AcDbLinetypeTableRecord
  2
HIDDEN
 70
     0
  3
Hidden __ __ __ __ __ __ __ __ __ __ __ __ __ __
 72
    65
 73
     2
 40
1.905
 49
1.27
 74
     0
 49
-0.635
 74
     0
  0
LTYPE
  5
5F
330
5
100
AcDbSymbolTableRecord
100
AcDbLinetypeTableRecord
  2
PHANTOM
 70
     0
  3
Phantom ______  __  __  ______  __  __  ______
 72
    65
 73
     6
 40
12.7
 49
6.35
 74
     0
 49
-1.27
 74
     0
 49
1.27
 74
     0
 49
-1.27
 74
     0
 49
1.27
 74
     0
 49
-1.27
 74
     0
  0
LTYPE
  5
60
330
5
100
AcDbSymbolTableRecord
100
AcDbLinetypeTableRecord
  2
CENTER
 70
     0
  3
Center ____ _ ____ _ ____ _ ____ _ ____ _ ____
 72
    65
 73
     4
 40
10.16
 49
6.35
 74
     0
 49
-1.27
 74
     0
 49
1.27
 74
     0
 49
-1.27
 74
     0
  0
LTYPE
  5
61
330
5
100
AcDbSymbolTableRecord
100
AcDbLinetypeTableRecord
  2
CENTERX2
 70
     0
  3
Center (2x) ________  __  ________  __  _____
 72
    65
 73
     4
 40
20.32
 49
12.7
 74
     0
 49
-2.54
 74
     0
 49
2.54
 74
     0
 49
-2.54
 74
     0
  0
LTYPE
  5
62
330
5
100
AcDbSymbolTableRecord
100
AcDbLinetypeTableRecord
  2
DOT2
 70
     0
  3
Dot (.5x) ........................................
 72
    65
 73
     2
 40
0.635
 49
0.0
 74
     0
 49
-0.635
 74
     0
  0
ENDTAB
  0
TABLE
  2
LAYER
  5
2
330
0
100
AcDbSymbolTable
 70
     6
  0
LAYER
  5
10
330
2
100
AcDbSymbolTableRecord
100
AcDbLayerTableRecord
  2
0
 70
     0
 62
     7
  6
Continuous
370
    -3
390
F
  0
LAYER
  5
63
330
2
100
AcDbSymbolTableRecord
100
AcDbLayerTableRecord
  2
1
 70
     0
 62
     4
  6
Continuous
370
    25
390
F
  0
LAYER
  5
64
330
2
100
AcDbSymbolTableRecord
100
AcDbLayerTableRecord
  2
2
 70
     0
 62
     3
  6
CENTERX2
370
    -3
390
F
  0
LAYER
  5
65
330
2
100
AcDbSymbolTableRecord
100
AcDbLayerTableRecord
  2
3
 70
     0
 62
     2
  6
Continuous
370
    -3
390
F
  0
LAYER
  5
66
330
2
100
AcDbSymbolTableRecord
100
AcDbLayerTableRecord
  2
4
 70
     0
 62
     7
  6
Continuous
370
    -3
390
F
  0
LAYER
  5
67
330
2
100
AcDbSymbolTableRecord
100
AcDbLayerTableRecord
  2
基礎穴
 70
     0
 62
     1
  6
PHANTOM
370
    35
390
F
  0
ENDTAB
  0
TABLE
  2
STYLE
  5
3
330
0
100
AcDbSymbolTable
 70
     2
  0
STYLE
  5
11
330
3
100
AcDbSymbolTableRecord
100
AcDbTextStyleTableRecord
  2
Standard
 70
     0
 40
0.0
 41
1.0
 50
0.0
 71
     0
 42
52.9166666667
  3
txt
  4
bigfont
  0
STYLE
  5
68
330
3
100
AcDbSymbolTableRecord
100
AcDbTextStyleTableRecord
  2
SLDTEXTSTYLE0
 70
     0
 40
0.0
 41
0.7
 50
0.0
 71
     0
 42
52.9166666667
  3
TXT
  4
bigfont
  0
ENDTAB
  0
TABLE
  2
VIEW
  5
6
330
0
100
AcDbSymbolTable
 70
     0
  0
ENDTAB
  0
TABLE
  2
UCS
  5
7
330
0
100
AcDbSymbolTable
 70
     0
  0
ENDTAB
  0
TABLE
  2
APPID
  5
9
330
0
100
AcDbSymbolTable
 70
     1
  0
APPID
  5
12
330
9
100
AcDbSymbolTableRecord
100
AcDbRegAppTableRecord
  2
ACAD
 70
     0
  0
ENDTAB
  0
TABLE
  2
DIMSTYLE
  5
A
330
0
100
AcDbSymbolTable
 70
     1
100
AcDbDimStyleTable
  0
DIMSTYLE
105
27
330
A
100
AcDbSymbolTableRecord
100
AcDbDimStyleTableRecord
  2
ISO-25
 70
     0
 41
2.5
 42
0.625
 43
3.75
 44
1.25
 73
     0
 74
     0
 77
     1
 78
     8
140
2.5
141
2.5
143
0.0393700787
147
0.625
171
     3
172
     1
178
     0
271
     2
272
     2
274
     3
278
    44
283
     0
284
     8
340
11
  0
ENDTAB
  0
TABLE
  2
BLOCK_RECORD
  5
1
330
0
100
AcDbSymbolTable
 70
     2
  0
BLOCK_RECORD
  5
1F
330
1
100
AcDbSymbolTableRecord
100
AcDbBlockTableRecord
  2
*Model_Space
340
22
  0
BLOCK_RECORD
  5
1B
330
1
100
AcDbSymbolTableRecord
100
AcDbBlockTableRecord
  2
*Paper_Space
340
1E
  0
BLOCK_RECORD
  5
23
330
1
100
AcDbSymbolTableRecord
100
AcDbBlockTableRecord
  2
*Paper_Space0
340
26
  0
BLOCK_RECORD
  5
C8
330
1
100
AcDbSymbolTableRecord
100
AcDbBlockTableRecord
  2
SW_CENTERMARKSYMBOL_0
340
0
102
{BLKREFS
331
D3
102
}
  0
ENDTAB
  0
ENDSEC
  0
SECTION
  2
BLOCKS
  0
BLOCK
  5
20
330
1F
100
AcDbEntity
  8
0
100
AcDbBlockBegin
  2
*Model_Space
 70
     0
 10
0.0
 20
0.0
 30
0.0
  3
*Model_Space
  1

  0
ENDBLK
  5
21
330
1F
100
AcDbEntity
  8
0
100
AcDbBlockEnd
  0
BLOCK
  5
1C
330
1B
100
AcDbEntity
 67
     1
  8
0
100
AcDbBlockBegin
  2
*Paper_Space
 70
     0
 10
0.0
 20
0.0
 30
0.0
  3
*Paper_Space
  1

  0
ENDBLK
  5
1D
330
1B
100
AcDbEntity
 67
     1
  8
0
100
AcDbBlockEnd
  0
BLOCK
  5
24
330
23
100
AcDbEntity
  8
0
100
AcDbBlockBegin
  2
*Paper_Space0
 70
     0
 10
0.0
 20
0.0
 30
0.0
  3
*Paper_Space0
  1

  0
ENDBLK
  5
25
330
23
100
AcDbEntity
  8
0
100
AcDbBlockEnd
  0
BLOCK
  5
C9
330
C8
100
AcDbEntity
  8
0
100
AcDbBlockBegin
  2
SW_CENTERMARKSYMBOL_0
 70
     0
 10
0.0
 20
0.0
 30
0.0
  3
SW_CENTERMARKSYMBOL_0
  1

  0
LINE
  5
CB
330
C8
100
AcDbEntity
  8
2
 62
     0
100
AcDbLine
 10
0.0
 20
0.0
 30
0.0
 11
0.0
 21
2.5
 31
0.0
  0
LINE
  5
CC
330
C8
100
AcDbEntity
  8
2
 62
     0
100
AcDbLine
 10
0.0
 20
0.0
 30
0.0
 11
-2.5
 21
0.0
 31
0.0
  0
LINE
  5
CD
330
C8
100
AcDbEntity
  8
2
 62
     0
100
AcDbLine
 10
0.0
 20
0.0
 30
0.0
 11
0.0
 21
-2.5
 31
0.0
  0
LINE
  5
CE
330
C8
100
AcDbEntity
  8
2
 62
     0
100
AcDbLine
 10
0.0
 20
0.0
 30
0.0
 11
2.5
 21
0.0
 31
0.0
  0
LINE
  5
CF
330
C8
100
AcDbEntity
  8
2
 62
     0
100
AcDbLine
 10
0.0
 20
5.0
 30
0.0
 11
0.0
 21
282.5
 31
0.0
  0
LINE
  5
D0
330
C8
100
AcDbEntity
  8
2
 62
     0
100
AcDbLine
 10
-5.0
 20
0.0
 30
0.0
 11
-282.5
 21
0.0
 31
0.0
  0
LINE
  5
D1
330
C8
100
AcDbEntity
  8
2
 62
     0
100
AcDbLine
 10
0.0
 20
-5.0
 30
0.0
 11
0.0
 21
-282.5
 31
0.0
  0
LINE
  5
D2
330
C8
100
AcDbEntity
  8
2
 62
     0
100
AcDbLine
 10
5.0
 20
0.0
 30
0.0
 11
282.5
 21
0.0
 31
0.0
  0
ENDBLK
  5
CA
330
C8
100
AcDbEntity
  8
0
100
AcDbBlockEnd
  0
ENDSEC
  0
SECTION
  2
ENTITIES
  0
MTEXT
  5
69
330
1F
100
AcDbEntity
  8
0
  6
Continuous
 62
     7
370
     0
100
AcDbMText
 10
2050.2655681864
 20
431.7801506119
 30
0.0
 40
39.6875
 41
0.0
 71
     1
 72
     1
  1
LL03040Y101K-R1
  7
SLDTEXTSTYLE0
 73
     1
 44
1.0
  0
LINE
  5
6A
330
1F
100
AcDbEntity
  8
1
100
AcDbLine
 10
783.149397092
 20
1048.8046982687
 30
0.0
 11
783.149397092
 21
1053.3046982687
 31
0.0
  0
LINE
  5
6B
330
1F
100
AcDbEntity
  8
1
100
AcDbLine
 10
433.149397092
 20
1383.3046982687
 30
0.0
 11
433.149397092
 21
1053.3046982687
 31
0.0
  0
LINE
  5
6C
330
1F
100
AcDbEntity
  8
1
100
AcDbLine
 10
1173.149397092
 20
1663.3046982687
 30
0.0
 11
433.149397092
 21
1383.3046982687
 31
0.0
  0
LINE
  5
6D
330
1F
100
AcDbEntity
  8
1
100
AcDbLine
 10
1473.149397092
 20
1663.3046982687
 30
0.0
 11
1173.149397092
 21
1663.3046982687
 31
0.0
  0
LINE
  5
6E
330
1F
100
AcDbEntity
  8
1
100
AcDbLine
 10
1473.149397092
 20
1053.3046982687
 30
0.0
 11
1473.149397092
 21
1663.3046982687
 31
0.0
  0
LINE
  5
6F
330
1F
100
AcDbEntity
  8
1
100
AcDbLine
 10
433.149397092
 20
1053.3046982687
 30
0.0
 11
1473.149397092
 21
1053.3046982687
 31
0.0
  0
LINE
  5
70
330
1F
100
AcDbEntity
  8
1
100
AcDbLine
 10
1443.149397092
 20
1053.3046982687
 30
0.0
 11
1443.149397092
 21
1048.8046982687
 31
0.0
  0
LINE
  5
71
330
1F
100
AcDbEntity
  8
1
100
AcDbLine
 10
1473.149397092
 20
1053.3046982687
 30
0.0
 11
1543.149397092
 21
1053.3046982687
 31
0.0
  0
LINE
  5
72
330
1F
100
AcDbEntity
  8
1
100
AcDbLine
 10
1543.149397092
 20
1053.3046982687
 30
0.0
 11
1543.149397092
 21
1048.8046982687
 31
0.0
  0
LINE
  5
73
330
1F
100
AcDbEntity
  8
1
100
AcDbLine
 10
1443.149397092
 20
1048.8046982687
 30
0.0
 11
1543.149397092
 21
1048.8046982687
 31
0.0
  0
LINE
  5
74
330
1F
100
AcDbEntity
  8
1
100
AcDbLine
 10
363.149397092
 20
1053.3046982687
 30
0.0
 11
363.149397092
 21
1048.8046982687
 31
0.0
  0
LINE
  5
75
330
1F
100
AcDbEntity
  8
1
100
AcDbLine
 10
363.149397092
 20
1053.3046982687
 30
0.0
 11
433.149397092
 21
1053.3046982687
 31
0.0
  0
LINE
  5
76
330
1F
100
AcDbEntity
  8
1
100
AcDbLine
 10
463.149397092
 20
1053.3046982687
 30
0.0
 11
463.149397092
 21
1048.8046982687
 31
0.0
  0
LINE
  5
77
330
1F
100
AcDbEntity
  8
1
100
AcDbLine
 10
363.149397092
 20
1048.8046982687
 30
0.0
 11
463.149397092
 21
1048.8046982687
 31
0.0
  0
LINE
  5
78
330
1F
100
AcDbEntity
  8
1
100
AcDbLine
 10
463.149397092
 20
1048.8046982687
 30
0.0
 11
1443.149397092
 21
1048.8046982687
 31
0.0
  0
LINE
  5
79
330
1F
100
AcDbEntity
  8
1
100
AcDbLine
 10
1543.149397092
 20
1048.8046982687
 30
0.0
 11
1593.149397092
 21
1048.8046982687
 31
0.0
  0
LINE
  5
7A
330
1F
100
AcDbEntity
  8
1
100
AcDbLine
 10
1593.149397092
 20
1048.8046982687
 30
0.0
 11
1593.149397092
 21
1043.8046982687
 31
0.0
  0
LINE
  5
7B
330
1F
100
AcDbEntity
  8
1
100
AcDbLine
 10
413.149397092
 20
1043.8046982687
 30
0.0
 11
1593.149397092
 21
1043.8046982687
 31
0.0
  0
LINE
  5
7C
330
1F
100
AcDbEntity
  8
1
100
AcDbLine
 10
413.149397092
 20
1048.8046982687
 30
0.0
 11
413.149397092
 21
1043.8046982687
 31
0.0
  0
LINE
  5
7D
330
1F
100
AcDbEntity
  8
1
100
AcDbLine
 10
1593.149397092
 20
978.8046982687
 30
0.0
 11
1593.149397092
 21
973.8046982687
 31
0.0
  0
LINE
  5
7E
330
1F
100
AcDbEntity
  8
1
100
AcDbLine
 10
413.149397092
 20
973.8046982687
 30
0.0
 11
1593.149397092
 21
973.8046982687
 31
0.0
  0
LINE
  5
7F
330
1F
100
AcDbEntity
  8
1
100
AcDbLine
 10
413.149397092
 20
978.8046982687
 30
0.0
 11
413.149397092
 21
973.8046982687
 31
0.0
  0
LINE
  5
80
330
1F
100
AcDbEntity
  8
1
100
AcDbLine
 10
413.149397092
 20
978.8046982687
 30
0.0
 11
1593.149397092
 21
978.8046982687
 31
0.0
  0
LINE
  5
81
330
1F
100
AcDbEntity
  8
1
100
AcDbLine
 10
1558.149397092
 20
1043.8046982687
 30
0.0
 11
1558.149397092
 21
978.8046982687
 31
0.0
  0
LINE
  5
82
330
1F
100
AcDbEntity
  8
1
100
AcDbLine
 10
448.149397092
 20
1043.8046982687
 30
0.0
 11
448.149397092
 21
978.8046982687
 31
0.0
  0
LINE
  5
83
330
1F
100
AcDbEntity
  8
1
100
AcDbLine
 10
1635.149397092
 20
1387.8046982687
 30
0.0
 11
1638.149397092
 21
1387.8046982687
 31
0.0
  0
LINE
  5
84
330
1F
100
AcDbEntity
  8
1
100
AcDbLine
 10
1635.149397092
 20
1963.8046982687
 30
0.0
 11
1635.149397092
 21
1387.8046982687
 31
0.0
  0
LINE
  5
85
330
1F
100
AcDbEntity
  8
1
100
AcDbLine
 10
1635.149397092
 20
1963.8046982687
 30
0.0
 11
1638.149397092
 21
1963.8046982687
 31
0.0
  0
LINE
  5
86
330
1F
100
AcDbEntity
  8
1
100
AcDbLine
 10
1638.149397092
 20
1963.8046982687
 30
0.0
 11
1638.149397092
 21
1387.8046982687
 31
0.0
  0
LINE
  5
87
330
1F
100
AcDbEntity
  8
1
100
AcDbLine
 10
1578.349397092
 20
1418.6046982687
 30
0.0
 11
1635.149397092
 21
1418.6046982687
 31
0.0
  0
LINE
  5
88
330
1F
100
AcDbEntity
  8
1
100
AcDbLine
 10
1578.349397092
 20
1362.8046982687
 30
0.0
 11
1578.349397092
 21
1418.6046982687
 31
0.0
  0
ARC
  5
89
330
1F
100
AcDbEntity
  8
1
100
AcDbCircle
 10
1247.149397092
 20
1362.8046982687
 30
0.0
 40
331.2
100
AcDbArc
 50
288.5461744174
 51
290.8555940587
  0
ARC
  5
8A
330
1F
100
AcDbEntity
  8
1
100
AcDbCircle
 10
1247.149397092
 20
1362.8046982687
 30
0.0
 40
331.2000000000001
100
AcDbArc
 50
313.0288985538
 51
0.0
  0
LINE
  5
8B
330
1F
100
AcDbEntity
  8
1
100
AcDbLine
 10
1635.149397092
 20
1932.7552798233
 30
0.0
 11
1275.2745017435
 21
1902.3216467668
 31
0.0
  0
ARC
  5
8C
330
1F
100
AcDbEntity
  8
1
100
AcDbCircle
 10
1315.149397092
 20
1430.8046982687
 30
0.0
 40
473.2000000000002
100
AcDbArc
 50
94.8338455746
 51
166.2720756038
  0
ARC
  5
8D
330
1F
100
AcDbEntity
  8
1
100
AcDbCircle
 10
1241.149397092
 20
1430.8046982687
 30
0.0
 40
399.1999999999999
100
AcDbArc
 50
251.0216066694
 51
253.1197686788
  0
CIRCLE
  5
8E
330
1F
100
AcDbEntity
  8
0
  6
HIDDEN
 62
     7
370
    18
100
AcDbCircle
 10
608.149397092
 20
1225.8046982687
 30
0.0
 40
18.99999999999989
  0
LINE
  5
8F
330
1F
100
AcDbEntity
  8
0
  6
HIDDEN
 62
     7
370
    18
100
AcDbLine
 10
675.8331469881
 20
1100.4046982687
 30
0.0
 11
540.4656471959
 21
1100.4046982687
 31
0.0
  0
ARC
  5
90
330
1F
100
AcDbEntity
  8
0
  6
HIDDEN
 62
     7
370
    18
100
AcDbCircle
 10
608.149397092
 20
1225.8046982687
 30
0.0
 40
142.5
100
AcDbArc
 50
298.3576365763
 51
241.6423634237
  0
LINE
  5
91
330
1F
100
AcDbEntity
  8
0
  6
HIDDEN
 62
     7
370
    18
100
AcDbLine
 10
433.149397092
 20
1048.8046982687
 30
0.0
 11
433.149397092
 21
1053.3046982687
 31
0.0
  0
LINE
  5
92
330
1F
100
AcDbEntity
  8
0
  6
HIDDEN
 62
     7
370
    18
100
AcDbLine
 10
783.149397092
 20
1093.8046982687
 30
0.0
 11
433.149397092
 21
1093.8046982687
 31
0.0
  0
LINE
  5
93
330
1F
100
AcDbEntity
  8
0
  6
HIDDEN
 62
     7
370
    18
100
AcDbLine
 10
783.149397092
 20
1053.3046982687
 30
0.0
 11
783.149397092
 21
1093.8046982687
 31
0.0
  0
LINE
  5
94
330
1F
100
AcDbEntity
  8
0
  6
HIDDEN
 62
     7
370
    18
100
AcDbLine
 10
695.649397092
 20
1107.0046982687
 30
0.0
 11
686.843806042
 21
1107.0046982687
 31
0.0
  0
LINE
  5
95
330
1F
100
AcDbEntity
  8
0
  6
HIDDEN
 62
     7
370
    18
100
AcDbLine
 10
695.649397092
 20
1093.8046982687
 30
0.0
 11
695.649397092
 21
1107.0046982687
 31
0.0
  0
LINE
  5
96
330
1F
100
AcDbEntity
  8
0
  6
HIDDEN
 62
     7
370
    18
100
AcDbLine
 10
520.649397092
 20
1107.0046982687
 30
0.0
 11
520.649397092
 21
1093.8046982687
 31
0.0
  0
LINE
  5
97
330
1F
100
AcDbEntity
  8
0
  6
HIDDEN
 62
     7
370
    18
100
AcDbLine
 10
529.4549881419
 20
1107.0046982687
 30
0.0
 11
520.649397092
 21
1107.0046982687
 31
0.0
  0
CIRCLE
  5
98
330
1F
100
AcDbEntity
  8
0
  6
HIDDEN
 62
     7
370
    18
100
AcDbCircle
 10
608.149397092
 20
1225.8046982687
 30
0.0
 40
75.0
  0
CIRCLE
  5
99
330
1F
100
AcDbEntity
  8
0
  6
HIDDEN
 62
     7
370
    18
100
AcDbCircle
 10
1278.149397092
 20
1393.8046982687
 30
0.0
 40
75.0000000000001
  0
LINE
  5
9A
330
1F
100
AcDbEntity
  8
0
  6
HIDDEN
 62
     7
370
    18
100
AcDbLine
 10
453.149397092
 20
1048.8046982687
 30
0.0
 11
453.149397092
 21
973.8046982687
 31
0.0
  0
LINE
  5
9B
330
1F
100
AcDbEntity
  8
0
  6
HIDDEN
 62
     7
370
    18
100
AcDbLine
 10
1553.149397092
 20
1048.8046982687
 30
0.0
 11
1553.149397092
 21
973.8046982687
 31
0.0
  0
ARC
  5
9C
330
1F
100
AcDbEntity
  8
0
  6
HIDDEN
 62
     7
370
    18
100
AcDbCircle
 10
1247.149397092
 20
1362.8046982687
 30
0.0
 40
331.2
100
AcDbArc
 50
270.0
 51
288.5461744174
  0
ARC
  5
9D
330
1F
100
AcDbEntity
  8
0
  6
HIDDEN
 62
     7
370
    18
100
AcDbCircle
 10
1247.149397092
 20
1362.8046982687
 30
0.0
 40
331.2000000000001
100
AcDbArc
 50
290.8555940587
 51
313.0288985538
  0
ARC
  5
9E
330
1F
100
AcDbEntity
  8
0
  6
HIDDEN
 62
     7
370
    18
100
AcDbCircle
 10
1315.149397092
 20
1430.8046982687
 30
0.0
 40
473.2000000000002
100
AcDbArc
 50
166.2720756038
 51
180.0
  0
LINE
  5
9F
330
1F
100
AcDbEntity
  8
0
  6
HIDDEN
 62
     7
370
    18
100
AcDbLine
 10
1241.149397092
 20
1031.6046982687
 30
0.0
 11
1247.149397092
 21
1031.6046982687
 31
0.0
  0
ARC
  5
A0
330
1F
100
AcDbEntity
  8
0
  6
HIDDEN
 62
     7
370
    18
100
AcDbCircle
 10
1241.149397092
 20
1430.8046982687
 30
0.0
 40
399.1999999999999
100
AcDbArc
 50
180.0
 51
251.0216066694
  0
ARC
  5
A1
330
1F
100
AcDbEntity
  8
0
  6
HIDDEN
 62
     7
370
    18
100
AcDbCircle
 10
1241.149397092
 20
1430.8046982687
 30
0.0
 40
399.2
100
AcDbArc
 50
253.1197686788
 51
270.0
  0
ARC
  5
A2
330
1F
100
AcDbEntity
  8
0
  6
HIDDEN
 62
     7
370
    18
100
AcDbCircle
 10
1315.149397092
 20
1430.8046982687
 30
0.0
 40
472.0000000000003
100
AcDbArc
 50
94.8338455746
 51
180.0
  0
LINE
  5
A3
330
1F
100
AcDbEntity
  8
0
  6
HIDDEN
 62
     7
370
    18
100
AcDbLine
 10
1577.149397092
 20
1419.8046982687
 30
0.0
 11
1638.149397092
 21
1419.8046982687
 31
0.0
  0
LINE
  5
A4
330
1F
100
AcDbEntity
  8
0
  6
HIDDEN
 62
     7
370
    18
100
AcDbLine
 10
1638.149397092
 20
1931.8046982687
 30
0.0
 11
1275.375621512
 21
1901.1259148602
 31
0.0
  0
LINE
  5
A5
330
1F
100
AcDbEntity
  8
0
  6
HIDDEN
 62
     7
370
    18
100
AcDbLine
 10
1241.149397092
 20
1032.8046982687
 30
0.0
 11
1247.149397092
 21
1032.8046982687
 31
0.0
  0
ARC
  5
A6
330
1F
100
AcDbEntity
  8
0
  6
HIDDEN
 62
     7
370
    18
100
AcDbCircle
 10
1241.149397092
 20
1430.8046982687
 30
0.0
 40
398.0
100
AcDbArc
 50
180.0
 51
270.0
  0
LINE
  5
A7
330
1F
100
AcDbEntity
  8
0
  6
HIDDEN
 62
     7
370
    18
100
AcDbLine
 10
1577.149397092
 20
1362.8046982687
 30
0.0
 11
1577.149397092
 21
1419.8046982687
 31
0.0
  0
ARC
  5
A8
330
1F
100
AcDbEntity
  8
0
  6
HIDDEN
 62
     7
370
    18
100
AcDbCircle
 10
1247.149397092
 20
1362.8046982687
 30
0.0
 40
330.0000000000002
100
AcDbArc
 50
270.0
 51
0.0
  0
CIRCLE
  5
A9
330
1F
100
AcDbEntity
  8
0
  6
HIDDEN
 62
     7
370
    18
100
AcDbCircle
 10
1278.149397092
 20
1393.8046982687
 30
0.0
 40
250.0000000000002
  0
CIRCLE
  5
AA
330
1F
100
AcDbEntity
  8
0
  6
HIDDEN
 62
     7
370
    18
100
AcDbCircle
 10
1278.149397092
 20
1393.8046982687
 30
0.0
 40
280.0
  0
CIRCLE
  5
AB
330
1F
100
AcDbEntity
  8
0
  6
HIDDEN
 62
     7
370
    18
100
AcDbCircle
 10
1278.149397092
 20
1393.8046982687
 30
0.0
 40
252.3
  0
CIRCLE
  5
AC
330
1F
100
AcDbEntity
  8
0
  6
HIDDEN
 62
     7
370
    18
100
AcDbCircle
 10
1467.3004610594
 20
1582.9557622361
 30
0.0
 40
4.0
  0
CIRCLE
  5
AD
330
1F
100
AcDbEntity
  8
0
  6
HIDDEN
 62
     7
370
    18
100
AcDbCircle
 10
1536.5345556243
 20
1463.0387928336
 30
0.0
 40
4.000000000000227
  0
CIRCLE
  5
AE
330
1F
100
AcDbEntity
  8
0
  6
HIDDEN
 62
     7
370
    18
100
AcDbCircle
 10
1536.5345556243
 20
1324.5706037037
 30
0.0
 40
4.0
  0
CIRCLE
  5
AF
330
1F
100
AcDbEntity
  8
0
  6
HIDDEN
 62
     7
370
    18
100
AcDbCircle
 10
1467.3004610594
 20
1204.6536343013
 30
0.0
 40
4.000000000000227
  0
CIRCLE
  5
B0
330
1F
100
AcDbEntity
  8
0
  6
HIDDEN
 62
     7
370
    18
100
AcDbCircle
 10
1347.3834916569
 20
1135.4195397363
 30
0.0
 40
4.0
  0
CIRCLE
  5
B1
330
1F
100
AcDbEntity
  8
0
  6
HIDDEN
 62
     7
370
    18
100
AcDbCircle
 10
1208.915302527
 20
1135.4195397363
 30
0.0
 40
4.0
  0
CIRCLE
  5
B2
330
1F
100
AcDbEntity
  8
0
  6
HIDDEN
 62
     7
370
    18
100
AcDbCircle
 10
1088.9983331246
 20
1204.6536343013
 30
0.0
 40
4.0
  0
CIRCLE
  5
B3
330
1F
100
AcDbEntity
  8
0
  6
HIDDEN
 62
     7
370
    18
100
AcDbCircle
 10
1019.7642385596
 20
1324.5706037037
 30
0.0
 40
4.0
  0
CIRCLE
  5
B4
330
1F
100
AcDbEntity
  8
0
  6
HIDDEN
 62
     7
370
    18
100
AcDbCircle
 10
1019.7642385596
 20
1463.0387928336
 30
0.0
 40
4.0
  0
CIRCLE
  5
B5
330
1F
100
AcDbEntity
  8
0
  6
HIDDEN
 62
     7
370
    18
100
AcDbCircle
 10
1088.9983331246
 20
1582.9557622361
 30
0.0
 40
3.999999999999773
  0
CIRCLE
  5
B6
330
1F
100
AcDbEntity
  8
0
  6
HIDDEN
 62
     7
370
    18
100
AcDbCircle
 10
1208.915302527
 20
1652.189856801
 30
0.0
 40
4.0
  0
CIRCLE
  5
B7
330
1F
100
AcDbEntity
  8
0
  6
HIDDEN
 62
     7
370
    18
100
AcDbCircle
 10
1347.3834916569
 20
1652.189856801
 30
0.0
 40
4.000000000000227
  0
LINE
  5
B8
330
1F
100
AcDbEntity
  8
0
  6
HIDDEN
 62
     7
370
    18
100
AcDbLine
 10
469.149397092
 20
973.8046982687
 30
0.0
 11
469.149397092
 21
978.8046982687
 31
0.0
  0
LINE
  5
B9
330
1F
100
AcDbEntity
  8
0
  6
HIDDEN
 62
     7
370
    18
100
AcDbLine
 10
457.149397092
 20
978.8046982687
 30
0.0
 11
457.149397092
 21
973.8046982687
 31
0.0
  0
LINE
  5
BA
330
1F
100
AcDbEntity
  8
0
  6
HIDDEN
 62
     7
370
    18
100
AcDbLine
 10
1549.149397092
 20
973.8046982687
 30
0.0
 11
1549.149397092
 21
978.8046982687
 31
0.0
  0
LINE
  5
BB
330
1F
100
AcDbEntity
  8
0
  6
HIDDEN
 62
     7
370
    18
100
AcDbLine
 10
1537.149397092
 20
978.8046982687
 30
0.0
 11
1537.149397092
 21
973.8046982687
 31
0.0
  0
LINE
  5
BC
330
1F
100
AcDbEntity
  8
0
  6
HIDDEN
 62
     7
370
    18
100
AcDbLine
 10
1009.149397092
 20
973.8046982687
 30
0.0
 11
1009.149397092
 21
978.8046982687
 31
0.0
  0
LINE
  5
BD
330
1F
100
AcDbEntity
  8
0
  6
HIDDEN
 62
     7
370
    18
100
AcDbLine
 10
997.149397092
 20
978.8046982687
 30
0.0
 11
997.149397092
 21
973.8046982687
 31
0.0
  0
LINE
  5
BE
330
1F
100
AcDbEntity
  8
0
  6
HIDDEN
 62
     7
370
    18
100
AcDbLine
 10
1638.149397092
 20
1829.8046982687
 30
0.0
 11
1635.149397092
 21
1829.8046982687
 31
0.0
  0
LINE
  5
BF
330
1F
100
AcDbEntity
  8
0
  6
HIDDEN
 62
     7
370
    18
100
AcDbLine
 10
1635.149397092
 20
1821.8046982687
 30
0.0
 11
1638.149397092
 21
1821.8046982687
 31
0.0
  0
LINE
  5
C0
330
1F
100
AcDbEntity
  8
0
  6
HIDDEN
 62
     7
370
    18
100
AcDbLine
 10
1638.149397092
 20
1529.8046982687
 30
0.0
 11
1635.149397092
 21
1529.8046982687
 31
0.0
  0
LINE
  5
C1
330
1F
100
AcDbEntity
  8
0
  6
HIDDEN
 62
     7
370
    18
100
AcDbLine
 10
1635.149397092
 20
1521.8046982687
 30
0.0
 11
1638.149397092
 21
1521.8046982687
 31
0.0
  0
LINE
  5
C2
330
1F
100
AcDbEntity
  8
0
  6
HIDDEN
 62
     7
370
    18
100
AcDbLine
 10
1638.149397092
 20
1404.8046982687
 30
0.0
 11
1635.149397092
 21
1404.8046982687
 31
0.0
  0
LINE
  5
C3
330
1F
100
AcDbEntity
  8
0
  6
HIDDEN
 62
     7
370
    18
100
AcDbLine
 10
1635.149397092
 20
1396.8046982687
 30
0.0
 11
1638.149397092
 21
1396.8046982687
 31
0.0
  0
LINE
  5
C4
330
1F
100
AcDbEntity
  8
0
  6
HIDDEN
 62
     7
370
    18
100
AcDbLine
 10
1638.149397092
 20
1679.8046982687
 30
0.0
 11
1635.149397092
 21
1679.8046982687
 31
0.0
  0
LINE
  5
C5
330
1F
100
AcDbEntity
  8
0
  6
HIDDEN
 62
     7
370
    18
100
AcDbLine
 10
1635.149397092
 20
1671.8046982687
 30
0.0
 11
1638.149397092
 21
1671.8046982687
 31
0.0
  0
LINE
  5
C6
330
1F
100
AcDbEntity
  8
0
  6
HIDDEN
 62
     7
370
    18
100
AcDbLine
 10
1638.149397092
 20
1954.8046982687
 30
0.0
 11
1635.149397092
 21
1954.8046982687
 31
0.0
  0
LINE
  5
C7
330
1F
100
AcDbEntity
  8
0
  6
HIDDEN
 62
     7
370
    18
100
AcDbLine
 10
1635.149397092
 20
1946.8046982687
 30
0.0
 11
1638.149397092
 21
1946.8046982687
 31
0.0
  0
INSERT
  5
D3
330
1F
100
AcDbEntity
  8
2
100
AcDbBlockReference
  2
SW_CENTERMARKSYMBOL_0
 10
1278.149397092
 20
1393.8046982687
 30
0.0
  0
LINE
  5
D4
330
1F
100
AcDbEntity
  8
1
100
AcDbLine
 10
2282.8983606761
 20
1368.3046982687
 30
0.0
 11
2190.1983606761
 21
1368.3046982687
 31
0.0
  0
LINE
  5
D5
330
1F
100
AcDbEntity
  8
1
100
AcDbLine
 10
2152.6983606761
 20
1206.8046982687
 30
0.0
 11
2190.1983606761
 21
1206.8046982687
 31
0.0
  0
LINE
  5
D6
330
1F
100
AcDbEntity
  8
1
100
AcDbLine
 10
2190.1983606761
 20
1244.8046982687
 30
0.0
 11
2152.6983606761
 21
1244.8046982687
 31
0.0
  0
LINE
  5
D7
330
1F
100
AcDbEntity
  8
1
100
AcDbLine
 10
2723.6983606761
 20
1673.8046982687
 30
0.0
 11
2721.3983606761
 21
1673.8046982687
 31
0.0
  0
LINE
  5
D8
330
1F
100
AcDbEntity
  8
1
100
AcDbLine
 10
2721.3983606761
 20
1113.8046982687
 30
0.0
 11
2723.6983606761
 21
1113.8046982687
 31
0.0
  0
LINE
  5
D9
330
1F
100
AcDbEntity
  8
1
100
AcDbLine
 10
2662.4983606761
 20
1113.8046982687
 30
0.0
 11
2664.6983606761
 21
1113.8046982687
 31
0.0
  0
LINE
  5
DA
330
1F
100
AcDbEntity
  8
1
100
AcDbLine
 10
2721.3983606761
 20
1646.1046982687
 30
0.0
 11
2692.6983606761
 21
1646.1046982687
 31
0.0
  0
LINE
  5
DB
330
1F
100
AcDbEntity
  8
1
100
AcDbLine
 10
2664.6983606761
 20
1141.5046982687
 30
0.0
 11
2721.3983606761
 21
1141.5046982687
 31
0.0
  0
LINE
  5
DC
330
1F
100
AcDbEntity
  8
1
100
AcDbLine
 10
2209.1983606761
 20
1048.8046982687
 30
0.0
 11
2209.1983606761
 21
1093.8046982687
 31
0.0
  0
LINE
  5
DD
330
1F
100
AcDbEntity
  8
1
100
AcDbLine
 10
2282.8983606761
 20
1093.8046982687
 30
0.0
 11
2209.1983606761
 21
1093.8046982687
 31
0.0
  0
LINE
  5
DE
330
1F
100
AcDbEntity
  8
1
100
AcDbLine
 10
2219.1983606761
 20
1100.4046982687
 30
0.0
 11
2190.1983606761
 21
1100.4046982687
 31
0.0
  0
LINE
  5
DF
330
1F
100
AcDbEntity
  8
1
100
AcDbLine
 10
2190.1983606761
 20
1368.3046982687
 30
0.0
 11
2190.1983606761
 21
1100.4046982687
 31
0.0
  0
LINE
  5
E0
330
1F
100
AcDbEntity
  8
1
100
AcDbLine
 10
2219.1983606761
 20
1093.8046982687
 30
0.0
 11
2219.1983606761
 21
1107.0046982687
 31
0.0
  0
LINE
  5
E1
330
1F
100
AcDbEntity
  8
1
100
AcDbLine
 10
2219.1983606761
 20
1107.0046982687
 30
0.0
 11
2282.8983606761
 21
1107.0046982687
 31
0.0
  0
LINE
  5
E2
330
1F
100
AcDbEntity
  8
1
100
AcDbLine
 10
1992.6983606761
 20
1053.3046982687
 30
0.0
 11
1992.6983606761
 21
1663.3046982687
 31
0.0
  0
LINE
  5
E3
330
1F
100
AcDbEntity
  8
1
100
AcDbLine
 10
2152.6983606761
 20
1053.3046982687
 30
0.0
 11
2152.6983606761
 21
1663.3046982687
 31
0.0
  0
LINE
  5
E4
330
1F
100
AcDbEntity
  8
1
100
AcDbLine
 10
1992.6983606761
 20
1053.3046982687
 30
0.0
 11
2042.6983606761
 21
1053.3046982687
 31
0.0
  0
LINE
  5
E5
330
1F
100
AcDbEntity
  8
1
100
AcDbLine
 10
1992.6983606761
 20
1663.3046982687
 30
0.0
 11
2152.6983606761
 21
1663.3046982687
 31
0.0
  0
LINE
  5
E6
330
1F
100
AcDbEntity
  8
1
100
AcDbLine
 10
2702.6983606761
 20
1048.8046982687
 30
0.0
 11
2702.6983606761
 21
1043.8046982687
 31
0.0
  0
LINE
  5
E7
330
1F
100
AcDbEntity
  8
1
100
AcDbLine
 10
2142.6983606761
 20
1043.8046982687
 30
0.0
 11
2702.6983606761
 21
1043.8046982687
 31
0.0
  0
LINE
  5
E8
330
1F
100
AcDbEntity
  8
1
100
AcDbLine
 10
2142.6983606761
 20
1048.8046982687
 30
0.0
 11
2142.6983606761
 21
1043.8046982687
 31
0.0
  0
LINE
  5
E9
330
1F
100
AcDbEntity
  8
1
100
AcDbLine
 10
2142.6983606761
 20
1048.8046982687
 30
0.0
 11
2702.6983606761
 21
1048.8046982687
 31
0.0
  0
LINE
  5
EA
330
1F
100
AcDbEntity
  8
1
100
AcDbLine
 10
2702.6983606761
 20
978.8046982687
 30
0.0
 11
2702.6983606761
 21
973.8046982687
 31
0.0
  0
LINE
  5
EB
330
1F
100
AcDbEntity
  8
1
100
AcDbLine
 10
2142.6983606761
 20
978.8046982687
 30
0.0
 11
2142.6983606761
 21
973.8046982687
 31
0.0
  0
LINE
  5
EC
330
1F
100
AcDbEntity
  8
1
100
AcDbLine
 10
2142.6983606761
 20
978.8046982687
 30
0.0
 11
2702.6983606761
 21
978.8046982687
 31
0.0
  0
LINE
  5
ED
330
1F
100
AcDbEntity
  8
1
100
AcDbLine
 10
2142.6983606761
 20
973.8046982687
 30
0.0
 11
2702.6983606761
 21
973.8046982687
 31
0.0
  0
LINE
  5
EE
330
1F
100
AcDbEntity
  8
1
100
AcDbLine
 10
2667.6983606761
 20
1043.8046982687
 30
0.0
 11
2667.6983606761
 21
978.8046982687
 31
0.0
  0
LINE
  5
EF
330
1F
100
AcDbEntity
  8
1
100
AcDbLine
 10
2177.6983606761
 20
1043.8046982687
 30
0.0
 11
2177.6983606761
 21
978.8046982687
 31
0.0
  0
LINE
  5
F0
330
1F
100
AcDbEntity
  8
1
100
AcDbLine
 10
2042.6983606761
 20
1053.3046982687
 30
0.0
 11
2042.6983606761
 21
1048.8046982687
 31
0.0
  0
LINE
  5
F1
330
1F
100
AcDbEntity
  8
1
100
AcDbLine
 10
2042.6983606761
 20
1053.3046982687
 30
0.0
 11
2172.6983606761
 21
1053.3046982687
 31
0.0
  0
LINE
  5
F2
330
1F
100
AcDbEntity
  8
1
100
AcDbLine
 10
2042.6983606761
 20
1048.8046982687
 30
0.0
 11
2142.6983606761
 21
1048.8046982687
 31
0.0
  0
LINE
  5
F3
330
1F
100
AcDbEntity
  8
1
100
AcDbLine
 10
2172.6983606761
 20
1053.3046982687
 30
0.0
 11
2172.6983606761
 21
1048.8046982687
 31
0.0
  0
CIRCLE
  5
F4
330
1F
100
AcDbEntity
  8
1
100
AcDbCircle
 10
2265.6983606761
 20
1675.8046982687
 30
0.0
 40
4.0
  0
CIRCLE
  5
F5
330
1F
100
AcDbEntity
  8
1
100
AcDbCircle
 10
2265.6983606761
 20
1825.8046982687
 30
0.0
 40
4.0
  0
CIRCLE
  5
F6
330
1F
100
AcDbEntity
  8
1
100
AcDbCircle
 10
2265.6983606761
 20
1950.8046982687
 30
0.0
 40
4.0
  0
CIRCLE
  5
F7
330
1F
100
AcDbEntity
  8
1
100
AcDbCircle
 10
2397.6983606761
 20
1950.8046982687
 30
0.0
 40
4.0
  0
CIRCLE
  5
F8
330
1F
100
AcDbEntity
  8
1
100
AcDbCircle
 10
2547.6983606761
 20
1950.8046982687
 30
0.0
 40
4.0
  0
CIRCLE
  5
F9
330
1F
100
AcDbEntity
  8
1
100
AcDbCircle
 10
2679.6983606761
 20
1950.8046982687
 30
0.0
 40
4.0
  0
CIRCLE
  5
FA
330
1F
100
AcDbEntity
  8
1
100
AcDbCircle
 10
2679.6983606761
 20
1825.8046982687
 30
0.0
 40
4.0
  0
CIRCLE
  5
FB
330
1F
100
AcDbEntity
  8
1
100
AcDbCircle
 10
2679.6983606761
 20
1675.8046982687
 30
0.0
 40
4.0
  0
CIRCLE
  5
FC
330
1F
100
AcDbEntity
  8
1
100
AcDbCircle
 10
2679.6983606761
 20
1525.8046982687
 30
0.0
 40
4.0
  0
CIRCLE
  5
FD
330
1F
100
AcDbEntity
  8
1
100
AcDbCircle
 10
2679.6983606761
 20
1400.8046982687
 30
0.0
 40
4.0
  0
CIRCLE
  5
FE
330
1F
100
AcDbEntity
  8
1
100
AcDbCircle
 10
2547.6983606761
 20
1400.8046982687
 30
0.0
 40
4.0
  0
CIRCLE
  5
FF
330
1F
100
AcDbEntity
  8
1
100
AcDbCircle
 10
2397.6983606761
 20
1400.8046982687
 30
0.0
 40
4.0
  0
CIRCLE
  5
100
330
1F
100
AcDbEntity
  8
1
100
AcDbCircle
 10
2265.6983606761
 20
1400.8046982687
 30
0.0
 40
4.0
  0
CIRCLE
  5
101
330
1F
100
AcDbEntity
  8
1
100
AcDbCircle
 10
2265.6983606761
 20
1525.8046982687
 30
0.0
 40
4.0
  0
LINE
  5
102
330
1F
100
AcDbEntity
  8
1
100
AcDbLine
 10
2692.6983606761
 20
1963.8046982687
 30
0.0
 11
2252.6983606761
 21
1963.8046982687
 31
0.0
  0
LINE
  5
103
330
1F
100
AcDbEntity
  8
1
100
AcDbLine
 10
2692.6983606761
 20
1387.8046982687
 30
0.0
 11
2692.6983606761
 21
1963.8046982687
 31
0.0
  0
LINE
  5
104
330
1F
100
AcDbEntity
  8
1
100
AcDbLine
 10
2252.6983606761
 20
1387.8046982687
 30
0.0
 11
2692.6983606761
 21
1387.8046982687
 31
0.0
  0
LINE
  5
105
330
1F
100
AcDbEntity
  8
1
100
AcDbLine
 10
2252.6983606761
 20
1963.8046982687
 30
0.0
 11
2252.6983606761
 21
1387.8046982687
 31
0.0
  0
LINE
  5
106
330
1F
100
AcDbEntity
  8
1
100
AcDbLine
 10
2285.1983606761
 20
1931.8046982687
 30
0.0
 11
2660.1983606761
 21
1931.8046982687
 31
0.0
  0
LINE
  5
107
330
1F
100
AcDbEntity
  8
1
100
AcDbLine
 10
2285.1983606761
 20
1419.8046982687
 30
0.0
 11
2285.1983606761
 21
1931.8046982687
 31
0.0
  0
LINE
  5
108
330
1F
100
AcDbEntity
  8
1
100
AcDbLine
 10
2285.1983606761
 20
1419.8046982687
 30
0.0
 11
2660.1983606761
 21
1419.8046982687
 31
0.0
  0
LINE
  5
109
330
1F
100
AcDbEntity
  8
1
100
AcDbLine
 10
2660.1983606761
 20
1419.8046982687
 30
0.0
 11
2660.1983606761
 21
1931.8046982687
 31
0.0
  0
LINE
  5
10A
330
1F
100
AcDbEntity
  8
1
100
AcDbLine
 10
2285.1983606761
 20
1901.1259148602
 30
0.0
 11
2660.1983606761
 21
1901.1259148602
 31
0.0
  0
LINE
  5
10B
330
1F
100
AcDbEntity
  8
1
100
AcDbLine
 10
2282.8983606761
 20
1362.8046982687
 30
0.0
 11
2662.4983606761
 21
1362.8046982687
 31
0.0
  0
LINE
  5
10C
330
1F
100
AcDbEntity
  8
1
100
AcDbLine
 10
2282.8983606761
 20
1048.8046982687
 30
0.0
 11
2282.8983606761
 21
1362.8046982687
 31
0.0
  0
LINE
  5
10D
330
1F
100
AcDbEntity
  8
1
100
AcDbLine
 10
2662.4983606761
 20
1048.8046982687
 30
0.0
 11
2662.4983606761
 21
1362.8046982687
 31
0.0
  0
LINE
  5
10E
330
1F
100
AcDbEntity
  8
1
100
AcDbLine
 10
2282.8983606761
 20
1362.8046982687
 30
0.0
 11
2282.8983606761
 21
1387.8046982687
 31
0.0
  0
LINE
  5
10F
330
1F
100
AcDbEntity
  8
1
100
AcDbLine
 10
2662.4983606761
 20
1362.8046982687
 30
0.0
 11
2662.4983606761
 21
1387.8046982687
 31
0.0
  0
LINE
  5
110
330
1F
100
AcDbEntity
  8
1
100
AcDbLine
 10
2721.3983606761
 20
1673.8046982687
 30
0.0
 11
2721.3983606761
 21
1113.8046982687
 31
0.0
  0
LINE
  5
111
330
1F
100
AcDbEntity
  8
1
100
AcDbLine
 10
2723.6983606761
 20
1673.8046982687
 30
0.0
 11
2723.6983606761
 21
1113.8046982687
 31
0.0
  0
LINE
  5
112
330
1F
100
AcDbEntity
  8
1
100
AcDbLine
 10
2664.6983606761
 20
1113.8046982687
 30
0.0
 11
2664.6983606761
 21
1387.8046982687
 31
0.0
  0
LINE
  5
113
330
1F
100
AcDbEntity
  8
1
100
AcDbLine
 10
2285.1983606761
 20
1430.8046982687
 30
0.0
 11
2660.1983606761
 21
1430.8046982687
 31
0.0
  0
LINE
  5
114
330
1F
100
AcDbEntity
  8
0
  6
HIDDEN
 62
     7
370
    18
100
AcDbLine
 10
2489.1983606761
 20
1048.8046982687
 30
0.0
 11
2489.1983606761
 21
1093.8046982687
 31
0.0
  0
LINE
  5
115
330
1F
100
AcDbEntity
  8
0
  6
HIDDEN
 62
     7
370
    18
100
AcDbLine
 10
2489.1983606761
 20
1093.8046982687
 30
0.0
 11
2282.8983606761
 21
1093.8046982687
 31
0.0
  0
LINE
  5
116
330
1F
100
AcDbEntity
  8
0
  6
HIDDEN
 62
     7
370
    18
100
AcDbLine
 10
2559.6983606761
 20
1100.4046982687
 30
0.0
 11
2479.1983606761
 21
1100.4046982687
 31
0.0
  0
LINE
  5
117
330
1F
100
AcDbEntity
  8
0
  6
HIDDEN
 62
     7
370
    18
100
AcDbLine
 10
2559.6983606761
 20
1100.4046982687
 30
0.0
 11
2559.6983606761
 21
1368.3046982687
 31
0.0
  0
LINE
  5
118
330
1F
100
AcDbEntity
  8
0
  6
HIDDEN
 62
     7
370
    18
100
AcDbLine
 10
2282.8983606761
 20
1107.0046982687
 30
0.0
 11
2479.1983606761
 21
1107.0046982687
 31
0.0
  0
LINE
  5
119
330
1F
100
AcDbEntity
  8
0
  6
HIDDEN
 62
     7
370
    18
100
AcDbLine
 10
2479.1983606761
 20
1093.8046982687
 30
0.0
 11
2479.1983606761
 21
1107.0046982687
 31
0.0
  0
LINE
  5
11A
330
1F
100
AcDbEntity
  8
0
  6
HIDDEN
 62
     7
370
    18
100
AcDbLine
 10
2035.1983606761
 20
1151.0440702661
 30
0.0
 11
2035.1983606761
 21
1150.8046982687
 31
0.0
  0
LINE
  5
11B
330
1F
100
AcDbEntity
  8
0
  6
HIDDEN
 62
     7
370
    18
100
AcDbLine
 10
2035.1983606761
 20
1300.8046982687
 30
0.0
 11
2035.1983606761
 21
1151.0440702661
 31
0.0
  0
LINE
  5
11C
330
1F
100
AcDbEntity
  8
0
  6
HIDDEN
 62
     7
370
    18
100
AcDbLine
 10
2110.1983606761
 20
1151.0440702661
 30
0.0
 11
2110.1983606761
 21
1150.8046982687
 31
0.0
  0
LINE
  5
11D
330
1F
100
AcDbEntity
  8
0
  6
HIDDEN
 62
     7
370
    18
100
AcDbLine
 10
2110.1983606761
 20
1300.8046982687
 30
0.0
 11
2110.1983606761
 21
1151.0440702661
 31
0.0
  0
LINE
  5
11E
330
1F
100
AcDbEntity
  8
0
  6
HIDDEN
 62
     7
370
    18
100
AcDbLine
 10
2035.1983606761
 20
1468.2742353473
 30
0.0
 11
2035.1983606761
 21
1318.8046982687
 31
0.0
  0
LINE
  5
11F
330
1F
100
AcDbEntity
  8
0
  6
HIDDEN
 62
     7
370
    18
100
AcDbLine
 10
2035.1983606761
 20
1468.8046982687
 30
0.0
 11
2035.1983606761
 21
1468.2742353473
 31
0.0
  0
LINE
  5
120
330
1F
100
AcDbEntity
  8
0
  6
HIDDEN
 62
     7
370
    18
100
AcDbLine
 10
2110.1983606761
 20
1468.2742353473
 30
0.0
 11
2110.1983606761
 21
1318.8046982687
 31
0.0
  0
LINE
  5
121
330
1F
100
AcDbEntity
  8
0
  6
HIDDEN
 62
     7
370
    18
100
AcDbLine
 10
2110.1983606761
 20
1468.8046982687
 30
0.0
 11
2110.1983606761
 21
1468.2742353473
 31
0.0
  0
LINE
  5
122
330
1F
100
AcDbEntity
  8
0
  6
HIDDEN
 62
     7
370
    18
100
AcDbLine
 10
1992.6983606761
 20
1383.3046982687
 30
0.0
 11
2152.6983606761
 21
1383.3046982687
 31
0.0
  0
LINE
  5
123
330
1F
100
AcDbEntity
  8
0
  6
HIDDEN
 62
     7
370
    18
100
AcDbLine
 10
2662.6983606761
 20
1048.8046982687
 30
0.0
 11
2662.6983606761
 21
973.8046982687
 31
0.0
  0
LINE
  5
124
330
1F
100
AcDbEntity
  8
0
  6
HIDDEN
 62
     7
370
    18
100
AcDbLine
 10
2182.6983606761
 20
1048.8046982687
 30
0.0
 11
2182.6983606761
 21
973.8046982687
 31
0.0
  0
LINE
  5
125
330
1F
100
AcDbEntity
  8
0
  6
HIDDEN
 62
     7
370
    18
100
AcDbLine
 10
2282.8983606761
 20
1418.6046982687
 30
0.0
 11
2662.4983606761
 21
1418.6046982687
 31
0.0
  0
LINE
  5
126
330
1F
100
AcDbEntity
  8
0
  6
HIDDEN
 62
     7
370
    18
100
AcDbLine
 10
2662.4983606761
 20
1932.7552798233
 30
0.0
 11
2282.8983606761
 21
1932.7552798233
 31
0.0
  0
LINE
  5
127
330
1F
100
AcDbEntity
  8
0
  6
HIDDEN
 62
     7
370
    18
100
AcDbLine
 10
2662.4983606761
 20
1932.7552798233
 30
0.0
 11
2662.4983606761
 21
1418.6046982687
 31
0.0
  0
LINE
  5
128
330
1F
100
AcDbEntity
  8
0
  6
HIDDEN
 62
     7
370
    18
100
AcDbLine
 10
2282.8983606761
 20
1932.7552798233
 30
0.0
 11
2282.8983606761
 21
1418.6046982687
 31
0.0
  0
LINE
  5
129
330
1F
100
AcDbEntity
  8
0
  6
HIDDEN
 62
     7
370
    18
100
AcDbLine
 10
2282.8983606761
 20
1031.6046982687
 30
0.0
 11
2662.4983606761
 21
1031.6046982687
 31
0.0
  0
LINE
  5
12A
330
1F
100
AcDbEntity
  8
0
  6
HIDDEN
 62
     7
370
    18
100
AcDbLine
 10
2282.8983606761
 20
1031.6046982687
 30
0.0
 11
2282.8983606761
 21
1048.8046982687
 31
0.0
  0
LINE
  5
12B
330
1F
100
AcDbEntity
  8
0
  6
HIDDEN
 62
     7
370
    18
100
AcDbLine
 10
2662.4983606761
 20
1031.6046982687
 30
0.0
 11
2662.4983606761
 21
1048.8046982687
 31
0.0
  0
LINE
  5
12C
330
1F
100
AcDbEntity
  8
0
  6
HIDDEN
 62
     7
370
    18
100
AcDbLine
 10
2282.8983606761
 20
1387.8046982687
 30
0.0
 11
2282.8983606761
 21
1418.6046982687
 31
0.0
  0
LINE
  5
12D
330
1F
100
AcDbEntity
  8
0
  6
HIDDEN
 62
     7
370
    18
100
AcDbLine
 10
2662.4983606761
 20
1387.8046982687
 30
0.0
 11
2662.4983606761
 21
1418.6046982687
 31
0.0
  0
LINE
  5
12E
330
1F
100
AcDbEntity
  8
0
  6
HIDDEN
 62
     7
370
    18
100
AcDbLine
 10
2285.1983606761
 20
1362.8046982687
 30
0.0
 11
2285.1983606761
 21
1419.8046982687
 31
0.0
  0
LINE
  5
12F
330
1F
100
AcDbEntity
  8
0
  6
HIDDEN
 62
     7
370
    18
100
AcDbLine
 10
2660.1983606761
 20
1362.8046982687
 30
0.0
 11
2660.1983606761
 21
1419.8046982687
 31
0.0
  0
LINE
  5
130
330
1F
100
AcDbEntity
  8
0
  6
HIDDEN
 62
     7
370
    18
100
AcDbLine
 10
2285.1983606761
 20
1032.8046982687
 30
0.0
 11
2660.1983606761
 21
1032.8046982687
 31
0.0
  0
LINE
  5
131
330
1F
100
AcDbEntity
  8
0
  6
HIDDEN
 62
     7
370
    18
100
AcDbLine
 10
2285.1983606761
 20
1362.8046982687
 30
0.0
 11
2660.1983606761
 21
1362.8046982687
 31
0.0
  0
LINE
  5
132
330
1F
100
AcDbEntity
  8
0
  6
HIDDEN
 62
     7
370
    18
100
AcDbLine
 10
2285.1983606761
 20
1032.8046982687
 30
0.0
 11
2285.1983606761
 21
1362.8046982687
 31
0.0
  0
LINE
  5
133
330
1F
100
AcDbEntity
  8
0
  6
HIDDEN
 62
     7
370
    18
100
AcDbLine
 10
2660.1983606761
 20
1032.8046982687
 30
0.0
 11
2660.1983606761
 21
1362.8046982687
 31
0.0
  0
LINE
  5
134
330
1F
100
AcDbEntity
  8
0
  6
HIDDEN
 62
     7
370
    18
100
AcDbLine
 10
2664.6983606761
 20
1387.8046982687
 30
0.0
 11
2664.6983606761
 21
1673.8046982687
 31
0.0
  0
LINE
  5
135
330
1F
100
AcDbEntity
  8
0
  6
HIDDEN
 62
     7
370
    18
100
AcDbLine
 10
2282.8983606761
 20
1902.3216467668
 30
0.0
 11
2662.4983606761
 21
1902.3216467668
 31
0.0
  0
LINE
  5
136
330
1F
100
AcDbEntity
  8
0
  6
HIDDEN
 62
     7
370
    18
100
AcDbLine
 10
2282.8983606761
 20
1430.8046982687
 30
0.0
 11
2662.4983606761
 21
1430.8046982687
 31
0.0
  0
LINE
  5
137
330
1F
100
AcDbEntity
  8
0
  6
HIDDEN
 62
     7
370
    18
100
AcDbLine
 10
2559.6983606761
 20
1368.3046982687
 30
0.0
 11
2282.8983606761
 21
1368.3046982687
 31
0.0
  0
LINE
  5
138
330
1F
100
AcDbEntity
  8
0
  6
HIDDEN
 62
     7
370
    18
100
AcDbLine
 10
2110.1983606761
 20
1206.8046982687
 30
0.0
 11
2152.6983606761
 21
1206.8046982687
 31
0.0
  0
LINE
  5
139
330
1F
100
AcDbEntity
  8
0
  6
HIDDEN
 62
     7
370
    18
100
AcDbLine
 10
2152.6983606761
 20
1244.8046982687
 30
0.0
 11
2110.1983606761
 21
1244.8046982687
 31
0.0
  0
LINE
  5
13A
330
1F
100
AcDbEntity
  8
0
  6
HIDDEN
 62
     7
370
    18
100
AcDbLine
 10
2035.1983606761
 20
1150.8046982687
 30
0.0
 11
2110.1983606761
 21
1150.8046982687
 31
0.0
  0
LINE
  5
13B
330
1F
100
AcDbEntity
  8
0
  6
HIDDEN
 62
     7
370
    18
100
AcDbLine
 10
2110.1983606761
 20
1300.8046982687
 30
0.0
 11
2035.1983606761
 21
1300.8046982687
 31
0.0
  0
LINE
  5
13C
330
1F
100
AcDbEntity
  8
0
  6
HIDDEN
 62
     7
370
    18
100
AcDbLine
 10
2035.1983606761
 20
1318.8046982687
 30
0.0
 11
2110.1983606761
 21
1318.8046982687
 31
0.0
  0
LINE
  5
13D
330
1F
100
AcDbEntity
  8
0
  6
HIDDEN
 62
     7
370
    18
100
AcDbLine
 10
2110.1983606761
 20
1468.8046982687
 30
0.0
 11
2035.1983606761
 21
1468.8046982687
 31
0.0
  0
LINE
  5
13E
330
1F
100
AcDbEntity
  8
0
  6
HIDDEN
 62
     7
370
    18
100
AcDbLine
 10
2690.6983606761
 20
973.8046982687
 30
0.0
 11
2690.6983606761
 21
978.8046982687
 31
0.0
  0
LINE
  5
13F
330
1F
100
AcDbEntity
  8
0
  6
HIDDEN
 62
     7
370
    18
100
AcDbLine
 10
2678.6983606761
 20
978.8046982687
 30
0.0
 11
2678.6983606761
 21
973.8046982687
 31
0.0
  0
LINE
  5
140
330
1F
100
AcDbEntity
  8
0
  6
HIDDEN
 62
     7
370
    18
100
AcDbLine
 10
2166.6983606761
 20
973.8046982687
 30
0.0
 11
2166.6983606761
 21
978.8046982687
 31
0.0
  0
LINE
  5
141
330
1F
100
AcDbEntity
  8
0
  6
HIDDEN
 62
     7
370
    18
100
AcDbLine
 10
2154.6983606761
 20
978.8046982687
 30
0.0
 11
2154.6983606761
 21
973.8046982687
 31
0.0
  0
LINE
  5
142
330
1F
100
AcDbEntity
  8
0
  6
HIDDEN
 62
     7
370
    18
100
AcDbLine
 10
2664.6983606761
 20
1673.8046982687
 30
0.0
 11
2662.4983606761
 21
1673.8046982687
 31
0.0
  0
LINE
  5
143
330
1F
100
AcDbEntity
  8
0
  6
HIDDEN
 62
     7
370
    18
100
AcDbLine
 10
2723.6983606761
 20
1467.0387928336
 30
0.0
 11
2721.3983606761
 21
1467.0387928336
 31
0.0
  0
LINE
  5
144
330
1F
100
AcDbEntity
  8
0
  6
HIDDEN
 62
     7
370
    18
100
AcDbLine
 10
2721.3983606761
 20
1459.0387928336
 30
0.0
 11
2723.6983606761
 21
1459.0387928336
 31
0.0
  0
LINE
  5
145
330
1F
100
AcDbEntity
  8
0
  6
HIDDEN
 62
     7
370
    18
100
AcDbLine
 10
2723.6983606761
 20
1328.5706037037
 30
0.0
 11
2721.3983606761
 21
1328.5706037037
 31
0.0
  0
LINE
  5
146
330
1F
100
AcDbEntity
  8
0
  6
HIDDEN
 62
     7
370
    18
100
AcDbLine
 10
2721.3983606761
 20
1320.5706037037
 30
0.0
 11
2723.6983606761
 21
1320.5706037037
 31
0.0
  0
LINE
  5
147
330
1F
100
AcDbEntity
  8
0
  6
HIDDEN
 62
     7
370
    18
100
AcDbLine
 10
2692.6983606761
 20
1646.1046982687
 30
0.0
 11
2664.6983606761
 21
1646.1046982687
 31
0.0
  0
LINE
  5
148
330
1F
100
AcDbEntity
  8
0
  6
HIDDEN
 62
     7
370
    18
100
AcDbLine
 10
2660.1983606761
 20
1143.8046982687
 30
0.0
 11
2723.6983606761
 21
1143.8046982687
 31
0.0
  0
LINE
  5
149
330
1F
100
AcDbEntity
  8
0
  6
HIDDEN
 62
     7
370
    18
100
AcDbLine
 10
2723.6983606761
 20
1643.8046982687
 30
0.0
 11
2660.1983606761
 21
1643.8046982687
 31
0.0
  0
LINE
  5
14A
330
1F
100
AcDbEntity
  8
0
  6
HIDDEN
 62
     7
370
    18
100
AcDbLine
 10
2723.6983606761
 20
1586.9557622361
 30
0.0
 11
2721.3983606761
 21
1586.9557622361
 31
0.0
  0
LINE
  5
14B
330
1F
100
AcDbEntity
  8
0
  6
HIDDEN
 62
     7
370
    18
100
AcDbLine
 10
2721.3983606761
 20
1578.9557622361
 30
0.0
 11
2723.6983606761
 21
1578.9557622361
 31
0.0
  0
LINE
  5
14C
330
1F
100
AcDbEntity
  8
0
  6
HIDDEN
 62
     7
370
    18
100
AcDbLine
 10
2723.6983606761
 20
1208.6536343013
 30
0.0
 11
2721.3983606761
 21
1208.6536343013
 31
0.0
  0
LINE
  5
14D
330
1F
100
AcDbEntity
  8
0
  6
HIDDEN
 62
     7
370
    18
100
AcDbLine
 10
2721.3983606761
 20
1200.6536343013
 30
0.0
 11
2723.6983606761
 21
1200.6536343013
 31
0.0
  0
LINE
  5
14E
330
1F
100
AcDbEntity
  8
0
  6
HIDDEN
 62
     7
370
    18
100
AcDbLine
 10
2723.6983606761
 20
1656.189856801
 30
0.0
 11
2721.3983606761
 21
1656.189856801
 31
0.0
  0
LINE
  5
14F
330
1F
100
AcDbEntity
  8
0
  6
HIDDEN
 62
     7
370
    18
100
AcDbLine
 10
2721.3983606761
 20
1648.189856801
 30
0.0
 11
2723.6983606761
 21
1648.189856801
 31
0.0
  0
LINE
  5
150
330
1F
100
AcDbEntity
  8
0
  6
HIDDEN
 62
     7
370
    18
100
AcDbLine
 10
2723.6983606761
 20
1139.4195397363
 30
0.0
 11
2721.3983606761
 21
1139.4195397363
 31
0.0
  0
LINE
  5
151
330
1F
100
AcDbEntity
  8
0
  6
HIDDEN
 62
     7
370
    18
100
AcDbLine
 10
2721.3983606761
 20
1131.4195397363
 30
0.0
 11
2723.6983606761
 21
1131.4195397363
 31
0.0
  0
LINE
  5
152
330
1F
100
AcDbEntity
  8
2
100
AcDbLine
 10
2007.4409306362
 20
1393.8046982687
 30
0.0
 11
2707.6389138906
 21
1393.8046982687
 31
0.0
  0
LINE
  5
153
330
1F
100
AcDbEntity
  8
2
100
AcDbLine
 10
2472.6983606761
 20
1009.7707397444
 30
0.0
 11
2472.6983606761
 21
1949.5101383227
 31
0.0
  0
LINE
  5
154
330
1F
100
AcDbEntity
  8
2
100
AcDbLine
 10
2674.4716409996
 20
1675.8046982687
 30
0.0
 11
2269.0938612207
 21
1675.8046982687
 31
0.0
  0
LINE
  5
155
330
1F
100
AcDbEntity
  8
1
100
AcDbLine
 10
750.649397092
 20
2871.7873056995
 30
0.0
 11
750.649397092
 21
3241.2873056995
 31
0.0
  0
LINE
  5
156
330
1F
100
AcDbEntity
  8
1
100
AcDbLine
 10
465.649397092
 20
3241.2873056995
 30
0.0
 11
465.649397092
 21
2871.7873056995
 31
0.0
  0
LINE
  5
157
330
1F
100
AcDbEntity
  8
1
100
AcDbLine
 10
627.149397092
 20
2834.2873056995
 30
0.0
 11
627.149397092
 21
2871.7873056995
 31
0.0
  0
LINE
  5
158
330
1F
100
AcDbEntity
  8
1
100
AcDbLine
 10
589.149397092
 20
2871.7873056995
 30
0.0
 11
589.149397092
 21
2834.2873056995
 31
0.0
  0
LINE
  5
159
330
1F
100
AcDbEntity
  8
1
100
AcDbLine
 10
998.149397092
 20
3405.2873056995
 30
0.0
 11
998.149397092
 21
3402.9873056995
 31
0.0
  0
LINE
  5
15A
330
1F
100
AcDbEntity
  8
1
100
AcDbLine
 10
1558.149397092
 20
3402.9873056995
 30
0.0
 11
1558.149397092
 21
3405.2873056995
 31
0.0
  0
LINE
  5
15B
330
1F
100
AcDbEntity
  8
1
100
AcDbLine
 10
1558.149397092
 20
3344.0873056995
 30
0.0
 11
1558.149397092
 21
3346.2873056995
 31
0.0
  0
LINE
  5
15C
330
1F
100
AcDbEntity
  8
1
100
AcDbLine
 10
998.149397092
 20
3346.2873056995
 30
0.0
 11
998.149397092
 21
3344.0873056995
 31
0.0
  0
LINE
  5
15D
330
1F
100
AcDbEntity
  8
1
100
AcDbLine
 10
1025.849397092
 20
3402.9873056995
 30
0.0
 11
1025.849397092
 21
3346.2873056995
 31
0.0
  0
LINE
  5
15E
330
1F
100
AcDbEntity
  8
1
100
AcDbLine
 10
1530.449397092
 20
3346.2873056995
 30
0.0
 11
1530.449397092
 21
3402.9873056995
 31
0.0
  0
LINE
  5
15F
330
1F
100
AcDbEntity
  8
1
100
AcDbLine
 10
465.649397092
 20
2871.7873056995
 30
0.0
 11
750.649397092
 21
2871.7873056995
 31
0.0
  0
LINE
  5
160
330
1F
100
AcDbEntity
  8
1
100
AcDbLine
 10
750.649397092
 20
3241.2873056995
 30
0.0
 11
465.649397092
 21
3241.2873056995
 31
0.0
  0
LINE
  5
161
330
1F
100
AcDbEntity
  8
1
100
AcDbLine
 10
783.149397092
 20
3170.7873056995
 30
0.0
 11
783.149397092
 21
2890.7873056995
 31
0.0
  0
LINE
  5
162
330
1F
100
AcDbEntity
  8
1
100
AcDbLine
 10
783.149397092
 20
2890.7873056995
 30
0.0
 11
750.649397092
 21
2890.7873056995
 31
0.0
  0
LINE
  5
163
330
1F
100
AcDbEntity
  8
1
100
AcDbLine
 10
465.649397092
 20
2890.7873056995
 30
0.0
 11
433.149397092
 21
2890.7873056995
 31
0.0
  0
LINE
  5
164
330
1F
100
AcDbEntity
  8
1
100
AcDbLine
 10
433.149397092
 20
2890.7873056995
 30
0.0
 11
433.149397092
 21
3170.7873056995
 31
0.0
  0
LINE
  5
165
330
1F
100
AcDbEntity
  8
1
100
AcDbLine
 10
433.149397092
 20
3170.7873056995
 30
0.0
 11
465.649397092
 21
3170.7873056995
 31
0.0
  0
LINE
  5
166
330
1F
100
AcDbEntity
  8
1
100
AcDbLine
 10
750.649397092
 20
3170.7873056995
 30
0.0
 11
783.149397092
 21
3170.7873056995
 31
0.0
  0
LINE
  5
167
330
1F
100
AcDbEntity
  8
1
100
AcDbLine
 10
1473.149397092
 20
2674.2873056995
 30
0.0
 11
1473.149397092
 21
2834.2873056995
 31
0.0
  0
LINE
  5
168
330
1F
100
AcDbEntity
  8
1
100
AcDbLine
 10
1473.149397092
 20
2674.2873056995
 30
0.0
 11
1173.149397092
 21
2674.2873056995
 31
0.0
  0
LINE
  5
169
330
1F
100
AcDbEntity
  8
1
100
AcDbLine
 10
1173.149397092
 20
2674.2873056995
 30
0.0
 11
1173.149397092
 21
2834.2873056995
 31
0.0
  0
LINE
  5
16A
330
1F
100
AcDbEntity
  8
1
100
AcDbLine
 10
1473.149397092
 20
2834.2873056995
 30
0.0
 11
1173.149397092
 21
2834.2873056995
 31
0.0
  0
LINE
  5
16B
330
1F
100
AcDbEntity
  8
1
100
AcDbLine
 10
1173.149397092
 20
2674.2873056995
 30
0.0
 11
433.149397092
 21
2674.2873056995
 31
0.0
  0
LINE
  5
16C
330
1F
100
AcDbEntity
  8
1
100
AcDbLine
 10
433.149397092
 20
2674.2873056995
 30
0.0
 11
433.149397092
 21
2834.2873056995
 31
0.0
  0
LINE
  5
16D
330
1F
100
AcDbEntity
  8
1
100
AcDbLine
 10
1173.149397092
 20
2834.2873056995
 30
0.0
 11
433.149397092
 21
2834.2873056995
 31
0.0
  0
LINE
  5
16E
330
1F
100
AcDbEntity
  8
1
100
AcDbLine
 10
363.149397092
 20
2724.2873056995
 30
0.0
 11
433.149397092
 21
2724.2873056995
 31
0.0
  0
LINE
  5
16F
330
1F
100
AcDbEntity
  8
1
100
AcDbLine
 10
363.149397092
 20
2854.2873056995
 30
0.0
 11
363.149397092
 21
2724.2873056995
 31
0.0
  0
LINE
  5
170
330
1F
100
AcDbEntity
  8
1
100
AcDbLine
 10
463.149397092
 20
2854.2873056995
 30
0.0
 11
363.149397092
 21
2854.2873056995
 31
0.0
  0
LINE
  5
171
330
1F
100
AcDbEntity
  8
1
100
AcDbLine
 10
463.149397092
 20
2834.2873056995
 30
0.0
 11
463.149397092
 21
2854.2873056995
 31
0.0
  0
LINE
  5
172
330
1F
100
AcDbEntity
  8
1
100
AcDbLine
 10
1473.149397092
 20
2724.2873056995
 30
0.0
 11
1543.149397092
 21
2724.2873056995
 31
0.0
  0
LINE
  5
173
330
1F
100
AcDbEntity
  8
1
100
AcDbLine
 10
1443.149397092
 20
2854.2873056995
 30
0.0
 11
1443.149397092
 21
2834.2873056995
 31
0.0
  0
LINE
  5
174
330
1F
100
AcDbEntity
  8
1
100
AcDbLine
 10
1543.149397092
 20
2724.2873056995
 30
0.0
 11
1543.149397092
 21
2854.2873056995
 31
0.0
  0
LINE
  5
175
330
1F
100
AcDbEntity
  8
1
100
AcDbLine
 10
1543.149397092
 20
2854.2873056995
 30
0.0
 11
1443.149397092
 21
2854.2873056995
 31
0.0
  0
LINE
  5
176
330
1F
100
AcDbEntity
  8
1
100
AcDbLine
 10
1593.149397092
 20
3384.2873056995
 30
0.0
 11
1530.449397092
 21
3384.2873056995
 31
0.0
  0
LINE
  5
177
330
1F
100
AcDbEntity
  8
1
100
AcDbLine
 10
1025.849397092
 20
3384.2873056995
 30
0.0
 11
413.149397092
 21
3384.2873056995
 31
0.0
  0
LINE
  5
178
330
1F
100
AcDbEntity
  8
1
100
AcDbLine
 10
1593.149397092
 20
2824.2873056995
 30
0.0
 11
1593.149397092
 21
2964.4873056995
 31
0.0
  0
LINE
  5
179
330
1F
100
AcDbEntity
  8
1
100
AcDbLine
 10
1593.149397092
 20
3344.0873056995
 30
0.0
 11
1593.149397092
 21
3384.2873056995
 31
0.0
  0
LINE
  5
17A
330
1F
100
AcDbEntity
  8
1
100
AcDbLine
 10
1543.149397092
 20
2824.2873056995
 30
0.0
 11
1593.149397092
 21
2824.2873056995
 31
0.0
  0
LINE
  5
17B
330
1F
100
AcDbEntity
  8
1
100
AcDbLine
 10
453.149397092
 20
2864.2873056995
 30
0.0
 11
589.149397092
 21
2864.2873056995
 31
0.0
  0
LINE
  5
17C
330
1F
100
AcDbEntity
  8
1
100
AcDbLine
 10
627.149397092
 20
2864.2873056995
 30
0.0
 11
1553.149397092
 21
2864.2873056995
 31
0.0
  0
LINE
  5
17D
330
1F
100
AcDbEntity
  8
1
100
AcDbLine
 10
1553.149397092
 20
2864.2873056995
 30
0.0
 11
1553.149397092
 21
2964.4873056995
 31
0.0
  0
LINE
  5
17E
330
1F
100
AcDbEntity
  8
1
100
AcDbLine
 10
998.149397092
 20
3344.2873056995
 30
0.0
 11
453.149397092
 21
3344.2873056995
 31
0.0
  0
LINE
  5
17F
330
1F
100
AcDbEntity
  8
1
100
AcDbLine
 10
453.149397092
 20
3344.2873056995
 30
0.0
 11
453.149397092
 21
3170.7873056995
 31
0.0
  0
LINE
  5
180
330
1F
100
AcDbEntity
  8
1
100
AcDbLine
 10
453.149397092
 20
2890.7873056995
 30
0.0
 11
453.149397092
 21
2864.2873056995
 31
0.0
  0
LINE
  5
181
330
1F
100
AcDbEntity
  8
1
100
AcDbLine
 10
413.149397092
 20
3384.2873056995
 30
0.0
 11
413.149397092
 21
2854.2873056995
 31
0.0
  0
LINE
  5
182
330
1F
100
AcDbEntity
  8
1
100
AcDbLine
 10
1635.149397092
 20
2934.2873056995
 30
0.0
 11
1638.149397092
 21
2934.2873056995
 31
0.0
  0
LINE
  5
183
330
1F
100
AcDbEntity
  8
1
100
AcDbLine
 10
1635.149397092
 20
3374.2873056995
 30
0.0
 11
1638.149397092
 21
3374.2873056995
 31
0.0
  0
LINE
  5
184
330
1F
100
AcDbEntity
  8
1
100
AcDbLine
 10
1638.149397092
 20
3374.2873056995
 30
0.0
 11
1638.149397092
 21
2934.2873056995
 31
0.0
  0
LINE
  5
185
330
1F
100
AcDbEntity
  8
1
100
AcDbLine
 10
1635.149397092
 20
3374.2873056995
 30
0.0
 11
1635.149397092
 21
2934.2873056995
 31
0.0
  0
LINE
  5
186
330
1F
100
AcDbEntity
  8
1
100
AcDbLine
 10
1635.149397092
 20
2964.4873056995
 30
0.0
 11
1275.2745017435
 21
2964.4873056995
 31
0.0
  0
LINE
  5
187
330
1F
100
AcDbEntity
  8
1
100
AcDbLine
 10
1275.2745017435
 20
2964.4873056995
 30
0.0
 11
1275.2745017435
 21
3344.0873056995
 31
0.0
  0
LINE
  5
188
330
1F
100
AcDbEntity
  8
1
100
AcDbLine
 10
1635.149397092
 20
3344.0873056995
 30
0.0
 11
1275.2745017435
 21
3344.0873056995
 31
0.0
  0
LINE
  5
189
330
1F
100
AcDbEntity
  8
1
100
AcDbLine
 10
841.949397092
 20
2964.4873056995
 30
0.0
 11
841.949397092
 21
3344.0873056995
 31
0.0
  0
LINE
  5
18A
330
1F
100
AcDbEntity
  8
1
100
AcDbLine
 10
1275.2745017435
 20
2964.4873056995
 30
0.0
 11
841.949397092
 21
2964.4873056995
 31
0.0
  0
LINE
  5
18B
330
1F
100
AcDbEntity
  8
1
100
AcDbLine
 10
1275.2745017435
 20
3344.0873056995
 30
0.0
 11
841.949397092
 21
3344.0873056995
 31
0.0
  0
LINE
  5
18C
330
1F
100
AcDbEntity
  8
1
100
AcDbLine
 10
998.149397092
 20
3405.2873056995
 30
0.0
 11
1558.149397092
 21
3405.2873056995
 31
0.0
  0
LINE
  5
18D
330
1F
100
AcDbEntity
  8
1
100
AcDbLine
 10
998.149397092
 20
3402.9873056995
 30
0.0
 11
1558.149397092
 21
3402.9873056995
 31
0.0
  0
LINE
  5
18E
330
1F
100
AcDbEntity
  8
1
100
AcDbLine
 10
1558.149397092
 20
3346.2873056995
 30
0.0
 11
998.149397092
 21
3346.2873056995
 31
0.0
  0
LINE
  5
18F
330
1F
100
AcDbEntity
  8
0
  6
HIDDEN
 62
     7
370
    18
100
AcDbLine
 10
529.4549881419
 20
2900.7873056995
 30
0.0
 11
540.4656471959
 21
2900.7873056995
 31
0.0
  0
LINE
  5
190
330
1F
100
AcDbEntity
  8
0
  6
HIDDEN
 62
     7
370
    18
100
AcDbLine
 10
529.4549881419
 20
2900.7873056995
 30
0.0
 11
529.4549881419
 21
3160.7873056995
 31
0.0
  0
LINE
  5
191
330
1F
100
AcDbEntity
  8
0
  6
HIDDEN
 62
     7
370
    18
100
AcDbLine
 10
529.4549881419
 20
3160.7873056995
 30
0.0
 11
540.4656471959
 21
3160.7873056995
 31
0.0
  0
LINE
  5
192
330
1F
100
AcDbEntity
  8
0
  6
HIDDEN
 62
     7
370
    18
100
AcDbLine
 10
540.4656471959
 20
3241.2873056995
 30
0.0
 11
540.4656471959
 21
3160.7873056995
 31
0.0
  0
LINE
  5
193
330
1F
100
AcDbEntity
  8
0
  6
HIDDEN
 62
     7
370
    18
100
AcDbLine
 10
675.8331469881
 20
3241.2873056995
 30
0.0
 11
675.8331469881
 21
3160.7873056995
 31
0.0
  0
LINE
  5
194
330
1F
100
AcDbEntity
  8
0
  6
HIDDEN
 62
     7
370
    18
100
AcDbLine
 10
675.8331469881
 20
3160.7873056995
 30
0.0
 11
686.843806042
 21
3160.7873056995
 31
0.0
  0
LINE
  5
195
330
1F
100
AcDbEntity
  8
0
  6
HIDDEN
 62
     7
370
    18
100
AcDbLine
 10
686.843806042
 20
3160.7873056995
 30
0.0
 11
686.843806042
 21
2900.7873056995
 31
0.0
  0
LINE
  5
196
330
1F
100
AcDbEntity
  8
0
  6
HIDDEN
 62
     7
370
    18
100
AcDbLine
 10
675.8331469881
 20
2900.7873056995
 30
0.0
 11
686.843806042
 21
2900.7873056995
 31
0.0
  0
LINE
  5
197
330
1F
100
AcDbEntity
  8
0
  6
HIDDEN
 62
     7
370
    18
100
AcDbLine
 10
675.8331469881
 20
2900.7873056995
 30
0.0
 11
675.8331469881
 21
2871.7873056995
 31
0.0
  0
LINE
  5
198
330
1F
100
AcDbEntity
  8
0
  6
HIDDEN
 62
     7
370
    18
100
AcDbLine
 10
540.4656471959
 20
2900.7873056995
 30
0.0
 11
540.4656471959
 21
2871.7873056995
 31
0.0
  0
LINE
  5
199
330
1F
100
AcDbEntity
  8
0
  6
HIDDEN
 62
     7
370
    18
100
AcDbLine
 10
520.649397092
 20
2900.7873056995
 30
0.0
 11
520.649397092
 21
3160.7873056995
 31
0.0
  0
LINE
  5
19A
330
1F
100
AcDbEntity
  8
0
  6
HIDDEN
 62
     7
370
    18
100
AcDbLine
 10
529.4549881419
 20
3160.7873056995
 30
0.0
 11
520.649397092
 21
3160.7873056995
 31
0.0
  0
LINE
  5
19B
330
1F
100
AcDbEntity
  8
0
  6
HIDDEN
 62
     7
370
    18
100
AcDbLine
 10
529.4549881419
 20
2900.7873056995
 30
0.0
 11
520.649397092
 21
2900.7873056995
 31
0.0
  0
LINE
  5
19C
330
1F
100
AcDbEntity
  8
0
  6
HIDDEN
 62
     7
370
    18
100
AcDbLine
 10
695.649397092
 20
2900.7873056995
 30
0.0
 11
695.649397092
 21
3160.7873056995
 31
0.0
  0
LINE
  5
19D
330
1F
100
AcDbEntity
  8
0
  6
HIDDEN
 62
     7
370
    18
100
AcDbLine
 10
695.649397092
 20
2900.7873056995
 30
0.0
 11
686.843806042
 21
2900.7873056995
 31
0.0
  0
LINE
  5
19E
330
1F
100
AcDbEntity
  8
0
  6
HIDDEN
 62
     7
370
    18
100
AcDbLine
 10
695.649397092
 20
3160.7873056995
 30
0.0
 11
686.843806042
 21
3160.7873056995
 31
0.0
  0
LINE
  5
19F
330
1F
100
AcDbEntity
  8
0
  6
HIDDEN
 62
     7
370
    18
100
AcDbLine
 10
540.4656471959
 20
3160.7873056995
 30
0.0
 11
675.8331469881
 21
3160.7873056995
 31
0.0
  0
LINE
  5
1A0
330
1F
100
AcDbEntity
  8
0
  6
HIDDEN
 62
     7
370
    18
100
AcDbLine
 10
540.4656471959
 20
2900.7873056995
 30
0.0
 11
675.8331469881
 21
2900.7873056995
 31
0.0
  0
LINE
  5
1A1
330
1F
100
AcDbEntity
  8
0
  6
HIDDEN
 62
     7
370
    18
100
AcDbLine
 10
750.649397092
 20
2890.7873056995
 30
0.0
 11
465.649397092
 21
2890.7873056995
 31
0.0
  0
LINE
  5
1A2
330
1F
100
AcDbEntity
  8
0
  6
HIDDEN
 62
     7
370
    18
100
AcDbLine
 10
465.649397092
 20
3170.7873056995
 30
0.0
 11
750.649397092
 21
3170.7873056995
 31
0.0
  0
LINE
  5
1A3
330
1F
100
AcDbEntity
  8
0
  6
HIDDEN
 62
     7
370
    18
100
AcDbLine
 10
533.149397092
 20
2716.7873056995
 30
0.0
 11
683.149397092
 21
2716.7873056995
 31
0.0
  0
LINE
  5
1A4
330
1F
100
AcDbEntity
  8
0
  6
HIDDEN
 62
     7
370
    18
100
AcDbLine
 10
533.149397092
 20
2791.7873056995
 30
0.0
 11
683.149397092
 21
2791.7873056995
 31
0.0
  0
LINE
  5
1A5
330
1F
100
AcDbEntity
  8
0
  6
HIDDEN
 62
     7
370
    18
100
AcDbLine
 10
1287.0537806921
 20
2716.7873056995
 30
0.0
 11
1353.149397092
 21
2716.7873056995
 31
0.0
  0
LINE
  5
1A6
330
1F
100
AcDbEntity
  8
0
  6
HIDDEN
 62
     7
370
    18
100
AcDbLine
 10
1203.149397092
 20
2716.7873056995
 30
0.0
 11
1287.0537806921
 21
2716.7873056995
 31
0.0
  0
LINE
  5
1A7
330
1F
100
AcDbEntity
  8
0
  6
HIDDEN
 62
     7
370
    18
100
AcDbLine
 10
1287.0537806921
 20
2791.7873056995
 30
0.0
 11
1353.149397092
 21
2791.7873056995
 31
0.0
  0
LINE
  5
1A8
330
1F
100
AcDbEntity
  8
0
  6
HIDDEN
 62
     7
370
    18
100
AcDbLine
 10
1203.149397092
 20
2791.7873056995
 30
0.0
 11
1287.0537806921
 21
2791.7873056995
 31
0.0
  0
LINE
  5
1A9
330
1F
100
AcDbEntity
  8
0
  6
HIDDEN
 62
     7
370
    18
100
AcDbLine
 10
433.149397092
 20
2724.2873056995
 30
0.0
 11
463.149397092
 21
2724.2873056995
 31
0.0
  0
LINE
  5
1AA
330
1F
100
AcDbEntity
  8
0
  6
HIDDEN
 62
     7
370
    18
100
AcDbLine
 10
463.149397092
 20
2724.2873056995
 30
0.0
 11
463.149397092
 21
2834.2873056995
 31
0.0
  0
LINE
  5
1AB
330
1F
100
AcDbEntity
  8
0
  6
HIDDEN
 62
     7
370
    18
100
AcDbLine
 10
1443.149397092
 20
2724.2873056995
 30
0.0
 11
1473.149397092
 21
2724.2873056995
 31
0.0
  0
LINE
  5
1AC
330
1F
100
AcDbEntity
  8
0
  6
HIDDEN
 62
     7
370
    18
100
AcDbLine
 10
1443.149397092
 20
2834.2873056995
 30
0.0
 11
1443.149397092
 21
2724.2873056995
 31
0.0
  0
LINE
  5
1AD
330
1F
100
AcDbEntity
  8
0
  6
HIDDEN
 62
     7
370
    18
100
AcDbLine
 10
1530.449397092
 20
3384.2873056995
 30
0.0
 11
1025.849397092
 21
3384.2873056995
 31
0.0
  0
LINE
  5
1AE
330
1F
100
AcDbEntity
  8
0
  6
HIDDEN
 62
     7
370
    18
100
AcDbLine
 10
1593.149397092
 20
2964.4873056995
 30
0.0
 11
1593.149397092
 21
3344.0873056995
 31
0.0
  0
LINE
  5
1AF
330
1F
100
AcDbEntity
  8
0
  6
HIDDEN
 62
     7
370
    18
100
AcDbLine
 10
463.149397092
 20
2824.2873056995
 30
0.0
 11
1443.149397092
 21
2824.2873056995
 31
0.0
  0
LINE
  5
1B0
330
1F
100
AcDbEntity
  8
0
  6
HIDDEN
 62
     7
370
    18
100
AcDbLine
 10
589.149397092
 20
2864.2873056995
 30
0.0
 11
627.149397092
 21
2864.2873056995
 31
0.0
  0
LINE
  5
1B1
330
1F
100
AcDbEntity
  8
0
  6
HIDDEN
 62
     7
370
    18
100
AcDbLine
 10
1553.149397092
 20
2964.4873056995
 30
0.0
 11
1553.149397092
 21
3344.2873056995
 31
0.0
  0
LINE
  5
1B2
330
1F
100
AcDbEntity
  8
0
  6
HIDDEN
 62
     7
370
    18
100
AcDbLine
 10
1553.149397092
 20
3344.2873056995
 30
0.0
 11
998.149397092
 21
3344.2873056995
 31
0.0
  0
LINE
  5
1B3
330
1F
100
AcDbEntity
  8
0
  6
HIDDEN
 62
     7
370
    18
100
AcDbLine
 10
453.149397092
 20
3170.7873056995
 30
0.0
 11
453.149397092
 21
2890.7873056995
 31
0.0
  0
LINE
  5
1B4
330
1F
100
AcDbEntity
  8
0
  6
HIDDEN
 62
     7
370
    18
100
AcDbLine
 10
413.149397092
 20
2854.2873056995
 30
0.0
 11
413.149397092
 21
2824.2873056995
 31
0.0
  0
LINE
  5
1B5
330
1F
100
AcDbEntity
  8
0
  6
HIDDEN
 62
     7
370
    18
100
AcDbLine
 10
1443.149397092
 20
2824.2873056995
 30
0.0
 11
1543.149397092
 21
2824.2873056995
 31
0.0
  0
LINE
  5
1B6
330
1F
100
AcDbEntity
  8
0
  6
HIDDEN
 62
     7
370
    18
100
AcDbLine
 10
413.149397092
 20
2824.2873056995
 30
0.0
 11
463.149397092
 21
2824.2873056995
 31
0.0
  0
LINE
  5
1B7
330
1F
100
AcDbEntity
  8
0
  6
HIDDEN
 62
     7
370
    18
100
AcDbLine
 10
1558.149397092
 20
2859.2873056995
 30
0.0
 11
1558.149397092
 21
3344.0873056995
 31
0.0
  0
LINE
  5
1B8
330
1F
100
AcDbEntity
  8
0
  6
HIDDEN
 62
     7
370
    18
100
AcDbLine
 10
1558.149397092
 20
3346.2873056995
 30
0.0
 11
1558.149397092
 21
3349.2873056995
 31
0.0
  0
LINE
  5
1B9
330
1F
100
AcDbEntity
  8
0
  6
HIDDEN
 62
     7
370
    18
100
AcDbLine
 10
448.149397092
 20
3349.2873056995
 30
0.0
 11
448.149397092
 21
2859.2873056995
 31
0.0
  0
LINE
  5
1BA
330
1F
100
AcDbEntity
  8
0
  6
HIDDEN
 62
     7
370
    18
100
AcDbLine
 10
1558.149397092
 20
3349.2873056995
 30
0.0
 11
448.149397092
 21
3349.2873056995
 31
0.0
  0
LINE
  5
1BB
330
1F
100
AcDbEntity
  8
0
  6
HIDDEN
 62
     7
370
    18
100
AcDbLine
 10
448.149397092
 20
2859.2873056995
 30
0.0
 11
1558.149397092
 21
2859.2873056995
 31
0.0
  0
CIRCLE
  5
1BC
330
1F
100
AcDbEntity
  8
0
  6
HIDDEN
 62
     7
370
    18
100
AcDbCircle
 10
463.149397092
 20
2842.2873056995
 30
0.0
 40
6.0
  0
CIRCLE
  5
1BD
330
1F
100
AcDbEntity
  8
0
  6
HIDDEN
 62
     7
370
    18
100
AcDbCircle
 10
1003.149397092
 20
3366.2873056995
 30
0.0
 40
6.0
  0
CIRCLE
  5
1BE
330
1F
100
AcDbEntity
  8
0
  6
HIDDEN
 62
     7
370
    18
100
AcDbCircle
 10
1003.149397092
 20
2842.2873056995
 30
0.0
 40
6.0
  0
CIRCLE
  5
1BF
330
1F
100
AcDbEntity
  8
0
  6
HIDDEN
 62
     7
370
    18
100
AcDbCircle
 10
1543.149397092
 20
2842.2873056995
 30
0.0
 40
6.0
  0
CIRCLE
  5
1C0
330
1F
100
AcDbEntity
  8
0
  6
HIDDEN
 62
     7
370
    18
100
AcDbCircle
 10
1543.149397092
 20
3366.2873056995
 30
0.0
 40
6.0
  0
CIRCLE
  5
1C1
330
1F
100
AcDbEntity
  8
0
  6
HIDDEN
 62
     7
370
    18
100
AcDbCircle
 10
463.149397092
 20
3366.2873056995
 30
0.0
 40
6.0
  0
LINE
  5
1C2
330
1F
100
AcDbEntity
  8
0
  6
HIDDEN
 62
     7
370
    18
100
AcDbLine
 10
1638.149397092
 20
3341.7873056995
 30
0.0
 11
1275.375621512
 21
3341.7873056995
 31
0.0
  0
LINE
  5
1C3
330
1F
100
AcDbEntity
  8
0
  6
HIDDEN
 62
     7
370
    18
100
AcDbLine
 10
1638.149397092
 20
2966.7873056995
 30
0.0
 11
1275.375621512
 21
2966.7873056995
 31
0.0
  0
LINE
  5
1C4
330
1F
100
AcDbEntity
  8
0
  6
HIDDEN
 62
     7
370
    18
100
AcDbLine
 10
843.149397092
 20
2966.7873056995
 30
0.0
 11
843.149397092
 21
3341.7873056995
 31
0.0
  0
LINE
  5
1C5
330
1F
100
AcDbEntity
  8
0
  6
HIDDEN
 62
     7
370
    18
100
AcDbLine
 10
1275.375621512
 20
2966.7873056995
 30
0.0
 11
843.149397092
 21
2966.7873056995
 31
0.0
  0
LINE
  5
1C6
330
1F
100
AcDbEntity
  8
0
  6
HIDDEN
 62
     7
370
    18
100
AcDbLine
 10
1275.375621512
 20
2966.7873056995
 30
0.0
 11
1275.375621512
 21
3341.7873056995
 31
0.0
  0
LINE
  5
1C7
330
1F
100
AcDbEntity
  8
0
  6
HIDDEN
 62
     7
370
    18
100
AcDbLine
 10
1275.375621512
 20
3341.7873056995
 30
0.0
 11
843.149397092
 21
3341.7873056995
 31
0.0
  0
LINE
  5
1C8
330
1F
100
AcDbEntity
  8
0
  6
HIDDEN
 62
     7
370
    18
100
AcDbLine
 10
1241.149397092
 20
2964.4873056995
 30
0.0
 11
1241.149397092
 21
3344.0873056995
 31
0.0
  0
LINE
  5
1C9
330
1F
100
AcDbEntity
  8
0
  6
HIDDEN
 62
     7
370
    18
100
AcDbLine
 10
1241.149397092
 20
2966.7873056995
 30
0.0
 11
1241.149397092
 21
3341.7873056995
 31
0.0
  0
LINE
  5
1CA
330
1F
100
AcDbEntity
  8
0
  6
HIDDEN
 62
     7
370
    18
100
AcDbLine
 10
1577.149397092
 20
2966.7873056995
 30
0.0
 11
1577.149397092
 21
3341.7873056995
 31
0.0
  0
LINE
  5
1CB
330
1F
100
AcDbEntity
  8
0
  6
HIDDEN
 62
     7
370
    18
100
AcDbLine
 10
1578.349397092
 20
2964.4873056995
 30
0.0
 11
1578.349397092
 21
3344.0873056995
 31
0.0
  0
LINE
  5
1CC
330
1F
100
AcDbEntity
  8
0
  6
HIDDEN
 62
     7
370
    18
100
AcDbLine
 10
1247.149397092
 20
2964.4873056995
 30
0.0
 11
1247.149397092
 21
3344.0873056995
 31
0.0
  0
LINE
  5
1CD
330
1F
100
AcDbEntity
  8
0
  6
HIDDEN
 62
     7
370
    18
100
AcDbLine
 10
1247.149397092
 20
2966.7873056995
 30
0.0
 11
1247.149397092
 21
3341.7873056995
 31
0.0
  0
LINE
  5
1CE
330
1F
100
AcDbEntity
  8
0
  6
HIDDEN
 62
     7
370
    18
100
AcDbLine
 10
627.149397092
 20
2791.7873056995
 30
0.0
 11
627.149397092
 21
2834.2873056995
 31
0.0
  0
LINE
  5
1CF
330
1F
100
AcDbEntity
  8
0
  6
HIDDEN
 62
     7
370
    18
100
AcDbLine
 10
589.149397092
 20
2834.2873056995
 30
0.0
 11
589.149397092
 21
2791.7873056995
 31
0.0
  0
LINE
  5
1D0
330
1F
100
AcDbEntity
  8
0
  6
HIDDEN
 62
     7
370
    18
100
AcDbLine
 10
683.149397092
 20
2716.7873056995
 30
0.0
 11
683.149397092
 21
2791.7873056995
 31
0.0
  0
LINE
  5
1D1
330
1F
100
AcDbEntity
  8
0
  6
HIDDEN
 62
     7
370
    18
100
AcDbLine
 10
533.149397092
 20
2791.7873056995
 30
0.0
 11
533.149397092
 21
2716.7873056995
 31
0.0
  0
LINE
  5
1D2
330
1F
100
AcDbEntity
  8
0
  6
HIDDEN
 62
     7
370
    18
100
AcDbLine
 10
1353.149397092
 20
2716.7873056995
 30
0.0
 11
1353.149397092
 21
2791.7873056995
 31
0.0
  0
LINE
  5
1D3
330
1F
100
AcDbEntity
  8
0
  6
HIDDEN
 62
     7
370
    18
100
AcDbLine
 10
1203.149397092
 20
2791.7873056995
 30
0.0
 11
1203.149397092
 21
2716.7873056995
 31
0.0
  0
LINE
  5
1D4
330
1F
100
AcDbEntity
  8
0
  6
HIDDEN
 62
     7
370
    18
100
AcDbLine
 10
1638.149397092
 20
3365.2873056995
 30
0.0
 11
1635.149397092
 21
3365.2873056995
 31
0.0
  0
LINE
  5
1D5
330
1F
100
AcDbEntity
  8
0
  6
HIDDEN
 62
     7
370
    18
100
AcDbLine
 10
1635.149397092
 20
3357.2873056995
 30
0.0
 11
1638.149397092
 21
3357.2873056995
 31
0.0
  0
LINE
  5
1D6
330
1F
100
AcDbEntity
  8
0
  6
HIDDEN
 62
     7
370
    18
100
AcDbLine
 10
1638.149397092
 20
3233.2873056995
 30
0.0
 11
1635.149397092
 21
3233.2873056995
 31
0.0
  0
LINE
  5
1D7
330
1F
100
AcDbEntity
  8
0
  6
HIDDEN
 62
     7
370
    18
100
AcDbLine
 10
1635.149397092
 20
3225.2873056995
 30
0.0
 11
1638.149397092
 21
3225.2873056995
 31
0.0
  0
LINE
  5
1D8
330
1F
100
AcDbEntity
  8
0
  6
HIDDEN
 62
     7
370
    18
100
AcDbLine
 10
1638.149397092
 20
3083.2873056995
 30
0.0
 11
1635.149397092
 21
3083.2873056995
 31
0.0
  0
LINE
  5
1D9
330
1F
100
AcDbEntity
  8
0
  6
HIDDEN
 62
     7
370
    18
100
AcDbLine
 10
1635.149397092
 20
3075.2873056995
 30
0.0
 11
1638.149397092
 21
3075.2873056995
 31
0.0
  0
LINE
  5
1DA
330
1F
100
AcDbEntity
  8
0
  6
HIDDEN
 62
     7
370
    18
100
AcDbLine
 10
1638.149397092
 20
2951.2873056995
 30
0.0
 11
1635.149397092
 21
2951.2873056995
 31
0.0
  0
LINE
  5
1DB
330
1F
100
AcDbEntity
  8
0
  6
HIDDEN
 62
     7
370
    18
100
AcDbLine
 10
1635.149397092
 20
2943.2873056995
 30
0.0
 11
1638.149397092
 21
2943.2873056995
 31
0.0
  0
LINE
  5
1DC
330
1F
100
AcDbEntity
  8
0
  6
HIDDEN
 62
     7
370
    18
100
AcDbLine
 10
1204.915302527
 20
3405.2873056995
 30
0.0
 11
1204.915302527
 21
3402.9873056995
 31
0.0
  0
LINE
  5
1DD
330
1F
100
AcDbEntity
  8
0
  6
HIDDEN
 62
     7
370
    18
100
AcDbLine
 10
1212.915302527
 20
3402.9873056995
 30
0.0
 11
1212.915302527
 21
3405.2873056995
 31
0.0
  0
LINE
  5
1DE
330
1F
100
AcDbEntity
  8
0
  6
HIDDEN
 62
     7
370
    18
100
AcDbLine
 10
1343.3834916569
 20
3405.2873056995
 30
0.0
 11
1343.3834916569
 21
3402.9873056995
 31
0.0
  0
LINE
  5
1DF
330
1F
100
AcDbEntity
  8
0
  6
HIDDEN
 62
     7
370
    18
100
AcDbLine
 10
1351.3834916569
 20
3402.9873056995
 30
0.0
 11
1351.3834916569
 21
3405.2873056995
 31
0.0
  0
LINE
  5
1E0
330
1F
100
AcDbEntity
  8
0
  6
HIDDEN
 62
     7
370
    18
100
AcDbLine
 10
1528.149397092
 20
3341.7873056995
 30
0.0
 11
1528.149397092
 21
3405.2873056995
 31
0.0
  0
LINE
  5
1E1
330
1F
100
AcDbEntity
  8
0
  6
HIDDEN
 62
     7
370
    18
100
AcDbLine
 10
1028.149397092
 20
3405.2873056995
 30
0.0
 11
1028.149397092
 21
3341.7873056995
 31
0.0
  0
LINE
  5
1E2
330
1F
100
AcDbEntity
  8
0
  6
HIDDEN
 62
     7
370
    18
100
AcDbLine
 10
1084.9983331246
 20
3405.2873056995
 30
0.0
 11
1084.9983331246
 21
3402.9873056995
 31
0.0
  0
LINE
  5
1E3
330
1F
100
AcDbEntity
  8
0
  6
HIDDEN
 62
     7
370
    18
100
AcDbLine
 10
1092.9983331246
 20
3402.9873056995
 30
0.0
 11
1092.9983331246
 21
3405.2873056995
 31
0.0
  0
LINE
  5
1E4
330
1F
100
AcDbEntity
  8
0
  6
HIDDEN
 62
     7
370
    18
100
AcDbLine
 10
1463.3004610594
 20
3405.2873056995
 30
0.0
 11
1463.3004610594
 21
3402.9873056995
 31
0.0
  0
LINE
  5
1E5
330
1F
100
AcDbEntity
  8
0
  6
HIDDEN
 62
     7
370
    18
100
AcDbLine
 10
1471.3004610594
 20
3402.9873056995
 30
0.0
 11
1471.3004610594
 21
3405.2873056995
 31
0.0
  0
LINE
  5
1E6
330
1F
100
AcDbEntity
  8
0
  6
HIDDEN
 62
     7
370
    18
100
AcDbLine
 10
1015.7642385596
 20
3405.2873056995
 30
0.0
 11
1015.7642385596
 21
3402.9873056995
 31
0.0
  0
LINE
  5
1E7
330
1F
100
AcDbEntity
  8
0
  6
HIDDEN
 62
     7
370
    18
100
AcDbLine
 10
1023.7642385596
 20
3402.9873056995
 30
0.0
 11
1023.7642385596
 21
3405.2873056995
 31
0.0
  0
LINE
  5
1E8
330
1F
100
AcDbEntity
  8
0
  6
HIDDEN
 62
     7
370
    18
100
AcDbLine
 10
1532.5345556243
 20
3405.2873056995
 30
0.0
 11
1532.5345556243
 21
3402.9873056995
 31
0.0
  0
LINE
  5
1E9
330
1F
100
AcDbEntity
  8
0
  6
HIDDEN
 62
     7
370
    18
100
AcDbLine
 10
1540.5345556243
 20
3402.9873056995
 30
0.0
 11
1540.5345556243
 21
3405.2873056995
 31
0.0
  0
CIRCLE
  5
1EA
330
1F
100
AcDbEntity
  8
基礎穴
100
AcDbCircle
 10
463.149397092
 20
2842.2873056995
 30
0.0
 40
5.999999999999969
  0
CIRCLE
  5
1EB
330
1F
100
AcDbEntity
  8
基礎穴
100
AcDbCircle
 10
1003.149397092
 20
2842.2873056995
 30
0.0
 40
6.000000000000023
  0
CIRCLE
  5
1EC
330
1F
100
AcDbEntity
  8
基礎穴
100
AcDbCircle
 10
1543.149397092
 20
2842.2873056995
 30
0.0
 40
5.999999999999697
  0
CIRCLE
  5
1ED
330
1F
100
AcDbEntity
  8
基礎穴
100
AcDbCircle
 10
1543.149397092
 20
3366.2873056995
 30
0.0
 40
5.999999999999697
  0
CIRCLE
  5
1EE
330
1F
100
AcDbEntity
  8
基礎穴
100
AcDbCircle
 10
1003.149397092
 20
3366.2873056995
 30
0.0
 40
6.000000000000023
  0
CIRCLE
  5
1EF
330
1F
100
AcDbEntity
  8
基礎穴
100
AcDbCircle
 10
463.149397092
 20
3366.2873056995
 30
0.0
 40
5.999999999999969
  0
LINE
  5
1F0
330
1F
100
AcDbEntity
  8
2
100
AcDbLine
 10
1278.149397092
 20
2692.1199520877
 30
0.0
 11
1278.149397092
 21
3395.8930827264
 31
0.0
  0
LINE
  5
1F1
330
1F
100
AcDbEntity
  8
2
100
AcDbLine
 10
1615.7217113213
 20
3154.2873056995
 30
0.0
 11
776.9869901736
 21
3154.2873056995
 31
0.0
  0
ENDSEC
  0
SECTION
  2
OBJECTS
  0
DICTIONARY
  5
C
330
0
100
AcDbDictionary
281
     1
  3
ACAD_GROUP
350
D
  3
ACAD_LAYOUT
350
1A
  3
ACAD_MLINESTYLE
350
17
  3
ACAD_PLOTSETTINGS
350
19
  3
ACAD_PLOTSTYLENAME
350
E
  3
ACAD_SCALELIST
350
47
  3
DWGPROPS
350
1F2
  0
DICTIONARY
  5
D
102
{ACAD_REACTORS
330
C
102
}
330
C
100
AcDbDictionary
281
     1
  0
DICTIONARY
  5
1A
102
{ACAD_REACTORS
330
C
102
}
330
C
100
AcDbDictionary
281
     1
  3
Layout1
350
1E
  3
Layout2
350
26
  3
Model
350
22
  0
DICTIONARY
  5
17
102
{ACAD_REACTORS
330
C
102
}
330
C
100
AcDbDictionary
281
     1
  3
Standard
350
18
  0
DICTIONARY
  5
19
102
{ACAD_REACTORS
330
C
102
}
330
C
100
AcDbDictionary
281
     1
  0
ACDBDICTIONARYWDFLT
  5
E
102
{ACAD_REACTORS
330
C
102
}
330
C
100
AcDbDictionary
281
     1
  3
Normal
350
F
100
AcDbDictionaryWithDefault
340
F
  0
DICTIONARY
  5
47
102
{ACAD_REACTORS
330
C
102
}
330
C
100
AcDbDictionary
281
     1
  3
A0
350
48
  3
A1
350
49
  3
A2
350
4A
  3
A3
350
4B
  3
A4
350
4C
  3
A5
350
4D
  3
A6
350
4E
  3
A7
350
4F
  3
A8
350
50
  3
A9
350
51
  3
B0
350
52
  3
B1
350
53
  3
B2
350
54
  3
B3
350
55
  3
B4
350
56
  3
B5
350
57
  3
B6
350
58
  0
XRECORD
  5
1F2
102
{ACAD_REACTORS
330
C
102
}
330
C
100
AcDbXrecord
280
     1
  1
DWGPROPS COOKIE
  2

  3

  4

  6

  7

  8
yuta.kunimatsu
  9

300
=
301
=
302
=
303
=
304
=
305
=
306
=
307
=
308
=
309
=
 40
0.0
 41
2460105.400826736
 42
2460105.40082728
  1

 90
        0
  0
LAYOUT
  5
1E
102
{ACAD_REACTORS
330
1A
102
}
330
1A
100
AcDbPlotSettings
  1

  2
none_device
  4

  6

 40
0.0
 41
0.0
 42
0.0
 43
0.0
 44
0.0
 45
0.0
 46
0.0
 47
0.0
 48
0.0
 49
0.0
140
0.0
141
0.0
142
1.0
143
1.0
 70
   688
 72
     1
 73
     0
 74
     5
  7

 75
    16
147
1.0
148
0.0
149
0.0
100
AcDbLayout
  1
Layout1
 70
     1
 71
     1
 10
0.0
 20
0.0
 11
420.0
 21
297.0
 12
0.0
 22
0.0
 32
0.0
 14
1.0000000000E+20
 24
1.0000000000E+20
 34
1.0000000000E+20
 15
-1.0000000000E+20
 25
-1.0000000000E+20
 35
-1.0000000000E+20
146
0.0
 13
0.0
 23
0.0
 33
0.0
 16
1.0
 26
0.0
 36
0.0
 17
0.0
 27
1.0
 37
0.0
 76
     0
330
1B
  0
LAYOUT
  5
26
102
{ACAD_REACTORS
330
1A
102
}
330
1A
100
AcDbPlotSettings
  1

  2
none_device
  4

  6

 40
0.0
 41
0.0
 42
0.0
 43
0.0
 44
0.0
 45
0.0
 46
0.0
 47
0.0
 48
0.0
 49
0.0
140
0.0
141
0.0
142
1.0
143
1.0
 70
   688
 72
     1
 73
     0
 74
     5
  7

 75
    16
147
1.0
148
0.0
149
0.0
100
AcDbLayout
  1
Layout2
 70
     1
 71
     2
 10
0.0
 20
0.0
 11
0.0
 21
0.0
 12
0.0
 22
0.0
 32
0.0
 14
0.0
 24
0.0
 34
0.0
 15
0.0
 25
0.0
 35
0.0
146
0.0
 13
0.0
 23
0.0
 33
0.0
 16
1.0
 26
0.0
 36
0.0
 17
0.0
 27
1.0
 37
0.0
 76
     0
330
23
  0
LAYOUT
  5
22
102
{ACAD_REACTORS
330
1A
102
}
330
1A
100
AcDbPlotSettings
  1

  2
none_device
  4
Letter_(8.50_x_11.00_Inches)
  6

 40
6.35
 41
6.35
 42
6.35000508
 43
6.35000508
 44
215.9
 45
279.4
 46
0.0
 47
0.0
 48
0.0
 49
0.0
140
0.0
141
0.0
142
1.0
143
1.0
 70
  1712
 72
     1
 73
     0
 74
     0
  7

 75
     0
147
1.0
148
0.0
149
0.0
100
AcDbLayout
  1
Model
 70
     1
 71
     0
 10
0.0
 20
0.0
 11
3150.0
 21
4455.0
 12
0.0
 22
0.0
 32
0.0
 14
0.0
 24
0.0
 34
0.0
 15
3150.0
 25
4455.0
 35
0.0
146
0.0
 13
0.0
 23
0.0
 33
0.0
 16
1.0
 26
0.0
 36
0.0
 17
0.0
 27
1.0
 37
0.0
 76
     0
330
1F
331
29
  0
MLINESTYLE
  5
18
102
{ACAD_REACTORS
330
17
102
}
330
17
100
AcDbMlineStyle
  2
Standard
 70
     0
  3

 62
   256
 51
90.0
 52
90.0
 71
     2
 49
0.5
 62
   256
  6
BYLAYER
 49
-0.5
 62
   256
  6
BYLAYER
  0
ACDBPLACEHOLDER
  5
F
102
{ACAD_REACTORS
330
E
102
}
330
E
  0
SCALE
  5
48
102
{ACAD_REACTORS
330
47
102
}
330
47
100
AcDbScale
 70
     0
300
1:1
140
1.0
141
1.0
290
     1
  0
SCALE
  5
49
102
{ACAD_REACTORS
330
47
102
}
330
47
100
AcDbScale
 70
     0
300
1:2
140
1.0
141
2.0
290
     0
  0
SCALE
  5
4A
102
{ACAD_REACTORS
330
47
102
}
330
47
100
AcDbScale
 70
     0
300
1:4
140
1.0
141
4.0
290
     0
  0
SCALE
  5
4B
102
{ACAD_REACTORS
330
47
102
}
330
47
100
AcDbScale
 70
     0
300
1:5
140
1.0
141
5.0
290
     0
  0
SCALE
  5
4C
102
{ACAD_REACTORS
330
47
102
}
330
47
100
AcDbScale
 70
     0
300
1:8
140
1.0
141
8.0
290
     0
  0
SCALE
  5
4D
102
{ACAD_REACTORS
330
47
102
}
330
47
100
AcDbScale
 70
     0
300
1:10
140
1.0
141
10.0
290
     0
  0
SCALE
  5
4E
102
{ACAD_REACTORS
330
47
102
}
330
47
100
AcDbScale
 70
     0
300
1:16
140
1.0
141
16.0
290
     0
  0
SCALE
  5
4F
102
{ACAD_REACTORS
330
47
102
}
330
47
100
AcDbScale
 70
     0
300
1:20
140
1.0
141
20.0
290
     0
  0
SCALE
  5
50
102
{ACAD_REACTORS
330
47
102
}
330
47
100
AcDbScale
 70
     0
300
1:30
140
1.0
141
30.0
290
     0
  0
SCALE
  5
51
102
{ACAD_REACTORS
330
47
102
}
330
47
100
AcDbScale
 70
     0
300
1:40
140
1.0
141
40.0
290
     0
  0
SCALE
  5
52
102
{ACAD_REACTORS
330
47
102
}
330
47
100
AcDbScale
 70
     0
300
1:50
140
1.0
141
50.0
290
     0
  0
SCALE
  5
53
102
{ACAD_REACTORS
330
47
102
}
330
47
100
AcDbScale
 70
     0
300
1:100
140
1.0
141
100.0
290
     0
  0
SCALE
  5
54
102
{ACAD_REACTORS
330
47
102
}
330
47
100
AcDbScale
 70
     0
300
2:1
140
2.0
141
1.0
290
     0
  0
SCALE
  5
55
102
{ACAD_REACTORS
330
47
102
}
330
47
100
AcDbScale
 70
     0
300
4:1
140
4.0
141
1.0
290
     0
  0
SCALE
  5
56
102
{ACAD_REACTORS
330
47
102
}
330
47
100
AcDbScale
 70
     0
300
8:1
140
8.0
141
1.0
290
     0
  0
SCALE
  5
57
102
{ACAD_REACTORS
330
47
102
}
330
47
100
AcDbScale
 70
     0
300
10:1
140
10.0
141
1.0
290
     0
  0
SCALE
  5
58
102
{ACAD_REACTORS
330
47
102
}
330
47
100
AcDbScale
 70
     0
300
100:1
140
100.0
141
1.0
290
     0
  0
ENDSEC
  0
EOF
