  0
SECTION
  2
HEADER
  9
$ACADVER
  1
AC1015
  9
$ACADMAINTVER
 70
     6
  9
$DWGCODEPAGE
  3
DOS932
  9
$INSBASE
 10
0.0
 20
0.0
 30
0.0
  9
$EXTMIN
 10
0.0
 20
0.0
 30
0.0
  9
$EXTMAX
 10
3150.0
 20
4455.0
 30
0.0
  9
$LIMMIN
 10
0.0
 20
0.0
  9
$LIMMAX
 10
3150.0
 20
4455.0
  9
$ORTHOMODE
 70
     0
  9
$REGENMODE
 70
     1
  9
$FILLMODE
 70
     1
  9
$QTEXTMODE
 70
     0
  9
$MIRRTEXT
 70
     1
  9
$LTSCALE
 40
15.0
  9
$ATTMODE
 70
     1
  9
$TEXTSIZE
 40
52.9166666667
  9
$TRACEWID
 40
1.0
  9
$TEXTSTYLE
  7
Standard
  9
$CLAYER
  8
0
  9
$CELTYPE
  6
ByLayer
  9
$CECOLOR
 62
   256
  9
$CELTSCALE
 40
1.0
  9
$DISPSILH
 70
     0
  9
$DIMSCALE
 40
1.0
  9
$DIMASZ
 40
22.5
  9
$DIMEXO
 40
15.0
  9
$DIMDLI
 40
3.75
  9
$DIMRND
 40
0.0
  9
$DIMDLE
 40
0.0
  9
$DIMEXE
 40
15.0
  9
$DIMTP
 40
0.0
  9
$DIMTM
 40
0.0
  9
$DIMTXT
 40
52.9166666667
  9
$DIMCEN
 40
2.5
  9
$DIMTSZ
 40
0.0
  9
$DIMTOL
 70
     0
  9
$DIMLIM
 70
     0
  9
$DIMTIH
 70
     1
  9
$DIMTOH
 70
     1
  9
$DIMSE1
 70
     0
  9
$DIMSE2
 70
     0
  9
$DIMTAD
 70
     1
  9
$DIMZIN
 70
     0
  9
$DIMBLK
  1

  9
$DIMASO
 70
     1
  9
$DIMSHO
 70
     1
  9
$DIMPOST
  1

  9
$DIMAPOST
  1

  9
$DIMALT
 70
     0
  9
$DIMALTD
 70
     3
  9
$DIMALTF
 40
0.0393700787
  9
$DIMLFAC
 40
1.0
  9
$DIMTOFL
 70
     1
  9
$DIMTVP
 40
0.0
  9
$DIMTIX
 70
     0
  9
$DIMSOXD
 70
     0
  9
$DIMSAH
 70
     0
  9
$DIMBLK1
  1

  9
$DIMBLK2
  1

  9
$DIMSTYLE
  2
ISO-25
  9
$DIMCLRD
 70
     0
  9
$DIMCLRE
 70
     0
  9
$DIMCLRT
 70
     0
  9
$DIMTFAC
 40
1.0
  9
$DIMGAP
 40
22.86
  9
$DIMJUST
 70
     0
  9
$DIMSD1
 70
     0
  9
$DIMSD2
 70
     0
  9
$DIMTOLJ
 70
     0
  9
$DIMTZIN
 70
     0
  9
$DIMALTZ
 70
     0
  9
$DIMALTTZ
 70
     0
  9
$DIMUPT
 70
     0
  9
$DIMDEC
 70
     0
  9
$DIMTDEC
 70
     0
  9
$DIMALTU
 70
     2
  9
$DIMALTTD
 70
     3
  9
$DIMTXSTY
  7
Standard
  9
$DIMAUNIT
 70
     0
  9
$DIMADEC
 70
     2
  9
$DIMALTRND
 40
0.0
  9
$DIMAZIN
 70
     0
  9
$DIMDSEP
 70
    44
  9
$DIMATFIT
 70
     3
  9
$DIMFRAC
 70
     0
  9
$DIMLDRBLK
  1

  9
$DIMLUNIT
 70
     2
  9
$DIMLWD
 70
    -2
  9
$DIMLWE
 70
    -2
  9
$DIMTMOVE
 70
     0
  9
$LUNITS
 70
     2
  9
$LUPREC
 70
     2
  9
$SKETCHINC
 40
1.0
  9
$FILLETRAD
 40
0.0
  9
$AUNITS
 70
     0
  9
$AUPREC
 70
     2
  9
$MENU
  1
.
  9
$ELEVATION
 40
0.0
  9
$PELEVATION
 40
0.0
  9
$THICKNESS
 40
0.0
  9
$LIMCHECK
 70
     0
  9
$CHAMFERA
 40
0.0
  9
$CHAMFERB
 40
0.0
  9
$CHAMFERC
 40
0.0
  9
$CHAMFERD
 40
0.0
  9
$SKPOLY
 70
     0
  9
$TDCREATE
 40
2460105.775686238
  9
$TDUCREATE
 40
2460105.400686238
  9
$TDUPDATE
 40
2460105.775686991
  9
$TDUUPDATE
 40
2460105.400686991
  9
$TDINDWG
 40
0.0000000116
  9
$TDUSRTIMER
 40
0.0000000116
  9
$USRTIMER
 70
     1
  9
$ANGBASE
 50
0.0
  9
$ANGDIR
 70
     0
  9
$PDMODE
 70
     0
  9
$PDSIZE
 40
-1.0
  9
$PLINEWID
 40
0.0
  9
$SPLFRAME
 70
     0
  9
$SPLINETYPE
 70
     6
  9
$SPLINESEGS
 70
     8
  9
$HANDSEED
  5
1E8
  9
$SURFTAB1
 70
     6
  9
$SURFTAB2
 70
     6
  9
$SURFTYPE
 70
     6
  9
$SURFU
 70
     6
  9
$SURFV
 70
     6
  9
$UCSBASE
  2

  9
$UCSNAME
  2

  9
$UCSORG
 10
0.0
 20
0.0
 30
0.0
  9
$UCSXDIR
 10
1.0
 20
0.0
 30
0.0
  9
$UCSYDIR
 10
0.0
 20
1.0
 30
0.0
  9
$UCSORTHOREF
  2

  9
$UCSORTHOVIEW
 70
     0
  9
$UCSORGTOP
 10
0.0
 20
0.0
 30
0.0
  9
$UCSORGBOTTOM
 10
0.0
 20
0.0
 30
0.0
  9
$UCSORGLEFT
 10
0.0
 20
0.0
 30
0.0
  9
$UCSORGRIGHT
 10
0.0
 20
0.0
 30
0.0
  9
$UCSORGFRONT
 10
0.0
 20
0.0
 30
0.0
  9
$UCSORGBACK
 10
0.0
 20
0.0
 30
0.0
  9
$PUCSBASE
  2

  9
$PUCSNAME
  2

  9
$PUCSORG
 10
0.0
 20
0.0
 30
0.0
  9
$PUCSXDIR
 10
1.0
 20
0.0
 30
0.0
  9
$PUCSYDIR
 10
0.0
 20
1.0
 30
0.0
  9
$PUCSORTHOREF
  2

  9
$PUCSORTHOVIEW
 70
     0
  9
$PUCSORGTOP
 10
0.0
 20
0.0
 30
0.0
  9
$PUCSORGBOTTOM
 10
0.0
 20
0.0
 30
0.0
  9
$PUCSORGLEFT
 10
0.0
 20
0.0
 30
0.0
  9
$PUCSORGRIGHT
 10
0.0
 20
0.0
 30
0.0
  9
$PUCSORGFRONT
 10
0.0
 20
0.0
 30
0.0
  9
$PUCSORGBACK
 10
0.0
 20
0.0
 30
0.0
  9
$USERI1
 70
     0
  9
$USERI2
 70
     0
  9
$USERI3
 70
     0
  9
$USERI4
 70
     0
  9
$USERI5
 70
     0
  9
$USERR1
 40
0.0
  9
$USERR2
 40
0.0
  9
$USERR3
 40
0.0
  9
$USERR4
 40
0.0
  9
$USERR5
 40
0.0
  9
$WORLDVIEW
 70
     1
  9
$SHADEDGE
 70
     3
  9
$SHADEDIF
 70
    70
  9
$TILEMODE
 70
     1
  9
$MAXACTVP
 70
    64
  9
$PINSBASE
 10
0.0
 20
0.0
 30
0.0
  9
$PLIMCHECK
 70
     0
  9
$PEXTMIN
 10
1.0000000000E+20
 20
1.0000000000E+20
 30
1.0000000000E+20
  9
$PEXTMAX
 10
-1.0000000000E+20
 20
-1.0000000000E+20
 30
-1.0000000000E+20
  9
$PLIMMIN
 10
0.0
 20
0.0
  9
$PLIMMAX
 10
420.0
 20
297.0
  9
$UNITMODE
 70
     0
  9
$VISRETAIN
 70
     1
  9
$PLINEGEN
 70
     0
  9
$PSLTSCALE
 70
     1
  9
$TREEDEPTH
 70
  3020
  9
$CMLSTYLE
  2
Standard
  9
$CMLJUST
 70
     0
  9
$CMLSCALE
 40
20.0
  9
$PROXYGRAPHICS
 70
     1
  9
$MEASUREMENT
 70
     1
  9
$CELWEIGHT
370
    -1
  9
$ENDCAPS
280
     0
  9
$JOINSTYLE
280
     0
  9
$LWDISPLAY
290
     1
  9
$INSUNITS
 70
     4
  9
$HYPERLINKBASE
  1

  9
$STYLESHEET
  1

  9
$XEDIT
290
     1
  9
$CEPSNTYPE
380
     0
  9
$PSTYLEMODE
290
     1
  9
$FINGERPRINTGUID
  2
{58963cb1-776f-4591-86c4-23e779d9fa28}
  9
$VERSIONGUID
  2
{FAEB1C32-E019-11D5-929B-00C0DF256EC4}
  9
$EXTNAMES
290
     1
  9
$PSVPSCALE
 40
0.0
  9
$OLESTARTUP
290
     0
  0
ENDSEC
  0
SECTION
  2
CLASSES
  0
CLASS
  1
ACDBDICTIONARYWDFLT
  2
AcDbDictionaryWithDefault
  3
ObjectDBX Classes
 90
        0
280
     0
281
     0
  0
CLASS
  1
VISUALSTYLE
  2
AcDbVisualStyle
  3
ObjectDBX Classes
 90
     4095
280
     0
281
     0
  0
CLASS
  1
MATERIAL
  2
AcDbMaterial
  3
ObjectDBX Classes
 90
     1153
280
     0
281
     0
  0
CLASS
  1
SCALE
  2
AcDbScale
  3
ObjectDBX Classes
 90
     1153
280
     0
281
     0
  0
CLASS
  1
TABLESTYLE
  2
AcDbTableStyle
  3
ObjectDBX Classes
 90
     4095
280
     0
281
     0
  0
CLASS
  1
MLEADERSTYLE
  2
AcDbMLeaderStyle
  3
ACDB_MLEADERSTYLE_CLASS
 90
     4095
280
     0
281
     0
  0
CLASS
  1
SUN
  2
AcDbSun
  3
SCENEOE
 90
     1153
280
     0
281
     0
  0
CLASS
  1
ACDBPLACEHOLDER
  2
AcDbPlaceHolder
  3
ObjectDBX Classes
 90
        0
280
     0
281
     0
  0
CLASS
  1
LAYOUT
  2
AcDbLayout
  3
ObjectDBX Classes
 90
        0
280
     0
281
     0
  0
ENDSEC
  0
SECTION
  2
TABLES
  0
TABLE
  2
VPORT
  5
8
330
0
100
AcDbSymbolTable
 70
     1
  0
VPORT
  5
29
330
8
100
AcDbSymbolTableRecord
100
AcDbViewportTableRecord
  2
*Active
 70
     0
 10
0.0
 20
0.0
 11
1.0
 21
1.0
 12
1575.0
 22
2227.5
 13
0.0
 23
0.0
 14
10.0
 24
10.0
 15
10.0
 25
10.0
 16
0.0
 26
0.0
 36
1.0
 17
0.0
 27
0.0
 37
0.0
 40
4455.0
 41
0.7070707071
 42
50.0
 43
0.0
 44
0.0
 50
0.0
 51
0.0
 71
     0
 72
  2000
 73
     1
 74
     3
 75
     0
 76
     0
 77
     0
 78
     0
281
     0
 65
     1
110
0.0
120
0.0
130
0.0
111
1.0
121
0.0
131
0.0
112
0.0
122
1.0
132
0.0
 79
     0
146
0.0
  0
ENDTAB
  0
TABLE
  2
LTYPE
  5
5
330
0
100
AcDbSymbolTable
 70
     6
  0
LTYPE
  5
14
330
5
100
AcDbSymbolTableRecord
100
AcDbLinetypeTableRecord
  2
ByBlock
 70
     0
  3

 72
    65
 73
     0
 40
0.0
  0
LTYPE
  5
15
330
5
100
AcDbSymbolTableRecord
100
AcDbLinetypeTableRecord
  2
ByLayer
 70
     0
  3

 72
    65
 73
     0
 40
0.0
  0
LTYPE
  5
16
330
5
100
AcDbSymbolTableRecord
100
AcDbLinetypeTableRecord
  2
Continuous
 70
     0
  3
Solid line
 72
    65
 73
     0
 40
0.0
  0
LTYPE
  5
5E
330
5
100
AcDbSymbolTableRecord
100
AcDbLinetypeTableRecord
  2
HIDDEN
 70
     0
  3
Hidden __ __ __ __ __ __ __ __ __ __ __ __ __ __
 72
    65
 73
     2
 40
1.905
 49
1.27
 74
     0
 49
-0.635
 74
     0
  0
LTYPE
  5
5F
330
5
100
AcDbSymbolTableRecord
100
AcDbLinetypeTableRecord
  2
PHANTOM
 70
     0
  3
Phantom ______  __  __  ______  __  __  ______
 72
    65
 73
     6
 40
12.7
 49
6.35
 74
     0
 49
-1.27
 74
     0
 49
1.27
 74
     0
 49
-1.27
 74
     0
 49
1.27
 74
     0
 49
-1.27
 74
     0
  0
LTYPE
  5
60
330
5
100
AcDbSymbolTableRecord
100
AcDbLinetypeTableRecord
  2
CENTER
 70
     0
  3
Center ____ _ ____ _ ____ _ ____ _ ____ _ ____
 72
    65
 73
     4
 40
10.16
 49
6.35
 74
     0
 49
-1.27
 74
     0
 49
1.27
 74
     0
 49
-1.27
 74
     0
  0
LTYPE
  5
61
330
5
100
AcDbSymbolTableRecord
100
AcDbLinetypeTableRecord
  2
CENTERX2
 70
     0
  3
Center (2x) ________  __  ________  __  _____
 72
    65
 73
     4
 40
20.32
 49
12.7
 74
     0
 49
-2.54
 74
     0
 49
2.54
 74
     0
 49
-2.54
 74
     0
  0
LTYPE
  5
62
330
5
100
AcDbSymbolTableRecord
100
AcDbLinetypeTableRecord
  2
DOT2
 70
     0
  3
Dot (.5x) ........................................
 72
    65
 73
     2
 40
0.635
 49
0.0
 74
     0
 49
-0.635
 74
     0
  0
ENDTAB
  0
TABLE
  2
LAYER
  5
2
330
0
100
AcDbSymbolTable
 70
     6
  0
LAYER
  5
10
330
2
100
AcDbSymbolTableRecord
100
AcDbLayerTableRecord
  2
0
 70
     0
 62
     7
  6
Continuous
370
    -3
390
F
  0
LAYER
  5
63
330
2
100
AcDbSymbolTableRecord
100
AcDbLayerTableRecord
  2
1
 70
     0
 62
     4
  6
Continuous
370
    25
390
F
  0
LAYER
  5
64
330
2
100
AcDbSymbolTableRecord
100
AcDbLayerTableRecord
  2
2
 70
     0
 62
     3
  6
CENTERX2
370
    -3
390
F
  0
LAYER
  5
65
330
2
100
AcDbSymbolTableRecord
100
AcDbLayerTableRecord
  2
3
 70
     0
 62
     2
  6
Continuous
370
    -3
390
F
  0
LAYER
  5
66
330
2
100
AcDbSymbolTableRecord
100
AcDbLayerTableRecord
  2
4
 70
     0
 62
     7
  6
Continuous
370
    -3
390
F
  0
LAYER
  5
67
330
2
100
AcDbSymbolTableRecord
100
AcDbLayerTableRecord
  2
基礎穴
 70
     0
 62
     1
  6
PHANTOM
370
    35
390
F
  0
ENDTAB
  0
TABLE
  2
STYLE
  5
3
330
0
100
AcDbSymbolTable
 70
     2
  0
STYLE
  5
11
330
3
100
AcDbSymbolTableRecord
100
AcDbTextStyleTableRecord
  2
Standard
 70
     0
 40
0.0
 41
1.0
 50
0.0
 71
     0
 42
52.9166666667
  3
txt
  4
bigfont
  0
STYLE
  5
68
330
3
100
AcDbSymbolTableRecord
100
AcDbTextStyleTableRecord
  2
SLDTEXTSTYLE0
 70
     0
 40
0.0
 41
0.7
 50
0.0
 71
     0
 42
52.9166666667
  3
TXT
  4
bigfont
  0
ENDTAB
  0
TABLE
  2
VIEW
  5
6
330
0
100
AcDbSymbolTable
 70
     0
  0
ENDTAB
  0
TABLE
  2
UCS
  5
7
330
0
100
AcDbSymbolTable
 70
     0
  0
ENDTAB
  0
TABLE
  2
APPID
  5
9
330
0
100
AcDbSymbolTable
 70
     1
  0
APPID
  5
12
330
9
100
AcDbSymbolTableRecord
100
AcDbRegAppTableRecord
  2
ACAD
 70
     0
  0
ENDTAB
  0
TABLE
  2
DIMSTYLE
  5
A
330
0
100
AcDbSymbolTable
 70
     1
100
AcDbDimStyleTable
  0
DIMSTYLE
105
27
330
A
100
AcDbSymbolTableRecord
100
AcDbDimStyleTableRecord
  2
ISO-25
 70
     0
 41
2.5
 42
0.625
 43
3.75
 44
1.25
 73
     0
 74
     0
 77
     1
 78
     8
140
2.5
141
2.5
143
0.0393700787
147
0.625
171
     3
172
     1
178
     0
271
     2
272
     2
274
     3
278
    44
283
     0
284
     8
340
11
  0
ENDTAB
  0
TABLE
  2
BLOCK_RECORD
  5
1
330
0
100
AcDbSymbolTable
 70
     2
  0
BLOCK_RECORD
  5
1F
330
1
100
AcDbSymbolTableRecord
100
AcDbBlockTableRecord
  2
*Model_Space
340
22
  0
BLOCK_RECORD
  5
1B
330
1
100
AcDbSymbolTableRecord
100
AcDbBlockTableRecord
  2
*Paper_Space
340
1E
  0
BLOCK_RECORD
  5
23
330
1
100
AcDbSymbolTableRecord
100
AcDbBlockTableRecord
  2
*Paper_Space0
340
26
  0
BLOCK_RECORD
  5
C8
330
1
100
AcDbSymbolTableRecord
100
AcDbBlockTableRecord
  2
SW_CENTERMARKSYMBOL_0
340
0
102
{BLKREFS
331
D3
102
}
  0
ENDTAB
  0
ENDSEC
  0
SECTION
  2
BLOCKS
  0
BLOCK
  5
20
330
1F
100
AcDbEntity
  8
0
100
AcDbBlockBegin
  2
*Model_Space
 70
     0
 10
0.0
 20
0.0
 30
0.0
  3
*Model_Space
  1

  0
ENDBLK
  5
21
330
1F
100
AcDbEntity
  8
0
100
AcDbBlockEnd
  0
BLOCK
  5
1C
330
1B
100
AcDbEntity
 67
     1
  8
0
100
AcDbBlockBegin
  2
*Paper_Space
 70
     0
 10
0.0
 20
0.0
 30
0.0
  3
*Paper_Space
  1

  0
ENDBLK
  5
1D
330
1B
100
AcDbEntity
 67
     1
  8
0
100
AcDbBlockEnd
  0
BLOCK
  5
24
330
23
100
AcDbEntity
  8
0
100
AcDbBlockBegin
  2
*Paper_Space0
 70
     0
 10
0.0
 20
0.0
 30
0.0
  3
*Paper_Space0
  1

  0
ENDBLK
  5
25
330
23
100
AcDbEntity
  8
0
100
AcDbBlockEnd
  0
BLOCK
  5
C9
330
C8
100
AcDbEntity
  8
0
100
AcDbBlockBegin
  2
SW_CENTERMARKSYMBOL_0
 70
     0
 10
0.0
 20
0.0
 30
0.0
  3
SW_CENTERMARKSYMBOL_0
  1

  0
LINE
  5
CB
330
C8
100
AcDbEntity
  8
2
 62
     0
100
AcDbLine
 10
0.0
 20
0.0
 30
0.0
 11
0.0
 21
2.5
 31
0.0
  0
LINE
  5
CC
330
C8
100
AcDbEntity
  8
2
 62
     0
100
AcDbLine
 10
0.0
 20
0.0
 30
0.0
 11
-2.5
 21
0.0
 31
0.0
  0
LINE
  5
CD
330
C8
100
AcDbEntity
  8
2
 62
     0
100
AcDbLine
 10
0.0
 20
0.0
 30
0.0
 11
0.0
 21
-2.5
 31
0.0
  0
LINE
  5
CE
330
C8
100
AcDbEntity
  8
2
 62
     0
100
AcDbLine
 10
0.0
 20
0.0
 30
0.0
 11
2.5
 21
0.0
 31
0.0
  0
LINE
  5
CF
330
C8
100
AcDbEntity
  8
2
 62
     0
100
AcDbLine
 10
0.0
 20
5.0
 30
0.0
 11
0.0
 21
282.5
 31
0.0
  0
LINE
  5
D0
330
C8
100
AcDbEntity
  8
2
 62
     0
100
AcDbLine
 10
-5.0
 20
0.0
 30
0.0
 11
-282.5
 21
0.0
 31
0.0
  0
LINE
  5
D1
330
C8
100
AcDbEntity
  8
2
 62
     0
100
AcDbLine
 10
0.0
 20
-5.0
 30
0.0
 11
0.0
 21
-282.5
 31
0.0
  0
LINE
  5
D2
330
C8
100
AcDbEntity
  8
2
 62
     0
100
AcDbLine
 10
5.0
 20
0.0
 30
0.0
 11
282.5
 21
0.0
 31
0.0
  0
ENDBLK
  5
CA
330
C8
100
AcDbEntity
  8
0
100
AcDbBlockEnd
  0
ENDSEC
  0
SECTION
  2
ENTITIES
  0
MTEXT
  5
69
330
1F
100
AcDbEntity
  8
0
  6
Continuous
 62
     7
370
     0
100
AcDbMText
 10
2089.8765618834
 20
1026.5192394479
 30
0.0
 40
39.6875
 41
0.0
 71
     1
 72
     1
  1
LL03040Y101K-L2
  7
SLDTEXTSTYLE0
 73
     1
 44
1.0
  0
LINE
  5
6A
330
1F
100
AcDbEntity
  8
1
100
AcDbLine
 10
1196.1717685984
 20
1588.709302426
 30
0.0
 11
1196.1717685984
 21
1593.209302426
 31
0.0
  0
LINE
  5
6B
330
1F
100
AcDbEntity
  8
1
100
AcDbLine
 10
506.1717685984
 20
1593.209302426
 30
0.0
 11
506.1717685984
 21
2203.209302426
 31
0.0
  0
LINE
  5
6C
330
1F
100
AcDbEntity
  8
1
100
AcDbLine
 10
506.1717685984
 20
2203.209302426
 30
0.0
 11
806.1717685984
 21
2203.209302426
 31
0.0
  0
LINE
  5
6D
330
1F
100
AcDbEntity
  8
1
100
AcDbLine
 10
806.1717685984
 20
2203.209302426
 30
0.0
 11
1546.1717685984
 21
1923.209302426
 31
0.0
  0
LINE
  5
6E
330
1F
100
AcDbEntity
  8
1
100
AcDbLine
 10
1546.1717685984
 20
1923.209302426
 30
0.0
 11
1546.1717685984
 21
1593.209302426
 31
0.0
  0
LINE
  5
6F
330
1F
100
AcDbEntity
  8
1
100
AcDbLine
 10
1546.1717685984
 20
1593.209302426
 30
0.0
 11
506.1717685984
 21
1593.209302426
 31
0.0
  0
LINE
  5
70
330
1F
100
AcDbEntity
  8
1
100
AcDbLine
 10
436.1717685984
 20
1593.209302426
 30
0.0
 11
436.1717685984
 21
1588.709302426
 31
0.0
  0
LINE
  5
71
330
1F
100
AcDbEntity
  8
1
100
AcDbLine
 10
506.1717685984
 20
1593.209302426
 30
0.0
 11
436.1717685984
 21
1593.209302426
 31
0.0
  0
LINE
  5
72
330
1F
100
AcDbEntity
  8
1
100
AcDbLine
 10
536.1717685984
 20
1593.209302426
 30
0.0
 11
536.1717685984
 21
1588.709302426
 31
0.0
  0
LINE
  5
73
330
1F
100
AcDbEntity
  8
1
100
AcDbLine
 10
536.1717685984
 20
1588.709302426
 30
0.0
 11
436.1717685984
 21
1588.709302426
 31
0.0
  0
LINE
  5
74
330
1F
100
AcDbEntity
  8
1
100
AcDbLine
 10
1616.1717685984
 20
1593.209302426
 30
0.0
 11
1546.1717685984
 21
1593.209302426
 31
0.0
  0
LINE
  5
75
330
1F
100
AcDbEntity
  8
1
100
AcDbLine
 10
1616.1717685984
 20
1593.209302426
 30
0.0
 11
1616.1717685984
 21
1588.709302426
 31
0.0
  0
LINE
  5
76
330
1F
100
AcDbEntity
  8
1
100
AcDbLine
 10
1616.1717685984
 20
1588.709302426
 30
0.0
 11
1516.1717685984
 21
1588.709302426
 31
0.0
  0
LINE
  5
77
330
1F
100
AcDbEntity
  8
1
100
AcDbLine
 10
1516.1717685984
 20
1593.209302426
 30
0.0
 11
1516.1717685984
 21
1588.709302426
 31
0.0
  0
LINE
  5
78
330
1F
100
AcDbEntity
  8
1
100
AcDbLine
 10
1566.1717685984
 20
1583.709302426
 30
0.0
 11
386.1717685984
 21
1583.709302426
 31
0.0
  0
LINE
  5
79
330
1F
100
AcDbEntity
  8
1
100
AcDbLine
 10
386.1717685984
 20
1588.709302426
 30
0.0
 11
386.1717685984
 21
1583.709302426
 31
0.0
  0
LINE
  5
7A
330
1F
100
AcDbEntity
  8
1
100
AcDbLine
 10
436.1717685984
 20
1588.709302426
 30
0.0
 11
386.1717685984
 21
1588.709302426
 31
0.0
  0
LINE
  5
7B
330
1F
100
AcDbEntity
  8
1
100
AcDbLine
 10
1516.1717685984
 20
1588.709302426
 30
0.0
 11
536.1717685984
 21
1588.709302426
 31
0.0
  0
LINE
  5
7C
330
1F
100
AcDbEntity
  8
1
100
AcDbLine
 10
1566.1717685984
 20
1588.709302426
 30
0.0
 11
1566.1717685984
 21
1583.709302426
 31
0.0
  0
LINE
  5
7D
330
1F
100
AcDbEntity
  8
1
100
AcDbLine
 10
1566.1717685984
 20
1513.709302426
 30
0.0
 11
386.1717685984
 21
1513.709302426
 31
0.0
  0
LINE
  5
7E
330
1F
100
AcDbEntity
  8
1
100
AcDbLine
 10
386.1717685984
 20
1518.709302426
 30
0.0
 11
386.1717685984
 21
1513.709302426
 31
0.0
  0
LINE
  5
7F
330
1F
100
AcDbEntity
  8
1
100
AcDbLine
 10
1566.1717685984
 20
1518.709302426
 30
0.0
 11
1566.1717685984
 21
1513.709302426
 31
0.0
  0
LINE
  5
80
330
1F
100
AcDbEntity
  8
1
100
AcDbLine
 10
1566.1717685984
 20
1518.709302426
 30
0.0
 11
386.1717685984
 21
1518.709302426
 31
0.0
  0
LINE
  5
81
330
1F
100
AcDbEntity
  8
1
100
AcDbLine
 10
421.1717685984
 20
1583.709302426
 30
0.0
 11
421.1717685984
 21
1518.709302426
 31
0.0
  0
LINE
  5
82
330
1F
100
AcDbEntity
  8
1
100
AcDbLine
 10
1531.1717685984
 20
1583.709302426
 30
0.0
 11
1531.1717685984
 21
1518.709302426
 31
0.0
  0
LINE
  5
83
330
1F
100
AcDbEntity
  8
1
100
AcDbLine
 10
1271.1717685984
 20
2370.709302426
 30
0.0
 11
1271.1717685984
 21
2373.709302426
 31
0.0
  0
LINE
  5
84
330
1F
100
AcDbEntity
  8
1
100
AcDbLine
 10
1271.1717685984
 20
2370.709302426
 30
0.0
 11
695.1717685984
 21
2370.709302426
 31
0.0
  0
LINE
  5
85
330
1F
100
AcDbEntity
  8
1
100
AcDbLine
 10
695.1717685984
 20
2370.709302426
 30
0.0
 11
695.1717685984
 21
2373.709302426
 31
0.0
  0
LINE
  5
86
330
1F
100
AcDbEntity
  8
1
100
AcDbLine
 10
1271.1717685984
 20
2373.709302426
 30
0.0
 11
695.1717685984
 21
2373.709302426
 31
0.0
  0
LINE
  5
87
330
1F
100
AcDbEntity
  8
1
100
AcDbLine
 10
1240.1223501531
 20
2370.709302426
 30
0.0
 11
1212.9413498029
 21
2049.2964879161
 31
0.0
  0
ARC
  5
88
330
1F
100
AcDbEntity
  8
1
100
AcDbCircle
 10
738.1717685984
 20
2050.709302426
 30
0.0
 40
473.1999999999999
100
AcDbArc
 50
282.4906377034
 51
284.8003922248
  0
LWPOLYLINE
  5
89
330
1F
100
AcDbEntity
  8
1
100
AcDbPolyline
 90
        3
 70
   128
 43
0.0
 10
644.2748037912
 20
1588.709302426
 10
632.9477719036
 20
1591.6267781281
 10
627.3187578139
 20
1593.209302426
  0
ARC
  5
8A
330
1F
100
AcDbEntity
  8
1
100
AcDbCircle
 10
738.1717685984
 20
1976.709302426
 30
0.0
 40
399.1999999999999
100
AcDbArc
 50
180.0
 51
234.4676640465
  0
LINE
  5
8B
330
1F
100
AcDbEntity
  8
1
100
AcDbLine
 10
338.9717685984
 20
1976.709302426
 30
0.0
 11
338.9717685984
 21
1982.709302426
 31
0.0
  0
ARC
  5
8C
330
1F
100
AcDbEntity
  8
1
100
AcDbCircle
 10
670.1717685984
 20
1982.709302426
 30
0.0
 40
331.2000000000003
100
AcDbArc
 50
90.0
 51
180.0
  0
LINE
  5
8D
330
1F
100
AcDbEntity
  8
1
100
AcDbLine
 10
670.1717685984
 20
2313.909302426
 30
0.0
 11
725.9717685984
 21
2313.909302426
 31
0.0
  0
LINE
  5
8E
330
1F
100
AcDbEntity
  8
1
100
AcDbLine
 10
725.9717685984
 20
2313.909302426
 30
0.0
 11
725.9717685984
 21
2370.709302426
 31
0.0
  0
CIRCLE
  5
8F
330
1F
100
AcDbEntity
  8
0
  6
HIDDEN
 62
     7
370
    18
100
AcDbCircle
 10
1371.1717685984
 20
1765.709302426
 30
0.0
 40
19.0
  0
LINE
  5
90
330
1F
100
AcDbEntity
  8
0
  6
HIDDEN
 62
     7
370
    18
100
AcDbLine
 10
1438.8555184945
 20
1640.309302426
 30
0.0
 11
1303.4880187023
 21
1640.309302426
 31
0.0
  0
ARC
  5
91
330
1F
100
AcDbEntity
  8
0
  6
HIDDEN
 62
     7
370
    18
100
AcDbCircle
 10
1371.1717685984
 20
1765.709302426
 30
0.0
 40
142.4999999999999
100
AcDbArc
 50
298.3576365763
 51
241.6423634237
  0
LINE
  5
92
330
1F
100
AcDbEntity
  8
0
  6
HIDDEN
 62
     7
370
    18
100
AcDbLine
 10
1196.1717685984
 20
1593.209302426
 30
0.0
 11
1196.1717685984
 21
1633.709302426
 31
0.0
  0
LINE
  5
93
330
1F
100
AcDbEntity
  8
0
  6
HIDDEN
 62
     7
370
    18
100
AcDbLine
 10
1546.1717685984
 20
1633.709302426
 30
0.0
 11
1196.1717685984
 21
1633.709302426
 31
0.0
  0
LINE
  5
94
330
1F
100
AcDbEntity
  8
0
  6
HIDDEN
 62
     7
370
    18
100
AcDbLine
 10
1546.1717685984
 20
1588.709302426
 30
0.0
 11
1546.1717685984
 21
1593.209302426
 31
0.0
  0
LINE
  5
95
330
1F
100
AcDbEntity
  8
0
  6
HIDDEN
 62
     7
370
    18
100
AcDbLine
 10
1458.6717685984
 20
1646.909302426
 30
0.0
 11
1449.8661775485
 21
1646.909302426
 31
0.0
  0
LINE
  5
96
330
1F
100
AcDbEntity
  8
0
  6
HIDDEN
 62
     7
370
    18
100
AcDbLine
 10
1458.6717685984
 20
1633.709302426
 30
0.0
 11
1458.6717685984
 21
1646.909302426
 31
0.0
  0
LINE
  5
97
330
1F
100
AcDbEntity
  8
0
  6
HIDDEN
 62
     7
370
    18
100
AcDbLine
 10
1283.6717685984
 20
1646.909302426
 30
0.0
 11
1283.6717685984
 21
1633.709302426
 31
0.0
  0
LINE
  5
98
330
1F
100
AcDbEntity
  8
0
  6
HIDDEN
 62
     7
370
    18
100
AcDbLine
 10
1292.4773596484
 20
1646.909302426
 30
0.0
 11
1283.6717685984
 21
1646.909302426
 31
0.0
  0
CIRCLE
  5
99
330
1F
100
AcDbEntity
  8
0
  6
HIDDEN
 62
     7
370
    18
100
AcDbCircle
 10
1371.1717685984
 20
1765.709302426
 30
0.0
 40
75.00000000000007
  0
CIRCLE
  5
9A
330
1F
100
AcDbEntity
  8
0
  6
HIDDEN
 62
     7
370
    18
100
AcDbCircle
 10
701.1717685984
 20
2013.709302426
 30
0.0
 40
75.00000000000006
  0
LINE
  5
9B
330
1F
100
AcDbEntity
  8
0
  6
HIDDEN
 62
     7
370
    18
100
AcDbLine
 10
1526.1717685984
 20
1588.709302426
 30
0.0
 11
1526.1717685984
 21
1513.709302426
 31
0.0
  0
LINE
  5
9C
330
1F
100
AcDbEntity
  8
0
  6
HIDDEN
 62
     7
370
    18
100
AcDbLine
 10
426.1717685984
 20
1588.709302426
 30
0.0
 11
426.1717685984
 21
1513.709302426
 31
0.0
  0
LINE
  5
9D
330
1F
100
AcDbEntity
  8
0
  6
HIDDEN
 62
     7
370
    18
100
AcDbLine
 10
1212.9413498029
 20
2049.2964879161
 30
0.0
 11
1209.6887170965
 21
2010.8344070775
 31
0.0
  0
ARC
  5
9E
330
1F
100
AcDbEntity
  8
0
  6
HIDDEN
 62
     7
370
    18
100
AcDbCircle
 10
738.1717685984
 20
2050.709302426
 30
0.0
 40
473.2000000000003
100
AcDbArc
 50
284.8003922248
 51
355.1661544254
  0
ARC
  5
9F
330
1F
100
AcDbEntity
  8
0
  6
HIDDEN
 62
     7
370
    18
100
AcDbCircle
 10
738.1717685984
 20
2050.709302426
 30
0.0
 40
473.1999999999998
100
AcDbArc
 50
270.0
 51
282.4906377034
  0
ARC
  5
A0
330
1F
100
AcDbEntity
  8
0
  6
HIDDEN
 62
     7
370
    18
100
AcDbCircle
 10
738.1717685984
 20
1976.709302426
 30
0.0
 40
399.2
100
AcDbArc
 50
256.3958308448
 51
270.0
  0
ARC
  5
A1
330
1F
100
AcDbEntity
  8
0
  6
HIDDEN
 62
     7
370
    18
100
AcDbCircle
 10
738.1717685984
 20
1976.709302426
 30
0.0
 40
399.1999999999999
100
AcDbArc
 50
234.4676640465
 51
253.8777401304
  0
ARC
  5
A2
330
1F
100
AcDbEntity
  8
0
  6
HIDDEN
 62
     7
370
    18
100
AcDbCircle
 10
670.1717685984
 20
1982.709302426
 30
0.0
 40
330.0000000000005
100
AcDbArc
 50
90.0
 51
180.0
  0
LINE
  5
A3
330
1F
100
AcDbEntity
  8
0
  6
HIDDEN
 62
     7
370
    18
100
AcDbLine
 10
727.1717685984
 20
2312.709302426
 30
0.0
 11
727.1717685984
 21
2373.709302426
 31
0.0
  0
LINE
  5
A4
330
1F
100
AcDbEntity
  8
0
  6
HIDDEN
 62
     7
370
    18
100
AcDbLine
 10
670.1717685984
 20
2312.709302426
 30
0.0
 11
727.1717685984
 21
2312.709302426
 31
0.0
  0
LINE
  5
A5
330
1F
100
AcDbEntity
  8
0
  6
HIDDEN
 62
     7
370
    18
100
AcDbLine
 10
340.1717685984
 20
1976.709302426
 30
0.0
 11
340.1717685984
 21
1982.709302426
 31
0.0
  0
ARC
  5
A6
330
1F
100
AcDbEntity
  8
0
  6
HIDDEN
 62
     7
370
    18
100
AcDbCircle
 10
738.1717685984
 20
1976.709302426
 30
0.0
 40
398.0
100
AcDbArc
 50
180.0
 51
270.0
  0
LINE
  5
A7
330
1F
100
AcDbEntity
  8
0
  6
HIDDEN
 62
     7
370
    18
100
AcDbLine
 10
1239.1717685984
 20
2373.709302426
 30
0.0
 11
1208.4929851899
 21
2010.9355268459
 31
0.0
  0
ARC
  5
A8
330
1F
100
AcDbEntity
  8
0
  6
HIDDEN
 62
     7
370
    18
100
AcDbCircle
 10
738.1717685984
 20
2050.709302426
 30
0.0
 40
472.0000000000002
100
AcDbArc
 50
270.0
 51
355.1661544254
  0
CIRCLE
  5
A9
330
1F
100
AcDbEntity
  8
0
  6
HIDDEN
 62
     7
370
    18
100
AcDbCircle
 10
701.1717685984
 20
2013.709302426
 30
0.0
 40
250.0
  0
CIRCLE
  5
AA
330
1F
100
AcDbEntity
  8
0
  6
HIDDEN
 62
     7
370
    18
100
AcDbCircle
 10
701.1717685984
 20
2013.709302426
 30
0.0
 40
280.0
  0
CIRCLE
  5
AB
330
1F
100
AcDbEntity
  8
0
  6
HIDDEN
 62
     7
370
    18
100
AcDbCircle
 10
701.1717685984
 20
2013.709302426
 30
0.0
 40
252.3000000000002
  0
CIRCLE
  5
AC
330
1F
100
AcDbEntity
  8
0
  6
HIDDEN
 62
     7
370
    18
100
AcDbCircle
 10
890.3228325658
 20
2202.8603663934
 30
0.0
 40
3.999999999999545
  0
CIRCLE
  5
AD
330
1F
100
AcDbEntity
  8
0
  6
HIDDEN
 62
     7
370
    18
100
AcDbCircle
 10
770.4058631633
 20
2272.0944609583
 30
0.0
 40
4.0
  0
CIRCLE
  5
AE
330
1F
100
AcDbEntity
  8
0
  6
HIDDEN
 62
     7
370
    18
100
AcDbCircle
 10
631.9376740335
 20
2272.0944609583
 30
0.0
 40
4.0
  0
CIRCLE
  5
AF
330
1F
100
AcDbEntity
  8
0
  6
HIDDEN
 62
     7
370
    18
100
AcDbCircle
 10
512.020704631
 20
2202.8603663934
 30
0.0
 40
3.999999999999545
  0
CIRCLE
  5
B0
330
1F
100
AcDbEntity
  8
0
  6
HIDDEN
 62
     7
370
    18
100
AcDbCircle
 10
442.7866100661
 20
2082.9433969909
 30
0.0
 40
4.0
  0
CIRCLE
  5
B1
330
1F
100
AcDbEntity
  8
0
  6
HIDDEN
 62
     7
370
    18
100
AcDbCircle
 10
442.7866100661
 20
1944.475207861
 30
0.0
 40
4.0
  0
CIRCLE
  5
B2
330
1F
100
AcDbEntity
  8
0
  6
HIDDEN
 62
     7
370
    18
100
AcDbCircle
 10
512.020704631
 20
1824.5582384586
 30
0.0
 40
4.0
  0
CIRCLE
  5
B3
330
1F
100
AcDbEntity
  8
0
  6
HIDDEN
 62
     7
370
    18
100
AcDbCircle
 10
631.9376740335
 20
1755.3241438936
 30
0.0
 40
4.0
  0
CIRCLE
  5
B4
330
1F
100
AcDbEntity
  8
0
  6
HIDDEN
 62
     7
370
    18
100
AcDbCircle
 10
770.4058631633
 20
1755.3241438936
 30
0.0
 40
4.0
  0
CIRCLE
  5
B5
330
1F
100
AcDbEntity
  8
0
  6
HIDDEN
 62
     7
370
    18
100
AcDbCircle
 10
890.3228325658
 20
1824.5582384586
 30
0.0
 40
4.0
  0
CIRCLE
  5
B6
330
1F
100
AcDbEntity
  8
0
  6
HIDDEN
 62
     7
370
    18
100
AcDbCircle
 10
959.5569271307
 20
1944.475207861
 30
0.0
 40
4.0
  0
CIRCLE
  5
B7
330
1F
100
AcDbEntity
  8
0
  6
HIDDEN
 62
     7
370
    18
100
AcDbCircle
 10
959.5569271307
 20
2082.9433969909
 30
0.0
 40
4.0
  0
LINE
  5
B8
330
1F
100
AcDbEntity
  8
0
  6
HIDDEN
 62
     7
370
    18
100
AcDbLine
 10
1522.1717685984
 20
1513.709302426
 30
0.0
 11
1522.1717685984
 21
1518.709302426
 31
0.0
  0
LINE
  5
B9
330
1F
100
AcDbEntity
  8
0
  6
HIDDEN
 62
     7
370
    18
100
AcDbLine
 10
1510.1717685984
 20
1518.709302426
 30
0.0
 11
1510.1717685984
 21
1513.709302426
 31
0.0
  0
LINE
  5
BA
330
1F
100
AcDbEntity
  8
0
  6
HIDDEN
 62
     7
370
    18
100
AcDbLine
 10
442.1717685984
 20
1513.709302426
 30
0.0
 11
442.1717685984
 21
1518.709302426
 31
0.0
  0
LINE
  5
BB
330
1F
100
AcDbEntity
  8
0
  6
HIDDEN
 62
     7
370
    18
100
AcDbLine
 10
430.1717685984
 20
1518.709302426
 30
0.0
 11
430.1717685984
 21
1513.709302426
 31
0.0
  0
LINE
  5
BC
330
1F
100
AcDbEntity
  8
0
  6
HIDDEN
 62
     7
370
    18
100
AcDbLine
 10
982.1717685984
 20
1513.709302426
 30
0.0
 11
982.1717685984
 21
1518.709302426
 31
0.0
  0
LINE
  5
BD
330
1F
100
AcDbEntity
  8
0
  6
HIDDEN
 62
     7
370
    18
100
AcDbLine
 10
970.1717685984
 20
1518.709302426
 30
0.0
 11
970.1717685984
 21
1513.709302426
 31
0.0
  0
LINE
  5
BE
330
1F
100
AcDbEntity
  8
0
  6
HIDDEN
 62
     7
370
    18
100
AcDbLine
 10
704.1717685984
 20
2373.709302426
 30
0.0
 11
704.1717685984
 21
2370.709302426
 31
0.0
  0
LINE
  5
BF
330
1F
100
AcDbEntity
  8
0
  6
HIDDEN
 62
     7
370
    18
100
AcDbLine
 10
712.1717685984
 20
2370.709302426
 30
0.0
 11
712.1717685984
 21
2373.709302426
 31
0.0
  0
LINE
  5
C0
330
1F
100
AcDbEntity
  8
0
  6
HIDDEN
 62
     7
370
    18
100
AcDbLine
 10
829.1717685984
 20
2373.709302426
 30
0.0
 11
829.1717685984
 21
2370.709302426
 31
0.0
  0
LINE
  5
C1
330
1F
100
AcDbEntity
  8
0
  6
HIDDEN
 62
     7
370
    18
100
AcDbLine
 10
837.1717685984
 20
2370.709302426
 30
0.0
 11
837.1717685984
 21
2373.709302426
 31
0.0
  0
LINE
  5
C2
330
1F
100
AcDbEntity
  8
0
  6
HIDDEN
 62
     7
370
    18
100
AcDbLine
 10
979.1717685984
 20
2373.709302426
 30
0.0
 11
979.1717685984
 21
2370.709302426
 31
0.0
  0
LINE
  5
C3
330
1F
100
AcDbEntity
  8
0
  6
HIDDEN
 62
     7
370
    18
100
AcDbLine
 10
987.1717685984
 20
2370.709302426
 30
0.0
 11
987.1717685984
 21
2373.709302426
 31
0.0
  0
LINE
  5
C4
330
1F
100
AcDbEntity
  8
0
  6
HIDDEN
 62
     7
370
    18
100
AcDbLine
 10
1129.1717685984
 20
2373.709302426
 30
0.0
 11
1129.1717685984
 21
2370.709302426
 31
0.0
  0
LINE
  5
C5
330
1F
100
AcDbEntity
  8
0
  6
HIDDEN
 62
     7
370
    18
100
AcDbLine
 10
1137.1717685984
 20
2370.709302426
 30
0.0
 11
1137.1717685984
 21
2373.709302426
 31
0.0
  0
LINE
  5
C6
330
1F
100
AcDbEntity
  8
0
  6
HIDDEN
 62
     7
370
    18
100
AcDbLine
 10
1254.1717685984
 20
2373.709302426
 30
0.0
 11
1254.1717685984
 21
2370.709302426
 31
0.0
  0
LINE
  5
C7
330
1F
100
AcDbEntity
  8
0
  6
HIDDEN
 62
     7
370
    18
100
AcDbLine
 10
1262.1717685984
 20
2370.709302426
 30
0.0
 11
1262.1717685984
 21
2373.709302426
 31
0.0
  0
INSERT
  5
D3
330
1F
100
AcDbEntity
  8
2
100
AcDbBlockReference
  2
SW_CENTERMARKSYMBOL_0
 10
701.1717685984
 20
2013.709302426
 30
0.0
  0
LINE
  5
D4
330
1F
100
AcDbEntity
  8
1
100
AcDbLine
 10
2606.5048320729
 20
1908.209302426
 30
0.0
 11
2237.0048320729
 21
1908.209302426
 31
0.0
  0
LINE
  5
D5
330
1F
100
AcDbEntity
  8
1
100
AcDbLine
 10
2199.5048320729
 20
1746.709302426
 30
0.0
 11
2237.0048320729
 21
1746.709302426
 31
0.0
  0
LINE
  5
D6
330
1F
100
AcDbEntity
  8
1
100
AcDbLine
 10
2237.0048320729
 20
1784.709302426
 30
0.0
 11
2199.5048320729
 21
1784.709302426
 31
0.0
  0
LINE
  5
D7
330
1F
100
AcDbEntity
  8
1
100
AcDbLine
 10
2770.5048320729
 20
2293.709302426
 30
0.0
 11
2768.2048320729
 21
2293.709302426
 31
0.0
  0
LINE
  5
D8
330
1F
100
AcDbEntity
  8
1
100
AcDbLine
 10
2768.2048320729
 20
1733.709302426
 30
0.0
 11
2770.5048320729
 21
1733.709302426
 31
0.0
  0
LINE
  5
D9
330
1F
100
AcDbEntity
  8
1
100
AcDbLine
 10
2709.3048320729
 20
1733.709302426
 30
0.0
 11
2711.5048320729
 21
1733.709302426
 31
0.0
  0
LINE
  5
DA
330
1F
100
AcDbEntity
  8
1
100
AcDbLine
 10
2711.5048320729
 20
2293.709302426
 30
0.0
 11
2709.3048320729
 21
2293.709302426
 31
0.0
  0
LINE
  5
DB
330
1F
100
AcDbEntity
  8
1
100
AcDbLine
 10
2768.2048320729
 20
2266.009302426
 30
0.0
 11
2711.5048320729
 21
2266.009302426
 31
0.0
  0
LINE
  5
DC
330
1F
100
AcDbEntity
  8
1
100
AcDbLine
 10
2711.5048320729
 20
1761.409302426
 30
0.0
 11
2768.2048320729
 21
1761.409302426
 31
0.0
  0
LINE
  5
DD
330
1F
100
AcDbEntity
  8
1
100
AcDbLine
 10
2256.0048320729
 20
1588.709302426
 30
0.0
 11
2256.0048320729
 21
1633.709302426
 31
0.0
  0
LINE
  5
DE
330
1F
100
AcDbEntity
  8
1
100
AcDbLine
 10
2536.0048320729
 20
1633.709302426
 30
0.0
 11
2256.0048320729
 21
1633.709302426
 31
0.0
  0
LINE
  5
DF
330
1F
100
AcDbEntity
  8
1
100
AcDbLine
 10
2536.0048320729
 20
1588.709302426
 30
0.0
 11
2536.0048320729
 21
1633.709302426
 31
0.0
  0
LINE
  5
E0
330
1F
100
AcDbEntity
  8
1
100
AcDbLine
 10
2606.5048320729
 20
1640.309302426
 30
0.0
 11
2526.0048320729
 21
1640.309302426
 31
0.0
  0
LINE
  5
E1
330
1F
100
AcDbEntity
  8
1
100
AcDbLine
 10
2266.0048320729
 20
1640.309302426
 30
0.0
 11
2237.0048320729
 21
1640.309302426
 31
0.0
  0
LINE
  5
E2
330
1F
100
AcDbEntity
  8
1
100
AcDbLine
 10
2237.0048320729
 20
1908.209302426
 30
0.0
 11
2237.0048320729
 21
1640.309302426
 31
0.0
  0
LINE
  5
E3
330
1F
100
AcDbEntity
  8
1
100
AcDbLine
 10
2606.5048320729
 20
1640.309302426
 30
0.0
 11
2606.5048320729
 21
1908.209302426
 31
0.0
  0
LINE
  5
E4
330
1F
100
AcDbEntity
  8
1
100
AcDbLine
 10
2266.0048320729
 20
1633.709302426
 30
0.0
 11
2266.0048320729
 21
1646.909302426
 31
0.0
  0
LINE
  5
E5
330
1F
100
AcDbEntity
  8
1
100
AcDbLine
 10
2266.0048320729
 20
1646.909302426
 30
0.0
 11
2526.0048320729
 21
1646.909302426
 31
0.0
  0
LINE
  5
E6
330
1F
100
AcDbEntity
  8
1
100
AcDbLine
 10
2526.0048320729
 20
1633.709302426
 30
0.0
 11
2526.0048320729
 21
1646.909302426
 31
0.0
  0
LINE
  5
E7
330
1F
100
AcDbEntity
  8
1
100
AcDbLine
 10
2199.5048320729
 20
2203.209302426
 30
0.0
 11
2039.5048320729
 21
2203.209302426
 31
0.0
  0
LINE
  5
E8
330
1F
100
AcDbEntity
  8
1
100
AcDbLine
 10
2199.5048320729
 20
2203.209302426
 30
0.0
 11
2199.5048320729
 21
1923.209302426
 31
0.0
  0
LINE
  5
E9
330
1F
100
AcDbEntity
  8
1
100
AcDbLine
 10
2199.5048320729
 20
1923.209302426
 30
0.0
 11
2039.5048320729
 21
1923.209302426
 31
0.0
  0
LINE
  5
EA
330
1F
100
AcDbEntity
  8
1
100
AcDbLine
 10
2039.5048320729
 20
2203.209302426
 30
0.0
 11
2039.5048320729
 21
1923.209302426
 31
0.0
  0
LINE
  5
EB
330
1F
100
AcDbEntity
  8
1
100
AcDbLine
 10
2039.5048320729
 20
1923.209302426
 30
0.0
 11
2039.5048320729
 21
1593.209302426
 31
0.0
  0
LINE
  5
EC
330
1F
100
AcDbEntity
  8
1
100
AcDbLine
 10
2199.5048320729
 20
1923.209302426
 30
0.0
 11
2199.5048320729
 21
1593.209302426
 31
0.0
  0
LINE
  5
ED
330
1F
100
AcDbEntity
  8
1
100
AcDbLine
 10
2089.5048320729
 20
1593.209302426
 30
0.0
 11
2039.5048320729
 21
1593.209302426
 31
0.0
  0
LINE
  5
EE
330
1F
100
AcDbEntity
  8
1
100
AcDbLine
 10
2089.5048320729
 20
1593.209302426
 30
0.0
 11
2089.5048320729
 21
1588.709302426
 31
0.0
  0
LINE
  5
EF
330
1F
100
AcDbEntity
  8
1
100
AcDbLine
 10
2219.5048320729
 20
1593.209302426
 30
0.0
 11
2089.5048320729
 21
1593.209302426
 31
0.0
  0
LINE
  5
F0
330
1F
100
AcDbEntity
  8
1
100
AcDbLine
 10
2219.5048320729
 20
1593.209302426
 30
0.0
 11
2219.5048320729
 21
1588.709302426
 31
0.0
  0
LINE
  5
F1
330
1F
100
AcDbEntity
  8
1
100
AcDbLine
 10
2219.5048320729
 20
1588.709302426
 30
0.0
 11
2089.5048320729
 21
1588.709302426
 31
0.0
  0
LINE
  5
F2
330
1F
100
AcDbEntity
  8
1
100
AcDbLine
 10
2749.5048320729
 20
1513.709302426
 30
0.0
 11
2189.5048320729
 21
1513.709302426
 31
0.0
  0
LINE
  5
F3
330
1F
100
AcDbEntity
  8
1
100
AcDbLine
 10
2189.5048320729
 20
1518.709302426
 30
0.0
 11
2189.5048320729
 21
1513.709302426
 31
0.0
  0
LINE
  5
F4
330
1F
100
AcDbEntity
  8
1
100
AcDbLine
 10
2749.5048320729
 20
1518.709302426
 30
0.0
 11
2189.5048320729
 21
1518.709302426
 31
0.0
  0
LINE
  5
F5
330
1F
100
AcDbEntity
  8
1
100
AcDbLine
 10
2749.5048320729
 20
1518.709302426
 30
0.0
 11
2749.5048320729
 21
1513.709302426
 31
0.0
  0
LINE
  5
F6
330
1F
100
AcDbEntity
  8
1
100
AcDbLine
 10
2749.5048320729
 20
1583.709302426
 30
0.0
 11
2189.5048320729
 21
1583.709302426
 31
0.0
  0
LINE
  5
F7
330
1F
100
AcDbEntity
  8
1
100
AcDbLine
 10
2189.5048320729
 20
1588.709302426
 30
0.0
 11
2189.5048320729
 21
1583.709302426
 31
0.0
  0
LINE
  5
F8
330
1F
100
AcDbEntity
  8
1
100
AcDbLine
 10
2749.5048320729
 20
1588.709302426
 30
0.0
 11
2749.5048320729
 21
1583.709302426
 31
0.0
  0
LINE
  5
F9
330
1F
100
AcDbEntity
  8
1
100
AcDbLine
 10
2749.5048320729
 20
1588.709302426
 30
0.0
 11
2219.5048320729
 21
1588.709302426
 31
0.0
  0
LINE
  5
FA
330
1F
100
AcDbEntity
  8
1
100
AcDbLine
 10
2224.5048320729
 20
1583.709302426
 30
0.0
 11
2224.5048320729
 21
1518.709302426
 31
0.0
  0
LINE
  5
FB
330
1F
100
AcDbEntity
  8
1
100
AcDbLine
 10
2714.5048320729
 20
1583.709302426
 30
0.0
 11
2714.5048320729
 21
1518.709302426
 31
0.0
  0
LINE
  5
FC
330
1F
100
AcDbEntity
  8
1
100
AcDbLine
 10
2739.5048320729
 20
2370.709302426
 30
0.0
 11
2739.5048320729
 21
2373.709302426
 31
0.0
  0
LINE
  5
FD
330
1F
100
AcDbEntity
  8
1
100
AcDbLine
 10
2739.5048320729
 20
2370.709302426
 30
0.0
 11
2299.5048320729
 21
2370.709302426
 31
0.0
  0
LINE
  5
FE
330
1F
100
AcDbEntity
  8
1
100
AcDbLine
 10
2299.5048320729
 20
2370.709302426
 30
0.0
 11
2299.5048320729
 21
2373.709302426
 31
0.0
  0
LINE
  5
FF
330
1F
100
AcDbEntity
  8
1
100
AcDbLine
 10
2739.5048320729
 20
2373.709302426
 30
0.0
 11
2299.5048320729
 21
2373.709302426
 31
0.0
  0
LINE
  5
100
330
1F
100
AcDbEntity
  8
1
100
AcDbLine
 10
2709.3048320729
 20
2370.709302426
 30
0.0
 11
2709.3048320729
 21
2010.8344070775
 31
0.0
  0
LINE
  5
101
330
1F
100
AcDbEntity
  8
1
100
AcDbLine
 10
2329.7048320729
 20
2370.709302426
 30
0.0
 11
2329.7048320729
 21
2010.8344070775
 31
0.0
  0
LINE
  5
102
330
1F
100
AcDbEntity
  8
1
100
AcDbLine
 10
2329.7048320729
 20
2010.8344070775
 30
0.0
 11
2329.7048320729
 21
1908.209302426
 31
0.0
  0
LINE
  5
103
330
1F
100
AcDbEntity
  8
1
100
AcDbLine
 10
2709.3048320729
 20
2010.8344070775
 30
0.0
 11
2709.3048320729
 21
1588.709302426
 31
0.0
  0
LINE
  5
104
330
1F
100
AcDbEntity
  8
1
100
AcDbLine
 10
2770.5048320729
 20
1733.709302426
 30
0.0
 11
2770.5048320729
 21
2293.709302426
 31
0.0
  0
LINE
  5
105
330
1F
100
AcDbEntity
  8
1
100
AcDbLine
 10
2768.2048320729
 20
1733.709302426
 30
0.0
 11
2768.2048320729
 21
2293.709302426
 31
0.0
  0
LINE
  5
106
330
1F
100
AcDbEntity
  8
1
100
AcDbLine
 10
2711.5048320729
 20
2293.709302426
 30
0.0
 11
2711.5048320729
 21
1733.709302426
 31
0.0
  0
LINE
  5
107
330
1F
100
AcDbEntity
  8
0
  6
HIDDEN
 62
     7
370
    18
100
AcDbLine
 10
2082.0048320729
 20
1801.2065414956
 30
0.0
 11
2082.0048320729
 21
1690.709302426
 31
0.0
  0
LINE
  5
108
330
1F
100
AcDbEntity
  8
0
  6
HIDDEN
 62
     7
370
    18
100
AcDbLine
 10
2082.0048320729
 20
1840.709302426
 30
0.0
 11
2082.0048320729
 21
1801.2065414956
 31
0.0
  0
LINE
  5
109
330
1F
100
AcDbEntity
  8
0
  6
HIDDEN
 62
     7
370
    18
100
AcDbLine
 10
2157.0048320729
 20
1801.2065414956
 30
0.0
 11
2157.0048320729
 21
1690.709302426
 31
0.0
  0
LINE
  5
10A
330
1F
100
AcDbEntity
  8
0
  6
HIDDEN
 62
     7
370
    18
100
AcDbLine
 10
2157.0048320729
 20
1840.709302426
 30
0.0
 11
2157.0048320729
 21
1801.2065414956
 31
0.0
  0
LINE
  5
10B
330
1F
100
AcDbEntity
  8
0
  6
HIDDEN
 62
     7
370
    18
100
AcDbLine
 10
2157.0048320729
 20
1946.6677242192
 30
0.0
 11
2157.0048320729
 21
2088.709302426
 31
0.0
  0
LINE
  5
10C
330
1F
100
AcDbEntity
  8
0
  6
HIDDEN
 62
     7
370
    18
100
AcDbLine
 10
2157.0048320729
 20
1938.709302426
 30
0.0
 11
2157.0048320729
 21
1946.6677242192
 31
0.0
  0
LINE
  5
10D
330
1F
100
AcDbEntity
  8
0
  6
HIDDEN
 62
     7
370
    18
100
AcDbLine
 10
2082.0048320729
 20
1946.6677242192
 30
0.0
 11
2082.0048320729
 21
2088.709302426
 31
0.0
  0
LINE
  5
10E
330
1F
100
AcDbEntity
  8
0
  6
HIDDEN
 62
     7
370
    18
100
AcDbLine
 10
2082.0048320729
 20
1938.709302426
 30
0.0
 11
2082.0048320729
 21
1946.6677242192
 31
0.0
  0
LINE
  5
10F
330
1F
100
AcDbEntity
  8
0
  6
HIDDEN
 62
     7
370
    18
100
AcDbLine
 10
2709.5048320729
 20
1588.709302426
 30
0.0
 11
2709.5048320729
 21
1513.709302426
 31
0.0
  0
LINE
  5
110
330
1F
100
AcDbEntity
  8
0
  6
HIDDEN
 62
     7
370
    18
100
AcDbLine
 10
2229.5048320729
 20
1588.709302426
 30
0.0
 11
2229.5048320729
 21
1513.709302426
 31
0.0
  0
LINE
  5
111
330
1F
100
AcDbEntity
  8
0
  6
HIDDEN
 62
     7
370
    18
100
AcDbLine
 10
2707.0048320729
 20
2373.709302426
 30
0.0
 11
2707.0048320729
 21
2010.9355268459
 31
0.0
  0
LINE
  5
112
330
1F
100
AcDbEntity
  8
0
  6
HIDDEN
 62
     7
370
    18
100
AcDbLine
 10
2332.0048320729
 20
2373.709302426
 30
0.0
 11
2332.0048320729
 21
2010.9355268459
 31
0.0
  0
LINE
  5
113
330
1F
100
AcDbEntity
  8
0
  6
HIDDEN
 62
     7
370
    18
100
AcDbLine
 10
2329.7048320729
 20
1577.509302426
 30
0.0
 11
2709.3048320729
 21
1577.509302426
 31
0.0
  0
LINE
  5
114
330
1F
100
AcDbEntity
  8
0
  6
HIDDEN
 62
     7
370
    18
100
AcDbLine
 10
2329.7048320729
 20
1908.209302426
 30
0.0
 11
2329.7048320729
 21
1577.509302426
 31
0.0
  0
LINE
  5
115
330
1F
100
AcDbEntity
  8
0
  6
HIDDEN
 62
     7
370
    18
100
AcDbLine
 10
2709.3048320729
 20
1588.709302426
 30
0.0
 11
2709.3048320729
 21
1577.509302426
 31
0.0
  0
LINE
  5
116
330
1F
100
AcDbEntity
  8
0
  6
HIDDEN
 62
     7
370
    18
100
AcDbLine
 10
2332.0048320729
 20
1578.709302426
 30
0.0
 11
2707.0048320729
 21
1578.709302426
 31
0.0
  0
LINE
  5
117
330
1F
100
AcDbEntity
  8
0
  6
HIDDEN
 62
     7
370
    18
100
AcDbLine
 10
2332.0048320729
 20
2010.9355268459
 30
0.0
 11
2332.0048320729
 21
1578.709302426
 31
0.0
  0
LINE
  5
118
330
1F
100
AcDbEntity
  8
0
  6
HIDDEN
 62
     7
370
    18
100
AcDbLine
 10
2707.0048320729
 20
2010.9355268459
 30
0.0
 11
2707.0048320729
 21
1578.709302426
 31
0.0
  0
LINE
  5
119
330
1F
100
AcDbEntity
  8
0
  6
HIDDEN
 62
     7
370
    18
100
AcDbLine
 10
2332.0048320729
 20
2312.709302426
 30
0.0
 11
2707.0048320729
 21
2312.709302426
 31
0.0
  0
LINE
  5
11A
330
1F
100
AcDbEntity
  8
0
  6
HIDDEN
 62
     7
370
    18
100
AcDbLine
 10
2329.7048320729
 20
2313.909302426
 30
0.0
 11
2709.3048320729
 21
2313.909302426
 31
0.0
  0
LINE
  5
11B
330
1F
100
AcDbEntity
  8
0
  6
HIDDEN
 62
     7
370
    18
100
AcDbLine
 10
2157.0048320729
 20
1746.709302426
 30
0.0
 11
2199.5048320729
 21
1746.709302426
 31
0.0
  0
LINE
  5
11C
330
1F
100
AcDbEntity
  8
0
  6
HIDDEN
 62
     7
370
    18
100
AcDbLine
 10
2199.5048320729
 20
1784.709302426
 30
0.0
 11
2157.0048320729
 21
1784.709302426
 31
0.0
  0
LINE
  5
11D
330
1F
100
AcDbEntity
  8
0
  6
HIDDEN
 62
     7
370
    18
100
AcDbLine
 10
2082.0048320729
 20
1690.709302426
 30
0.0
 11
2157.0048320729
 21
1690.709302426
 31
0.0
  0
LINE
  5
11E
330
1F
100
AcDbEntity
  8
0
  6
HIDDEN
 62
     7
370
    18
100
AcDbLine
 10
2157.0048320729
 20
1840.709302426
 30
0.0
 11
2082.0048320729
 21
1840.709302426
 31
0.0
  0
LINE
  5
11F
330
1F
100
AcDbEntity
  8
0
  6
HIDDEN
 62
     7
370
    18
100
AcDbLine
 10
2157.0048320729
 20
2088.709302426
 30
0.0
 11
2082.0048320729
 21
2088.709302426
 31
0.0
  0
LINE
  5
120
330
1F
100
AcDbEntity
  8
0
  6
HIDDEN
 62
     7
370
    18
100
AcDbLine
 10
2082.0048320729
 20
1938.709302426
 30
0.0
 11
2157.0048320729
 21
1938.709302426
 31
0.0
  0
LINE
  5
121
330
1F
100
AcDbEntity
  8
0
  6
HIDDEN
 62
     7
370
    18
100
AcDbLine
 10
2737.5048320729
 20
1513.709302426
 30
0.0
 11
2737.5048320729
 21
1518.709302426
 31
0.0
  0
LINE
  5
122
330
1F
100
AcDbEntity
  8
0
  6
HIDDEN
 62
     7
370
    18
100
AcDbLine
 10
2725.5048320729
 20
1518.709302426
 30
0.0
 11
2725.5048320729
 21
1513.709302426
 31
0.0
  0
LINE
  5
123
330
1F
100
AcDbEntity
  8
0
  6
HIDDEN
 62
     7
370
    18
100
AcDbLine
 10
2213.5048320729
 20
1513.709302426
 30
0.0
 11
2213.5048320729
 21
1518.709302426
 31
0.0
  0
LINE
  5
124
330
1F
100
AcDbEntity
  8
0
  6
HIDDEN
 62
     7
370
    18
100
AcDbLine
 10
2201.5048320729
 20
1518.709302426
 30
0.0
 11
2201.5048320729
 21
1513.709302426
 31
0.0
  0
LINE
  5
125
330
1F
100
AcDbEntity
  8
0
  6
HIDDEN
 62
     7
370
    18
100
AcDbLine
 10
2722.5048320729
 20
2373.709302426
 30
0.0
 11
2722.5048320729
 21
2370.709302426
 31
0.0
  0
LINE
  5
126
330
1F
100
AcDbEntity
  8
0
  6
HIDDEN
 62
     7
370
    18
100
AcDbLine
 10
2730.5048320729
 20
2370.709302426
 30
0.0
 11
2730.5048320729
 21
2373.709302426
 31
0.0
  0
LINE
  5
127
330
1F
100
AcDbEntity
  8
0
  6
HIDDEN
 62
     7
370
    18
100
AcDbLine
 10
2590.5048320729
 20
2373.709302426
 30
0.0
 11
2590.5048320729
 21
2370.709302426
 31
0.0
  0
LINE
  5
128
330
1F
100
AcDbEntity
  8
0
  6
HIDDEN
 62
     7
370
    18
100
AcDbLine
 10
2598.5048320729
 20
2370.709302426
 30
0.0
 11
2598.5048320729
 21
2373.709302426
 31
0.0
  0
LINE
  5
129
330
1F
100
AcDbEntity
  8
0
  6
HIDDEN
 62
     7
370
    18
100
AcDbLine
 10
2440.5048320729
 20
2373.709302426
 30
0.0
 11
2440.5048320729
 21
2370.709302426
 31
0.0
  0
LINE
  5
12A
330
1F
100
AcDbEntity
  8
0
  6
HIDDEN
 62
     7
370
    18
100
AcDbLine
 10
2448.5048320729
 20
2370.709302426
 30
0.0
 11
2448.5048320729
 21
2373.709302426
 31
0.0
  0
LINE
  5
12B
330
1F
100
AcDbEntity
  8
0
  6
HIDDEN
 62
     7
370
    18
100
AcDbLine
 10
2308.5048320729
 20
2373.709302426
 30
0.0
 11
2308.5048320729
 21
2370.709302426
 31
0.0
  0
LINE
  5
12C
330
1F
100
AcDbEntity
  8
0
  6
HIDDEN
 62
     7
370
    18
100
AcDbLine
 10
2316.5048320729
 20
2370.709302426
 30
0.0
 11
2316.5048320729
 21
2373.709302426
 31
0.0
  0
LINE
  5
12D
330
1F
100
AcDbEntity
  8
0
  6
HIDDEN
 62
     7
370
    18
100
AcDbLine
 10
2770.5048320729
 20
1948.475207861
 30
0.0
 11
2768.2048320729
 21
1948.475207861
 31
0.0
  0
LINE
  5
12E
330
1F
100
AcDbEntity
  8
0
  6
HIDDEN
 62
     7
370
    18
100
AcDbLine
 10
2768.2048320729
 20
1940.475207861
 30
0.0
 11
2770.5048320729
 21
1940.475207861
 31
0.0
  0
LINE
  5
12F
330
1F
100
AcDbEntity
  8
0
  6
HIDDEN
 62
     7
370
    18
100
AcDbLine
 10
2770.5048320729
 20
2086.9433969909
 30
0.0
 11
2768.2048320729
 21
2086.9433969909
 31
0.0
  0
LINE
  5
130
330
1F
100
AcDbEntity
  8
0
  6
HIDDEN
 62
     7
370
    18
100
AcDbLine
 10
2768.2048320729
 20
2078.9433969909
 30
0.0
 11
2770.5048320729
 21
2078.9433969909
 31
0.0
  0
LINE
  5
131
330
1F
100
AcDbEntity
  8
0
  6
HIDDEN
 62
     7
370
    18
100
AcDbLine
 10
2707.0048320729
 20
1763.709302426
 30
0.0
 11
2770.5048320729
 21
1763.709302426
 31
0.0
  0
LINE
  5
132
330
1F
100
AcDbEntity
  8
0
  6
HIDDEN
 62
     7
370
    18
100
AcDbLine
 10
2770.5048320729
 20
2263.709302426
 30
0.0
 11
2707.0048320729
 21
2263.709302426
 31
0.0
  0
LINE
  5
133
330
1F
100
AcDbEntity
  8
0
  6
HIDDEN
 62
     7
370
    18
100
AcDbLine
 10
2770.5048320729
 20
1828.5582384586
 30
0.0
 11
2768.2048320729
 21
1828.5582384586
 31
0.0
  0
LINE
  5
134
330
1F
100
AcDbEntity
  8
0
  6
HIDDEN
 62
     7
370
    18
100
AcDbLine
 10
2768.2048320729
 20
1820.5582384586
 30
0.0
 11
2770.5048320729
 21
1820.5582384586
 31
0.0
  0
LINE
  5
135
330
1F
100
AcDbEntity
  8
0
  6
HIDDEN
 62
     7
370
    18
100
AcDbLine
 10
2770.5048320729
 20
2206.8603663934
 30
0.0
 11
2768.2048320729
 21
2206.8603663934
 31
0.0
  0
LINE
  5
136
330
1F
100
AcDbEntity
  8
0
  6
HIDDEN
 62
     7
370
    18
100
AcDbLine
 10
2768.2048320729
 20
2198.8603663934
 30
0.0
 11
2770.5048320729
 21
2198.8603663934
 31
0.0
  0
LINE
  5
137
330
1F
100
AcDbEntity
  8
0
  6
HIDDEN
 62
     7
370
    18
100
AcDbLine
 10
2770.5048320729
 20
1759.3241438936
 30
0.0
 11
2768.2048320729
 21
1759.3241438936
 31
0.0
  0
LINE
  5
138
330
1F
100
AcDbEntity
  8
0
  6
HIDDEN
 62
     7
370
    18
100
AcDbLine
 10
2768.2048320729
 20
1751.3241438936
 30
0.0
 11
2770.5048320729
 21
1751.3241438936
 31
0.0
  0
LINE
  5
139
330
1F
100
AcDbEntity
  8
0
  6
HIDDEN
 62
     7
370
    18
100
AcDbLine
 10
2770.5048320729
 20
2276.0944609583
 30
0.0
 11
2768.2048320729
 21
2276.0944609583
 31
0.0
  0
LINE
  5
13A
330
1F
100
AcDbEntity
  8
0
  6
HIDDEN
 62
     7
370
    18
100
AcDbLine
 10
2768.2048320729
 20
2268.0944609583
 30
0.0
 11
2770.5048320729
 21
2268.0944609583
 31
0.0
  0
LINE
  5
13B
330
1F
100
AcDbEntity
  8
2
100
AcDbLine
 10
2056.688143931
 20
2013.709302426
 30
0.0
 11
2749.0956195184
 21
2013.709302426
 31
0.0
  0
LINE
  5
13C
330
1F
100
AcDbEntity
  8
2
100
AcDbLine
 10
2519.5048320729
 20
2350.48426521
 30
0.0
 11
2519.5048320729
 21
1535.1988432507
 31
0.0
  0
LINE
  5
13D
330
1F
100
AcDbEntity
  8
1
100
AcDbLine
 10
1513.6717685984
 20
3177.2369448482
 30
0.0
 11
1513.6717685984
 21
3546.7369448482
 31
0.0
  0
LINE
  5
13E
330
1F
100
AcDbEntity
  8
1
100
AcDbLine
 10
1228.6717685984
 20
3239.7369448482
 30
0.0
 11
1228.6717685984
 21
3177.2369448482
 31
0.0
  0
LINE
  5
13F
330
1F
100
AcDbEntity
  8
1
100
AcDbLine
 10
1390.1717685984
 20
3139.7369448482
 30
0.0
 11
1390.1717685984
 21
3177.2369448482
 31
0.0
  0
LINE
  5
140
330
1F
100
AcDbEntity
  8
1
100
AcDbLine
 10
1352.1717685984
 20
3177.2369448482
 30
0.0
 11
1352.1717685984
 21
3139.7369448482
 31
0.0
  0
LINE
  5
141
330
1F
100
AcDbEntity
  8
1
100
AcDbLine
 10
421.1717685984
 20
3710.7369448482
 30
0.0
 11
421.1717685984
 21
3708.4369448482
 31
0.0
  0
LINE
  5
142
330
1F
100
AcDbEntity
  8
1
100
AcDbLine
 10
981.1717685984
 20
3708.4369448482
 30
0.0
 11
981.1717685984
 21
3710.7369448482
 31
0.0
  0
LINE
  5
143
330
1F
100
AcDbEntity
  8
1
100
AcDbLine
 10
421.1717685984
 20
3651.7369448482
 30
0.0
 11
421.1717685984
 21
3649.5369448482
 31
0.0
  0
LINE
  5
144
330
1F
100
AcDbEntity
  8
1
100
AcDbLine
 10
448.8717685984
 20
3708.4369448482
 30
0.0
 11
448.8717685984
 21
3651.7369448482
 31
0.0
  0
LINE
  5
145
330
1F
100
AcDbEntity
  8
1
100
AcDbLine
 10
953.4717685984
 20
3679.7369448482
 30
0.0
 11
953.4717685984
 21
3708.4369448482
 31
0.0
  0
LINE
  5
146
330
1F
100
AcDbEntity
  8
1
100
AcDbLine
 10
1228.6717685984
 20
3177.2369448482
 30
0.0
 11
1513.6717685984
 21
3177.2369448482
 31
0.0
  0
LINE
  5
147
330
1F
100
AcDbEntity
  8
1
100
AcDbLine
 10
1513.6717685984
 20
3546.7369448482
 30
0.0
 11
1271.1717685984
 21
3546.7369448482
 31
0.0
  0
LINE
  5
148
330
1F
100
AcDbEntity
  8
1
100
AcDbLine
 10
1513.6717685984
 20
3476.2369448482
 30
0.0
 11
1546.1717685984
 21
3476.2369448482
 31
0.0
  0
LINE
  5
149
330
1F
100
AcDbEntity
  8
1
100
AcDbLine
 10
1546.1717685984
 20
3476.2369448482
 30
0.0
 11
1546.1717685984
 21
3196.2369448482
 31
0.0
  0
LINE
  5
14A
330
1F
100
AcDbEntity
  8
1
100
AcDbLine
 10
1546.1717685984
 20
3196.2369448482
 30
0.0
 11
1513.6717685984
 21
3196.2369448482
 31
0.0
  0
LINE
  5
14B
330
1F
100
AcDbEntity
  8
1
100
AcDbLine
 10
1228.6717685984
 20
3196.2369448482
 30
0.0
 11
1196.1717685984
 21
3196.2369448482
 31
0.0
  0
LINE
  5
14C
330
1F
100
AcDbEntity
  8
1
100
AcDbLine
 10
1196.1717685984
 20
3196.2369448482
 30
0.0
 11
1196.1717685984
 21
3239.7369448482
 31
0.0
  0
LINE
  5
14D
330
1F
100
AcDbEntity
  8
1
100
AcDbLine
 10
806.1717685984
 20
3139.7369448482
 30
0.0
 11
806.1717685984
 21
2979.7369448482
 31
0.0
  0
LINE
  5
14E
330
1F
100
AcDbEntity
  8
1
100
AcDbLine
 10
1546.1717685984
 20
3139.7369448482
 30
0.0
 11
1546.1717685984
 21
2979.7369448482
 31
0.0
  0
LINE
  5
14F
330
1F
100
AcDbEntity
  8
1
100
AcDbLine
 10
806.1717685984
 20
2979.7369448482
 30
0.0
 11
1546.1717685984
 21
2979.7369448482
 31
0.0
  0
LINE
  5
150
330
1F
100
AcDbEntity
  8
1
100
AcDbLine
 10
806.1717685984
 20
3139.7369448482
 30
0.0
 11
1546.1717685984
 21
3139.7369448482
 31
0.0
  0
LINE
  5
151
330
1F
100
AcDbEntity
  8
1
100
AcDbLine
 10
506.1717685984
 20
2979.7369448482
 30
0.0
 11
806.1717685984
 21
2979.7369448482
 31
0.0
  0
LINE
  5
152
330
1F
100
AcDbEntity
  8
1
100
AcDbLine
 10
506.1717685984
 20
3139.7369448482
 30
0.0
 11
806.1717685984
 21
3139.7369448482
 31
0.0
  0
LINE
  5
153
330
1F
100
AcDbEntity
  8
1
100
AcDbLine
 10
506.1717685984
 20
3139.7369448482
 30
0.0
 11
506.1717685984
 21
2979.7369448482
 31
0.0
  0
LINE
  5
154
330
1F
100
AcDbEntity
  8
1
100
AcDbLine
 10
506.1717685984
 20
3029.7369448482
 30
0.0
 11
436.1717685984
 21
3029.7369448482
 31
0.0
  0
LINE
  5
155
330
1F
100
AcDbEntity
  8
1
100
AcDbLine
 10
536.1717685984
 20
3159.7369448482
 30
0.0
 11
536.1717685984
 21
3139.7369448482
 31
0.0
  0
LINE
  5
156
330
1F
100
AcDbEntity
  8
1
100
AcDbLine
 10
436.1717685984
 20
3159.7369448482
 30
0.0
 11
536.1717685984
 21
3159.7369448482
 31
0.0
  0
LINE
  5
157
330
1F
100
AcDbEntity
  8
1
100
AcDbLine
 10
436.1717685984
 20
3029.7369448482
 30
0.0
 11
436.1717685984
 21
3159.7369448482
 31
0.0
  0
LINE
  5
158
330
1F
100
AcDbEntity
  8
1
100
AcDbLine
 10
1616.1717685984
 20
3029.7369448482
 30
0.0
 11
1546.1717685984
 21
3029.7369448482
 31
0.0
  0
LINE
  5
159
330
1F
100
AcDbEntity
  8
1
100
AcDbLine
 10
1516.1717685984
 20
3139.7369448482
 30
0.0
 11
1516.1717685984
 21
3159.7369448482
 31
0.0
  0
LINE
  5
15A
330
1F
100
AcDbEntity
  8
1
100
AcDbLine
 10
1516.1717685984
 20
3159.7369448482
 30
0.0
 11
1616.1717685984
 21
3159.7369448482
 31
0.0
  0
LINE
  5
15B
330
1F
100
AcDbEntity
  8
1
100
AcDbLine
 10
1616.1717685984
 20
3159.7369448482
 30
0.0
 11
1616.1717685984
 21
3029.7369448482
 31
0.0
  0
LINE
  5
15C
330
1F
100
AcDbEntity
  8
1
100
AcDbLine
 10
436.1717685984
 20
3129.7369448482
 30
0.0
 11
386.1717685984
 21
3129.7369448482
 31
0.0
  0
LINE
  5
15D
330
1F
100
AcDbEntity
  8
1
100
AcDbLine
 10
386.1717685984
 20
3129.7369448482
 30
0.0
 11
386.1717685984
 21
3269.9369448482
 31
0.0
  0
LINE
  5
15E
330
1F
100
AcDbEntity
  8
1
100
AcDbLine
 10
386.1717685984
 20
3649.5369448482
 30
0.0
 11
386.1717685984
 21
3689.7369448482
 31
0.0
  0
LINE
  5
15F
330
1F
100
AcDbEntity
  8
1
100
AcDbLine
 10
386.1717685984
 20
3689.7369448482
 30
0.0
 11
448.8717685984
 21
3689.7369448482
 31
0.0
  0
LINE
  5
160
330
1F
100
AcDbEntity
  8
1
100
AcDbLine
 10
953.4717685984
 20
3689.7369448482
 30
0.0
 11
1566.1717685984
 21
3689.7369448482
 31
0.0
  0
LINE
  5
161
330
1F
100
AcDbEntity
  8
1
100
AcDbLine
 10
1566.1717685984
 20
3689.7369448482
 30
0.0
 11
1566.1717685984
 21
3159.7369448482
 31
0.0
  0
LINE
  5
162
330
1F
100
AcDbEntity
  8
1
100
AcDbLine
 10
1271.1717685984
 20
3649.7369448482
 30
0.0
 11
1526.1717685984
 21
3649.7369448482
 31
0.0
  0
LINE
  5
163
330
1F
100
AcDbEntity
  8
1
100
AcDbLine
 10
426.1717685984
 20
3169.7369448482
 30
0.0
 11
426.1717685984
 21
3269.9369448482
 31
0.0
  0
LINE
  5
164
330
1F
100
AcDbEntity
  8
1
100
AcDbLine
 10
1526.1717685984
 20
3169.7369448482
 30
0.0
 11
1390.1717685984
 21
3169.7369448482
 31
0.0
  0
LINE
  5
165
330
1F
100
AcDbEntity
  8
1
100
AcDbLine
 10
1352.1717685984
 20
3169.7369448482
 30
0.0
 11
426.1717685984
 21
3169.7369448482
 31
0.0
  0
LINE
  5
166
330
1F
100
AcDbEntity
  8
1
100
AcDbLine
 10
1526.1717685984
 20
3649.7369448482
 30
0.0
 11
1526.1717685984
 21
3476.2369448482
 31
0.0
  0
LINE
  5
167
330
1F
100
AcDbEntity
  8
1
100
AcDbLine
 10
1526.1717685984
 20
3196.2369448482
 30
0.0
 11
1526.1717685984
 21
3169.7369448482
 31
0.0
  0
CIRCLE
  5
168
330
1F
100
AcDbEntity
  8
1
100
AcDbCircle
 10
983.1717685984
 20
3252.7369448482
 30
0.0
 40
4.0
  0
CIRCLE
  5
169
330
1F
100
AcDbEntity
  8
1
100
AcDbCircle
 10
1133.1717685984
 20
3252.7369448482
 30
0.0
 40
4.0
  0
CIRCLE
  5
16A
330
1F
100
AcDbEntity
  8
1
100
AcDbCircle
 10
1258.1717685984
 20
3252.7369448482
 30
0.0
 40
4.0
  0
CIRCLE
  5
16B
330
1F
100
AcDbEntity
  8
1
100
AcDbCircle
 10
1258.1717685984
 20
3384.7369448482
 30
0.0
 40
4.0
  0
CIRCLE
  5
16C
330
1F
100
AcDbEntity
  8
1
100
AcDbCircle
 10
1258.1717685984
 20
3534.7369448482
 30
0.0
 40
4.000000000000455
  0
CIRCLE
  5
16D
330
1F
100
AcDbEntity
  8
1
100
AcDbCircle
 10
1258.1717685984
 20
3666.7369448482
 30
0.0
 40
3.999999999999545
  0
CIRCLE
  5
16E
330
1F
100
AcDbEntity
  8
1
100
AcDbCircle
 10
1133.1717685984
 20
3666.7369448482
 30
0.0
 40
4.0
  0
CIRCLE
  5
16F
330
1F
100
AcDbEntity
  8
1
100
AcDbCircle
 10
983.1717685984
 20
3666.7369448482
 30
0.0
 40
4.0
  0
CIRCLE
  5
170
330
1F
100
AcDbEntity
  8
1
100
AcDbCircle
 10
833.1717685984
 20
3666.7369448482
 30
0.0
 40
4.0
  0
CIRCLE
  5
171
330
1F
100
AcDbEntity
  8
1
100
AcDbCircle
 10
708.1717685984
 20
3666.7369448482
 30
0.0
 40
4.0
  0
CIRCLE
  5
172
330
1F
100
AcDbEntity
  8
1
100
AcDbCircle
 10
708.1717685984
 20
3534.7369448482
 30
0.0
 40
4.0
  0
CIRCLE
  5
173
330
1F
100
AcDbEntity
  8
1
100
AcDbCircle
 10
708.1717685984
 20
3384.7369448482
 30
0.0
 40
4.0
  0
CIRCLE
  5
174
330
1F
100
AcDbEntity
  8
1
100
AcDbCircle
 10
708.1717685984
 20
3252.7369448482
 30
0.0
 40
4.0
  0
CIRCLE
  5
175
330
1F
100
AcDbEntity
  8
1
100
AcDbCircle
 10
833.1717685984
 20
3252.7369448482
 30
0.0
 40
3.999999999999545
  0
LINE
  5
176
330
1F
100
AcDbEntity
  8
1
100
AcDbLine
 10
695.1717685984
 20
3679.7369448482
 30
0.0
 11
1271.1717685984
 21
3679.7369448482
 31
0.0
  0
LINE
  5
177
330
1F
100
AcDbEntity
  8
1
100
AcDbLine
 10
1271.1717685984
 20
3679.7369448482
 30
0.0
 11
1271.1717685984
 21
3239.7369448482
 31
0.0
  0
LINE
  5
178
330
1F
100
AcDbEntity
  8
1
100
AcDbLine
 10
1271.1717685984
 20
3239.7369448482
 30
0.0
 11
695.1717685984
 21
3239.7369448482
 31
0.0
  0
LINE
  5
179
330
1F
100
AcDbEntity
  8
1
100
AcDbLine
 10
727.1717685984
 20
3272.2369448482
 30
0.0
 11
727.1717685984
 21
3647.2369448482
 31
0.0
  0
LINE
  5
17A
330
1F
100
AcDbEntity
  8
1
100
AcDbLine
 10
727.1717685984
 20
3272.2369448482
 30
0.0
 11
1239.1717685984
 21
3272.2369448482
 31
0.0
  0
LINE
  5
17B
330
1F
100
AcDbEntity
  8
1
100
AcDbLine
 10
1239.1717685984
 20
3272.2369448482
 30
0.0
 11
1239.1717685984
 21
3647.2369448482
 31
0.0
  0
LINE
  5
17C
330
1F
100
AcDbEntity
  8
1
100
AcDbLine
 10
727.1717685984
 20
3647.2369448482
 30
0.0
 11
1239.1717685984
 21
3647.2369448482
 31
0.0
  0
LINE
  5
17D
330
1F
100
AcDbEntity
  8
1
100
AcDbLine
 10
695.1717685984
 20
3239.7369448482
 30
0.0
 11
695.1717685984
 21
3679.7369448482
 31
0.0
  0
LINE
  5
17E
330
1F
100
AcDbEntity
  8
1
100
AcDbLine
 10
670.1717685984
 20
3269.9369448482
 30
0.0
 11
695.1717685984
 21
3269.9369448482
 31
0.0
  0
LINE
  5
17F
330
1F
100
AcDbEntity
  8
1
100
AcDbLine
 10
670.1717685984
 20
3649.5369448482
 30
0.0
 11
695.1717685984
 21
3649.5369448482
 31
0.0
  0
LINE
  5
180
330
1F
100
AcDbEntity
  8
1
100
AcDbLine
 10
338.9717685984
 20
3269.9369448482
 30
0.0
 11
338.9717685984
 21
3649.5369448482
 31
0.0
  0
LINE
  5
181
330
1F
100
AcDbEntity
  8
1
100
AcDbLine
 10
338.9717685984
 20
3269.9369448482
 30
0.0
 11
670.1717685984
 21
3269.9369448482
 31
0.0
  0
LINE
  5
182
330
1F
100
AcDbEntity
  8
1
100
AcDbLine
 10
338.9717685984
 20
3649.5369448482
 30
0.0
 11
670.1717685984
 21
3649.5369448482
 31
0.0
  0
LINE
  5
183
330
1F
100
AcDbEntity
  8
1
100
AcDbLine
 10
981.1717685984
 20
3710.7369448482
 30
0.0
 11
421.1717685984
 21
3710.7369448482
 31
0.0
  0
LINE
  5
184
330
1F
100
AcDbEntity
  8
1
100
AcDbLine
 10
981.1717685984
 20
3708.4369448482
 30
0.0
 11
421.1717685984
 21
3708.4369448482
 31
0.0
  0
LINE
  5
185
330
1F
100
AcDbEntity
  8
1
100
AcDbLine
 10
421.1717685984
 20
3651.7369448482
 30
0.0
 11
695.1717685984
 21
3651.7369448482
 31
0.0
  0
LINE
  5
186
330
1F
100
AcDbEntity
  8
0
  6
HIDDEN
 62
     7
370
    18
100
AcDbLine
 10
1292.4773596484
 20
3206.2369448482
 30
0.0
 11
1303.4880187023
 21
3206.2369448482
 31
0.0
  0
LINE
  5
187
330
1F
100
AcDbEntity
  8
0
  6
HIDDEN
 62
     7
370
    18
100
AcDbLine
 10
1292.4773596484
 20
3206.2369448482
 30
0.0
 11
1292.4773596484
 21
3466.2369448482
 31
0.0
  0
LINE
  5
188
330
1F
100
AcDbEntity
  8
0
  6
HIDDEN
 62
     7
370
    18
100
AcDbLine
 10
1292.4773596484
 20
3466.2369448482
 30
0.0
 11
1303.4880187023
 21
3466.2369448482
 31
0.0
  0
LINE
  5
189
330
1F
100
AcDbEntity
  8
0
  6
HIDDEN
 62
     7
370
    18
100
AcDbLine
 10
1303.4880187023
 20
3546.7369448482
 30
0.0
 11
1303.4880187023
 21
3466.2369448482
 31
0.0
  0
LINE
  5
18A
330
1F
100
AcDbEntity
  8
0
  6
HIDDEN
 62
     7
370
    18
100
AcDbLine
 10
1438.8555184945
 20
3546.7369448482
 30
0.0
 11
1438.8555184945
 21
3466.2369448482
 31
0.0
  0
LINE
  5
18B
330
1F
100
AcDbEntity
  8
0
  6
HIDDEN
 62
     7
370
    18
100
AcDbLine
 10
1438.8555184945
 20
3466.2369448482
 30
0.0
 11
1449.8661775485
 21
3466.2369448482
 31
0.0
  0
LINE
  5
18C
330
1F
100
AcDbEntity
  8
0
  6
HIDDEN
 62
     7
370
    18
100
AcDbLine
 10
1449.8661775485
 20
3466.2369448482
 30
0.0
 11
1449.8661775485
 21
3206.2369448482
 31
0.0
  0
LINE
  5
18D
330
1F
100
AcDbEntity
  8
0
  6
HIDDEN
 62
     7
370
    18
100
AcDbLine
 10
1438.8555184945
 20
3206.2369448482
 30
0.0
 11
1449.8661775485
 21
3206.2369448482
 31
0.0
  0
LINE
  5
18E
330
1F
100
AcDbEntity
  8
0
  6
HIDDEN
 62
     7
370
    18
100
AcDbLine
 10
1438.8555184945
 20
3206.2369448482
 30
0.0
 11
1438.8555184945
 21
3177.2369448482
 31
0.0
  0
LINE
  5
18F
330
1F
100
AcDbEntity
  8
0
  6
HIDDEN
 62
     7
370
    18
100
AcDbLine
 10
1303.4880187023
 20
3206.2369448482
 30
0.0
 11
1303.4880187023
 21
3177.2369448482
 31
0.0
  0
LINE
  5
190
330
1F
100
AcDbEntity
  8
0
  6
HIDDEN
 62
     7
370
    18
100
AcDbLine
 10
1271.1717685984
 20
3546.7369448482
 30
0.0
 11
1228.6717685984
 21
3546.7369448482
 31
0.0
  0
LINE
  5
191
330
1F
100
AcDbEntity
  8
0
  6
HIDDEN
 62
     7
370
    18
100
AcDbLine
 10
1283.6717685984
 20
3206.2369448482
 30
0.0
 11
1283.6717685984
 21
3466.2369448482
 31
0.0
  0
LINE
  5
192
330
1F
100
AcDbEntity
  8
0
  6
HIDDEN
 62
     7
370
    18
100
AcDbLine
 10
1292.4773596484
 20
3466.2369448482
 30
0.0
 11
1283.6717685984
 21
3466.2369448482
 31
0.0
  0
LINE
  5
193
330
1F
100
AcDbEntity
  8
0
  6
HIDDEN
 62
     7
370
    18
100
AcDbLine
 10
1292.4773596484
 20
3206.2369448482
 30
0.0
 11
1283.6717685984
 21
3206.2369448482
 31
0.0
  0
LINE
  5
194
330
1F
100
AcDbEntity
  8
0
  6
HIDDEN
 62
     7
370
    18
100
AcDbLine
 10
1458.6717685984
 20
3206.2369448482
 30
0.0
 11
1458.6717685984
 21
3466.2369448482
 31
0.0
  0
LINE
  5
195
330
1F
100
AcDbEntity
  8
0
  6
HIDDEN
 62
     7
370
    18
100
AcDbLine
 10
1458.6717685984
 20
3206.2369448482
 30
0.0
 11
1449.8661775485
 21
3206.2369448482
 31
0.0
  0
LINE
  5
196
330
1F
100
AcDbEntity
  8
0
  6
HIDDEN
 62
     7
370
    18
100
AcDbLine
 10
1458.6717685984
 20
3466.2369448482
 30
0.0
 11
1449.8661775485
 21
3466.2369448482
 31
0.0
  0
LINE
  5
197
330
1F
100
AcDbEntity
  8
0
  6
HIDDEN
 62
     7
370
    18
100
AcDbLine
 10
1303.4880187023
 20
3466.2369448482
 30
0.0
 11
1438.8555184945
 21
3466.2369448482
 31
0.0
  0
LINE
  5
198
330
1F
100
AcDbEntity
  8
0
  6
HIDDEN
 62
     7
370
    18
100
AcDbLine
 10
1303.4880187023
 20
3206.2369448482
 30
0.0
 11
1438.8555184945
 21
3206.2369448482
 31
0.0
  0
LINE
  5
199
330
1F
100
AcDbEntity
  8
0
  6
HIDDEN
 62
     7
370
    18
100
AcDbLine
 10
1196.1717685984
 20
3476.2369448482
 30
0.0
 11
1513.6717685984
 21
3476.2369448482
 31
0.0
  0
LINE
  5
19A
330
1F
100
AcDbEntity
  8
0
  6
HIDDEN
 62
     7
370
    18
100
AcDbLine
 10
1513.6717685984
 20
3196.2369448482
 30
0.0
 11
1228.6717685984
 21
3196.2369448482
 31
0.0
  0
LINE
  5
19B
330
1F
100
AcDbEntity
  8
0
  6
HIDDEN
 62
     7
370
    18
100
AcDbLine
 10
1196.1717685984
 20
3239.7369448482
 30
0.0
 11
1196.1717685984
 21
3476.2369448482
 31
0.0
  0
LINE
  5
19C
330
1F
100
AcDbEntity
  8
0
  6
HIDDEN
 62
     7
370
    18
100
AcDbLine
 10
1437.2395067043
 20
3022.2369448482
 30
0.0
 11
1446.1717685984
 21
3022.2369448482
 31
0.0
  0
LINE
  5
19D
330
1F
100
AcDbEntity
  8
0
  6
HIDDEN
 62
     7
370
    18
100
AcDbLine
 10
1296.1717685984
 20
3022.2369448482
 30
0.0
 11
1437.2395067043
 21
3022.2369448482
 31
0.0
  0
LINE
  5
19E
330
1F
100
AcDbEntity
  8
0
  6
HIDDEN
 62
     7
370
    18
100
AcDbLine
 10
1437.2395067043
 20
3097.2369448482
 30
0.0
 11
1446.1717685984
 21
3097.2369448482
 31
0.0
  0
LINE
  5
19F
330
1F
100
AcDbEntity
  8
0
  6
HIDDEN
 62
     7
370
    18
100
AcDbLine
 10
1296.1717685984
 20
3097.2369448482
 30
0.0
 11
1437.2395067043
 21
3097.2369448482
 31
0.0
  0
LINE
  5
1A0
330
1F
100
AcDbEntity
  8
0
  6
HIDDEN
 62
     7
370
    18
100
AcDbLine
 10
776.1717685984
 20
3022.2369448482
 30
0.0
 11
626.1717685984
 21
3022.2369448482
 31
0.0
  0
LINE
  5
1A1
330
1F
100
AcDbEntity
  8
0
  6
HIDDEN
 62
     7
370
    18
100
AcDbLine
 10
776.1717685984
 20
3097.2369448482
 30
0.0
 11
626.1717685984
 21
3097.2369448482
 31
0.0
  0
LINE
  5
1A2
330
1F
100
AcDbEntity
  8
0
  6
HIDDEN
 62
     7
370
    18
100
AcDbLine
 10
536.1717685984
 20
3029.7369448482
 30
0.0
 11
506.1717685984
 21
3029.7369448482
 31
0.0
  0
LINE
  5
1A3
330
1F
100
AcDbEntity
  8
0
  6
HIDDEN
 62
     7
370
    18
100
AcDbLine
 10
536.1717685984
 20
3139.7369448482
 30
0.0
 11
536.1717685984
 21
3029.7369448482
 31
0.0
  0
LINE
  5
1A4
330
1F
100
AcDbEntity
  8
0
  6
HIDDEN
 62
     7
370
    18
100
AcDbLine
 10
1546.1717685984
 20
3029.7369448482
 30
0.0
 11
1516.1717685984
 21
3029.7369448482
 31
0.0
  0
LINE
  5
1A5
330
1F
100
AcDbEntity
  8
0
  6
HIDDEN
 62
     7
370
    18
100
AcDbLine
 10
1516.1717685984
 20
3029.7369448482
 30
0.0
 11
1516.1717685984
 21
3139.7369448482
 31
0.0
  0
LINE
  5
1A6
330
1F
100
AcDbEntity
  8
0
  6
HIDDEN
 62
     7
370
    18
100
AcDbLine
 10
386.1717685984
 20
3269.9369448482
 30
0.0
 11
386.1717685984
 21
3649.5369448482
 31
0.0
  0
LINE
  5
1A7
330
1F
100
AcDbEntity
  8
0
  6
HIDDEN
 62
     7
370
    18
100
AcDbLine
 10
448.8717685984
 20
3689.7369448482
 30
0.0
 11
953.4717685984
 21
3689.7369448482
 31
0.0
  0
LINE
  5
1A8
330
1F
100
AcDbEntity
  8
0
  6
HIDDEN
 62
     7
370
    18
100
AcDbLine
 10
1516.1717685984
 20
3129.7369448482
 30
0.0
 11
536.1717685984
 21
3129.7369448482
 31
0.0
  0
LINE
  5
1A9
330
1F
100
AcDbEntity
  8
0
  6
HIDDEN
 62
     7
370
    18
100
AcDbLine
 10
426.1717685984
 20
3649.7369448482
 30
0.0
 11
1271.1717685984
 21
3649.7369448482
 31
0.0
  0
LINE
  5
1AA
330
1F
100
AcDbEntity
  8
0
  6
HIDDEN
 62
     7
370
    18
100
AcDbLine
 10
426.1717685984
 20
3269.9369448482
 30
0.0
 11
426.1717685984
 21
3649.7369448482
 31
0.0
  0
LINE
  5
1AB
330
1F
100
AcDbEntity
  8
0
  6
HIDDEN
 62
     7
370
    18
100
AcDbLine
 10
1390.1717685984
 20
3169.7369448482
 30
0.0
 11
1352.1717685984
 21
3169.7369448482
 31
0.0
  0
LINE
  5
1AC
330
1F
100
AcDbEntity
  8
0
  6
HIDDEN
 62
     7
370
    18
100
AcDbLine
 10
1526.1717685984
 20
3476.2369448482
 30
0.0
 11
1526.1717685984
 21
3196.2369448482
 31
0.0
  0
LINE
  5
1AD
330
1F
100
AcDbEntity
  8
0
  6
HIDDEN
 62
     7
370
    18
100
AcDbLine
 10
1566.1717685984
 20
3159.7369448482
 30
0.0
 11
1566.1717685984
 21
3129.7369448482
 31
0.0
  0
LINE
  5
1AE
330
1F
100
AcDbEntity
  8
0
  6
HIDDEN
 62
     7
370
    18
100
AcDbLine
 10
1566.1717685984
 20
3129.7369448482
 30
0.0
 11
1516.1717685984
 21
3129.7369448482
 31
0.0
  0
LINE
  5
1AF
330
1F
100
AcDbEntity
  8
0
  6
HIDDEN
 62
     7
370
    18
100
AcDbLine
 10
536.1717685984
 20
3129.7369448482
 30
0.0
 11
436.1717685984
 21
3129.7369448482
 31
0.0
  0
LINE
  5
1B0
330
1F
100
AcDbEntity
  8
0
  6
HIDDEN
 62
     7
370
    18
100
AcDbLine
 10
421.1717685984
 20
3164.7369448482
 30
0.0
 11
421.1717685984
 21
3649.5369448482
 31
0.0
  0
LINE
  5
1B1
330
1F
100
AcDbEntity
  8
0
  6
HIDDEN
 62
     7
370
    18
100
AcDbLine
 10
421.1717685984
 20
3651.7369448482
 30
0.0
 11
421.1717685984
 21
3654.7369448482
 31
0.0
  0
LINE
  5
1B2
330
1F
100
AcDbEntity
  8
0
  6
HIDDEN
 62
     7
370
    18
100
AcDbLine
 10
421.1717685984
 20
3654.7369448482
 30
0.0
 11
1531.1717685984
 21
3654.7369448482
 31
0.0
  0
LINE
  5
1B3
330
1F
100
AcDbEntity
  8
0
  6
HIDDEN
 62
     7
370
    18
100
AcDbLine
 10
1531.1717685984
 20
3654.7369448482
 30
0.0
 11
1531.1717685984
 21
3164.7369448482
 31
0.0
  0
LINE
  5
1B4
330
1F
100
AcDbEntity
  8
0
  6
HIDDEN
 62
     7
370
    18
100
AcDbLine
 10
1531.1717685984
 20
3164.7369448482
 30
0.0
 11
421.1717685984
 21
3164.7369448482
 31
0.0
  0
CIRCLE
  5
1B5
330
1F
100
AcDbEntity
  8
0
  6
HIDDEN
 62
     7
370
    18
100
AcDbCircle
 10
1516.1717685984
 20
3147.7369448482
 30
0.0
 40
6.0
  0
CIRCLE
  5
1B6
330
1F
100
AcDbEntity
  8
0
  6
HIDDEN
 62
     7
370
    18
100
AcDbCircle
 10
976.1717685984
 20
3671.7369448482
 30
0.0
 40
6.0
  0
CIRCLE
  5
1B7
330
1F
100
AcDbEntity
  8
0
  6
HIDDEN
 62
     7
370
    18
100
AcDbCircle
 10
976.1717685984
 20
3147.7369448482
 30
0.0
 40
6.0
  0
CIRCLE
  5
1B8
330
1F
100
AcDbEntity
  8
0
  6
HIDDEN
 62
     7
370
    18
100
AcDbCircle
 10
436.1717685984
 20
3147.7369448482
 30
0.0
 40
6.0
  0
CIRCLE
  5
1B9
330
1F
100
AcDbEntity
  8
0
  6
HIDDEN
 62
     7
370
    18
100
AcDbCircle
 10
436.1717685984
 20
3671.7369448482
 30
0.0
 40
6.0
  0
CIRCLE
  5
1BA
330
1F
100
AcDbEntity
  8
0
  6
HIDDEN
 62
     7
370
    18
100
AcDbCircle
 10
1516.1717685984
 20
3671.7369448482
 30
0.0
 40
6.0
  0
LINE
  5
1BB
330
1F
100
AcDbEntity
  8
0
  6
HIDDEN
 62
     7
370
    18
100
AcDbLine
 10
725.9717685984
 20
3269.9369448482
 30
0.0
 11
725.9717685984
 21
3649.5369448482
 31
0.0
  0
LINE
  5
1BC
330
1F
100
AcDbEntity
  8
0
  6
HIDDEN
 62
     7
370
    18
100
AcDbLine
 10
1240.1223501531
 20
3649.5369448482
 30
0.0
 11
725.9717685984
 21
3649.5369448482
 31
0.0
  0
LINE
  5
1BD
330
1F
100
AcDbEntity
  8
0
  6
HIDDEN
 62
     7
370
    18
100
AcDbLine
 10
1240.1223501531
 20
3649.5369448482
 30
0.0
 11
1240.1223501531
 21
3269.9369448482
 31
0.0
  0
LINE
  5
1BE
330
1F
100
AcDbEntity
  8
0
  6
HIDDEN
 62
     7
370
    18
100
AcDbLine
 10
1240.1223501531
 20
3269.9369448482
 30
0.0
 11
725.9717685984
 21
3269.9369448482
 31
0.0
  0
LINE
  5
1BF
330
1F
100
AcDbEntity
  8
0
  6
HIDDEN
 62
     7
370
    18
100
AcDbLine
 10
695.1717685984
 20
3269.9369448482
 30
0.0
 11
725.9717685984
 21
3269.9369448482
 31
0.0
  0
LINE
  5
1C0
330
1F
100
AcDbEntity
  8
0
  6
HIDDEN
 62
     7
370
    18
100
AcDbLine
 10
695.1717685984
 20
3649.5369448482
 30
0.0
 11
725.9717685984
 21
3649.5369448482
 31
0.0
  0
LINE
  5
1C1
330
1F
100
AcDbEntity
  8
0
  6
HIDDEN
 62
     7
370
    18
100
AcDbLine
 10
340.1717685984
 20
3272.2369448482
 30
0.0
 11
340.1717685984
 21
3647.2369448482
 31
0.0
  0
LINE
  5
1C2
330
1F
100
AcDbEntity
  8
0
  6
HIDDEN
 62
     7
370
    18
100
AcDbLine
 10
340.1717685984
 20
3272.2369448482
 30
0.0
 11
670.1717685984
 21
3272.2369448482
 31
0.0
  0
LINE
  5
1C3
330
1F
100
AcDbEntity
  8
0
  6
HIDDEN
 62
     7
370
    18
100
AcDbLine
 10
340.1717685984
 20
3647.2369448482
 30
0.0
 11
670.1717685984
 21
3647.2369448482
 31
0.0
  0
LINE
  5
1C4
330
1F
100
AcDbEntity
  8
0
  6
HIDDEN
 62
     7
370
    18
100
AcDbLine
 10
670.1717685984
 20
3272.2369448482
 30
0.0
 11
727.1717685984
 21
3272.2369448482
 31
0.0
  0
LINE
  5
1C5
330
1F
100
AcDbEntity
  8
0
  6
HIDDEN
 62
     7
370
    18
100
AcDbLine
 10
670.1717685984
 20
3647.2369448482
 30
0.0
 11
727.1717685984
 21
3647.2369448482
 31
0.0
  0
LINE
  5
1C6
330
1F
100
AcDbEntity
  8
0
  6
HIDDEN
 62
     7
370
    18
100
AcDbLine
 10
695.1717685984
 20
3651.7369448482
 30
0.0
 11
981.1717685984
 21
3651.7369448482
 31
0.0
  0
LINE
  5
1C7
330
1F
100
AcDbEntity
  8
0
  6
HIDDEN
 62
     7
370
    18
100
AcDbLine
 10
1228.6717685984
 20
3546.7369448482
 30
0.0
 11
1228.6717685984
 21
3239.7369448482
 31
0.0
  0
LINE
  5
1C8
330
1F
100
AcDbEntity
  8
0
  6
HIDDEN
 62
     7
370
    18
100
AcDbLine
 10
1390.1717685984
 20
3097.2369448482
 30
0.0
 11
1390.1717685984
 21
3139.7369448482
 31
0.0
  0
LINE
  5
1C9
330
1F
100
AcDbEntity
  8
0
  6
HIDDEN
 62
     7
370
    18
100
AcDbLine
 10
1352.1717685984
 20
3139.7369448482
 30
0.0
 11
1352.1717685984
 21
3097.2369448482
 31
0.0
  0
LINE
  5
1CA
330
1F
100
AcDbEntity
  8
0
  6
HIDDEN
 62
     7
370
    18
100
AcDbLine
 10
1446.1717685984
 20
3022.2369448482
 30
0.0
 11
1446.1717685984
 21
3097.2369448482
 31
0.0
  0
LINE
  5
1CB
330
1F
100
AcDbEntity
  8
0
  6
HIDDEN
 62
     7
370
    18
100
AcDbLine
 10
1296.1717685984
 20
3097.2369448482
 30
0.0
 11
1296.1717685984
 21
3022.2369448482
 31
0.0
  0
LINE
  5
1CC
330
1F
100
AcDbEntity
  8
0
  6
HIDDEN
 62
     7
370
    18
100
AcDbLine
 10
626.1717685984
 20
3097.2369448482
 30
0.0
 11
626.1717685984
 21
3022.2369448482
 31
0.0
  0
LINE
  5
1CD
330
1F
100
AcDbEntity
  8
0
  6
HIDDEN
 62
     7
370
    18
100
AcDbLine
 10
776.1717685984
 20
3022.2369448482
 30
0.0
 11
776.1717685984
 21
3097.2369448482
 31
0.0
  0
LINE
  5
1CE
330
1F
100
AcDbEntity
  8
0
  6
HIDDEN
 62
     7
370
    18
100
AcDbLine
 10
981.1717685984
 20
3649.5369448482
 30
0.0
 11
981.1717685984
 21
3651.7369448482
 31
0.0
  0
LINE
  5
1CF
330
1F
100
AcDbEntity
  8
0
  6
HIDDEN
 62
     7
370
    18
100
AcDbLine
 10
766.4058631633
 20
3710.7369448482
 30
0.0
 11
766.4058631633
 21
3708.4369448482
 31
0.0
  0
LINE
  5
1D0
330
1F
100
AcDbEntity
  8
0
  6
HIDDEN
 62
     7
370
    18
100
AcDbLine
 10
774.4058631633
 20
3708.4369448482
 30
0.0
 11
774.4058631633
 21
3710.7369448482
 31
0.0
  0
LINE
  5
1D1
330
1F
100
AcDbEntity
  8
0
  6
HIDDEN
 62
     7
370
    18
100
AcDbLine
 10
627.9376740335
 20
3710.7369448482
 30
0.0
 11
627.9376740335
 21
3708.4369448482
 31
0.0
  0
LINE
  5
1D2
330
1F
100
AcDbEntity
  8
0
  6
HIDDEN
 62
     7
370
    18
100
AcDbLine
 10
635.9376740335
 20
3708.4369448482
 30
0.0
 11
635.9376740335
 21
3710.7369448482
 31
0.0
  0
LINE
  5
1D3
330
1F
100
AcDbEntity
  8
0
  6
HIDDEN
 62
     7
370
    18
100
AcDbLine
 10
953.4717685984
 20
3651.7369448482
 30
0.0
 11
953.4717685984
 21
3679.7369448482
 31
0.0
  0
LINE
  5
1D4
330
1F
100
AcDbEntity
  8
0
  6
HIDDEN
 62
     7
370
    18
100
AcDbLine
 10
951.1717685984
 20
3647.2369448482
 30
0.0
 11
951.1717685984
 21
3710.7369448482
 31
0.0
  0
LINE
  5
1D5
330
1F
100
AcDbEntity
  8
0
  6
HIDDEN
 62
     7
370
    18
100
AcDbLine
 10
451.1717685984
 20
3710.7369448482
 30
0.0
 11
451.1717685984
 21
3647.2369448482
 31
0.0
  0
LINE
  5
1D6
330
1F
100
AcDbEntity
  8
0
  6
HIDDEN
 62
     7
370
    18
100
AcDbLine
 10
886.3228325658
 20
3710.7369448482
 30
0.0
 11
886.3228325658
 21
3708.4369448482
 31
0.0
  0
LINE
  5
1D7
330
1F
100
AcDbEntity
  8
0
  6
HIDDEN
 62
     7
370
    18
100
AcDbLine
 10
894.3228325658
 20
3708.4369448482
 30
0.0
 11
894.3228325658
 21
3710.7369448482
 31
0.0
  0
LINE
  5
1D8
330
1F
100
AcDbEntity
  8
0
  6
HIDDEN
 62
     7
370
    18
100
AcDbLine
 10
508.020704631
 20
3710.7369448482
 30
0.0
 11
508.020704631
 21
3708.4369448482
 31
0.0
  0
LINE
  5
1D9
330
1F
100
AcDbEntity
  8
0
  6
HIDDEN
 62
     7
370
    18
100
AcDbLine
 10
516.020704631
 20
3708.4369448482
 30
0.0
 11
516.020704631
 21
3710.7369448482
 31
0.0
  0
LINE
  5
1DA
330
1F
100
AcDbEntity
  8
0
  6
HIDDEN
 62
     7
370
    18
100
AcDbLine
 10
955.5569271307
 20
3710.7369448482
 30
0.0
 11
955.5569271307
 21
3708.4369448482
 31
0.0
  0
LINE
  5
1DB
330
1F
100
AcDbEntity
  8
0
  6
HIDDEN
 62
     7
370
    18
100
AcDbLine
 10
963.5569271307
 20
3708.4369448482
 30
0.0
 11
963.5569271307
 21
3710.7369448482
 31
0.0
  0
LINE
  5
1DC
330
1F
100
AcDbEntity
  8
0
  6
HIDDEN
 62
     7
370
    18
100
AcDbLine
 10
438.7866100661
 20
3710.7369448482
 30
0.0
 11
438.7866100661
 21
3708.4369448482
 31
0.0
  0
LINE
  5
1DD
330
1F
100
AcDbEntity
  8
0
  6
HIDDEN
 62
     7
370
    18
100
AcDbLine
 10
446.7866100661
 20
3708.4369448482
 30
0.0
 11
446.7866100661
 21
3710.7369448482
 31
0.0
  0
CIRCLE
  5
1DE
330
1F
100
AcDbEntity
  8
基礎穴
100
AcDbCircle
 10
436.1717685984
 20
3147.7369448482
 30
0.0
 40
6.000000000000102
  0
CIRCLE
  5
1DF
330
1F
100
AcDbEntity
  8
基礎穴
100
AcDbCircle
 10
976.1717685984
 20
3147.7369448482
 30
0.0
 40
5.999999999999939
  0
CIRCLE
  5
1E0
330
1F
100
AcDbEntity
  8
基礎穴
100
AcDbCircle
 10
1516.1717685984
 20
3147.7369448482
 30
0.0
 40
6.000000000000266
  0
CIRCLE
  5
1E1
330
1F
100
AcDbEntity
  8
基礎穴
100
AcDbCircle
 10
1516.1717685984
 20
3671.7369448482
 30
0.0
 40
5.999999999999999
  0
CIRCLE
  5
1E2
330
1F
100
AcDbEntity
  8
基礎穴
100
AcDbCircle
 10
976.1717685984
 20
3671.7369448482
 30
0.0
 40
5.999999999999672
  0
CIRCLE
  5
1E3
330
1F
100
AcDbEntity
  8
基礎穴
100
AcDbCircle
 10
436.1717685984
 20
3671.7369448482
 30
0.0
 40
5.999999999999836
  0
LINE
  5
1E4
330
1F
100
AcDbEntity
  8
2
100
AcDbLine
 10
983.1717685984
 20
3670.6942411323
 30
0.0
 11
983.1717685984
 21
3248.8932947885
 31
0.0
  0
LINE
  5
1E5
330
1F
100
AcDbEntity
  8
2
100
AcDbLine
 10
1337.6717685984
 20
3459.7369448482
 30
0.0
 11
405.1571970071
 21
3459.7369448482
 31
0.0
  0
LINE
  5
1E6
330
1F
100
AcDbEntity
  8
2
100
AcDbLine
 10
701.1717685984
 20
2992.8584791089
 30
0.0
 11
701.1717685984
 21
3703.5192175015
 31
0.0
  0
ENDSEC
  0
SECTION
  2
OBJECTS
  0
DICTIONARY
  5
C
330
0
100
AcDbDictionary
281
     1
  3
ACAD_GROUP
350
D
  3
ACAD_LAYOUT
350
1A
  3
ACAD_MLINESTYLE
350
17
  3
ACAD_PLOTSETTINGS
350
19
  3
ACAD_PLOTSTYLENAME
350
E
  3
ACAD_SCALELIST
350
47
  3
DWGPROPS
350
1E7
  0
DICTIONARY
  5
D
102
{ACAD_REACTORS
330
C
102
}
330
C
100
AcDbDictionary
281
     1
  0
DICTIONARY
  5
1A
102
{ACAD_REACTORS
330
C
102
}
330
C
100
AcDbDictionary
281
     1
  3
Layout1
350
1E
  3
Layout2
350
26
  3
Model
350
22
  0
DICTIONARY
  5
17
102
{ACAD_REACTORS
330
C
102
}
330
C
100
AcDbDictionary
281
     1
  3
Standard
350
18
  0
DICTIONARY
  5
19
102
{ACAD_REACTORS
330
C
102
}
330
C
100
AcDbDictionary
281
     1
  0
ACDBDICTIONARYWDFLT
  5
E
102
{ACAD_REACTORS
330
C
102
}
330
C
100
AcDbDictionary
281
     1
  3
Normal
350
F
100
AcDbDictionaryWithDefault
340
F
  0
DICTIONARY
  5
47
102
{ACAD_REACTORS
330
C
102
}
330
C
100
AcDbDictionary
281
     1
  3
A0
350
48
  3
A1
350
49
  3
A2
350
4A
  3
A3
350
4B
  3
A4
350
4C
  3
A5
350
4D
  3
A6
350
4E
  3
A7
350
4F
  3
A8
350
50
  3
A9
350
51
  3
B0
350
52
  3
B1
350
53
  3
B2
350
54
  3
B3
350
55
  3
B4
350
56
  3
B5
350
57
  3
B6
350
58
  0
XRECORD
  5
1E7
102
{ACAD_REACTORS
330
C
102
}
330
C
100
AcDbXrecord
280
     1
  1
DWGPROPS COOKIE
  2

  3

  4

  6

  7

  8
yuta.kunimatsu
  9

300
=
301
=
302
=
303
=
304
=
305
=
306
=
307
=
308
=
309
=
 40
0.0
 41
2460105.400686238
 42
2460105.400686991
  1

 90
        0
  0
LAYOUT
  5
1E
102
{ACAD_REACTORS
330
1A
102
}
330
1A
100
AcDbPlotSettings
  1

  2
none_device
  4

  6

 40
0.0
 41
0.0
 42
0.0
 43
0.0
 44
0.0
 45
0.0
 46
0.0
 47
0.0
 48
0.0
 49
0.0
140
0.0
141
0.0
142
1.0
143
1.0
 70
   688
 72
     1
 73
     0
 74
     5
  7

 75
    16
147
1.0
148
0.0
149
0.0
100
AcDbLayout
  1
Layout1
 70
     1
 71
     1
 10
0.0
 20
0.0
 11
420.0
 21
297.0
 12
0.0
 22
0.0
 32
0.0
 14
1.0000000000E+20
 24
1.0000000000E+20
 34
1.0000000000E+20
 15
-1.0000000000E+20
 25
-1.0000000000E+20
 35
-1.0000000000E+20
146
0.0
 13
0.0
 23
0.0
 33
0.0
 16
1.0
 26
0.0
 36
0.0
 17
0.0
 27
1.0
 37
0.0
 76
     0
330
1B
  0
LAYOUT
  5
26
102
{ACAD_REACTORS
330
1A
102
}
330
1A
100
AcDbPlotSettings
  1

  2
none_device
  4

  6

 40
0.0
 41
0.0
 42
0.0
 43
0.0
 44
0.0
 45
0.0
 46
0.0
 47
0.0
 48
0.0
 49
0.0
140
0.0
141
0.0
142
1.0
143
1.0
 70
   688
 72
     1
 73
     0
 74
     5
  7

 75
    16
147
1.0
148
0.0
149
0.0
100
AcDbLayout
  1
Layout2
 70
     1
 71
     2
 10
0.0
 20
0.0
 11
0.0
 21
0.0
 12
0.0
 22
0.0
 32
0.0
 14
0.0
 24
0.0
 34
0.0
 15
0.0
 25
0.0
 35
0.0
146
0.0
 13
0.0
 23
0.0
 33
0.0
 16
1.0
 26
0.0
 36
0.0
 17
0.0
 27
1.0
 37
0.0
 76
     0
330
23
  0
LAYOUT
  5
22
102
{ACAD_REACTORS
330
1A
102
}
330
1A
100
AcDbPlotSettings
  1

  2
none_device
  4
Letter_(8.50_x_11.00_Inches)
  6

 40
6.35
 41
6.35
 42
6.35000508
 43
6.35000508
 44
215.9
 45
279.4
 46
0.0
 47
0.0
 48
0.0
 49
0.0
140
0.0
141
0.0
142
1.0
143
1.0
 70
  1712
 72
     1
 73
     0
 74
     0
  7

 75
     0
147
1.0
148
0.0
149
0.0
100
AcDbLayout
  1
Model
 70
     1
 71
     0
 10
0.0
 20
0.0
 11
3150.0
 21
4455.0
 12
0.0
 22
0.0
 32
0.0
 14
0.0
 24
0.0
 34
0.0
 15
3150.0
 25
4455.0
 35
0.0
146
0.0
 13
0.0
 23
0.0
 33
0.0
 16
1.0
 26
0.0
 36
0.0
 17
0.0
 27
1.0
 37
0.0
 76
     0
330
1F
331
29
  0
MLINESTYLE
  5
18
102
{ACAD_REACTORS
330
17
102
}
330
17
100
AcDbMlineStyle
  2
Standard
 70
     0
  3

 62
   256
 51
90.0
 52
90.0
 71
     2
 49
0.5
 62
   256
  6
BYLAYER
 49
-0.5
 62
   256
  6
BYLAYER
  0
ACDBPLACEHOLDER
  5
F
102
{ACAD_REACTORS
330
E
102
}
330
E
  0
SCALE
  5
48
102
{ACAD_REACTORS
330
47
102
}
330
47
100
AcDbScale
 70
     0
300
1:1
140
1.0
141
1.0
290
     1
  0
SCALE
  5
49
102
{ACAD_REACTORS
330
47
102
}
330
47
100
AcDbScale
 70
     0
300
1:2
140
1.0
141
2.0
290
     0
  0
SCALE
  5
4A
102
{ACAD_REACTORS
330
47
102
}
330
47
100
AcDbScale
 70
     0
300
1:4
140
1.0
141
4.0
290
     0
  0
SCALE
  5
4B
102
{ACAD_REACTORS
330
47
102
}
330
47
100
AcDbScale
 70
     0
300
1:5
140
1.0
141
5.0
290
     0
  0
SCALE
  5
4C
102
{ACAD_REACTORS
330
47
102
}
330
47
100
AcDbScale
 70
     0
300
1:8
140
1.0
141
8.0
290
     0
  0
SCALE
  5
4D
102
{ACAD_REACTORS
330
47
102
}
330
47
100
AcDbScale
 70
     0
300
1:10
140
1.0
141
10.0
290
     0
  0
SCALE
  5
4E
102
{ACAD_REACTORS
330
47
102
}
330
47
100
AcDbScale
 70
     0
300
1:16
140
1.0
141
16.0
290
     0
  0
SCALE
  5
4F
102
{ACAD_REACTORS
330
47
102
}
330
47
100
AcDbScale
 70
     0
300
1:20
140
1.0
141
20.0
290
     0
  0
SCALE
  5
50
102
{ACAD_REACTORS
330
47
102
}
330
47
100
AcDbScale
 70
     0
300
1:30
140
1.0
141
30.0
290
     0
  0
SCALE
  5
51
102
{ACAD_REACTORS
330
47
102
}
330
47
100
AcDbScale
 70
     0
300
1:40
140
1.0
141
40.0
290
     0
  0
SCALE
  5
52
102
{ACAD_REACTORS
330
47
102
}
330
47
100
AcDbScale
 70
     0
300
1:50
140
1.0
141
50.0
290
     0
  0
SCALE
  5
53
102
{ACAD_REACTORS
330
47
102
}
330
47
100
AcDbScale
 70
     0
300
1:100
140
1.0
141
100.0
290
     0
  0
SCALE
  5
54
102
{ACAD_REACTORS
330
47
102
}
330
47
100
AcDbScale
 70
     0
300
2:1
140
2.0
141
1.0
290
     0
  0
SCALE
  5
55
102
{ACAD_REACTORS
330
47
102
}
330
47
100
AcDbScale
 70
     0
300
4:1
140
4.0
141
1.0
290
     0
  0
SCALE
  5
56
102
{ACAD_REACTORS
330
47
102
}
330
47
100
AcDbScale
 70
     0
300
8:1
140
8.0
141
1.0
290
     0
  0
SCALE
  5
57
102
{ACAD_REACTORS
330
47
102
}
330
47
100
AcDbScale
 70
     0
300
10:1
140
10.0
141
1.0
290
     0
  0
SCALE
  5
58
102
{ACAD_REACTORS
330
47
102
}
330
47
100
AcDbScale
 70
     0
300
100:1
140
100.0
141
1.0
290
     0
  0
ENDSEC
  0
EOF
