  0
SECTION
  2
HEADER
  9
$ACADVER
  1
AC1015
  9
$ACADMAINTVER
 70
     6
  9
$DWGCODEPAGE
  3
DOS932
  9
$INSBASE
 10
0.0
 20
0.0
 30
0.0
  9
$EXTMIN
 10
0.0
 20
0.0
 30
0.0
  9
$EXTMAX
 10
2100.0
 20
2970.0
 30
0.0
  9
$LIMMIN
 10
0.0
 20
0.0
  9
$LIMMAX
 10
2100.0
 20
2970.0
  9
$ORTHOMODE
 70
     0
  9
$REGENMODE
 70
     1
  9
$FILLMODE
 70
     1
  9
$QTEXTMODE
 70
     0
  9
$MIRRTEXT
 70
     1
  9
$LTSCALE
 40
10.0
  9
$ATTMODE
 70
     1
  9
$TEXTSIZE
 40
35.2777777778
  9
$TRACEWID
 40
1.0
  9
$TEXTSTYLE
  7
Standard
  9
$CLAYER
  8
0
  9
$CELTYPE
  6
ByLayer
  9
$CECOLOR
 62
   256
  9
$CELTSCALE
 40
1.0
  9
$DISPSILH
 70
     0
  9
$DIMSCALE
 40
1.0
  9
$DIMASZ
 40
15.0
  9
$DIMEXO
 40
10.0
  9
$DIMDLI
 40
3.75
  9
$DIMRND
 40
0.0
  9
$DIMDLE
 40
0.0
  9
$DIMEXE
 40
10.0
  9
$DIMTP
 40
0.0
  9
$DIMTM
 40
0.0
  9
$DIMTXT
 40
35.2777777778
  9
$DIMCEN
 40
2.5
  9
$DIMTSZ
 40
0.0
  9
$DIMTOL
 70
     0
  9
$DIMLIM
 70
     0
  9
$DIMTIH
 70
     1
  9
$DIMTOH
 70
     1
  9
$DIMSE1
 70
     0
  9
$DIMSE2
 70
     0
  9
$DIMTAD
 70
     1
  9
$DIMZIN
 70
     0
  9
$DIMBLK
  1

  9
$DIMASO
 70
     1
  9
$DIMSHO
 70
     1
  9
$DIMPOST
  1

  9
$DIMAPOST
  1

  9
$DIMALT
 70
     0
  9
$DIMALTD
 70
     3
  9
$DIMALTF
 40
0.0393700787
  9
$DIMLFAC
 40
1.0
  9
$DIMTOFL
 70
     1
  9
$DIMTVP
 40
0.0
  9
$DIMTIX
 70
     0
  9
$DIMSOXD
 70
     0
  9
$DIMSAH
 70
     0
  9
$DIMBLK1
  1

  9
$DIMBLK2
  1

  9
$DIMSTYLE
  2
ISO-25
  9
$DIMCLRD
 70
     0
  9
$DIMCLRE
 70
     0
  9
$DIMCLRT
 70
     0
  9
$DIMTFAC
 40
1.0
  9
$DIMGAP
 40
15.24
  9
$DIMJUST
 70
     0
  9
$DIMSD1
 70
     0
  9
$DIMSD2
 70
     0
  9
$DIMTOLJ
 70
     0
  9
$DIMTZIN
 70
     0
  9
$DIMALTZ
 70
     0
  9
$DIMALTTZ
 70
     0
  9
$DIMUPT
 70
     0
  9
$DIMDEC
 70
     0
  9
$DIMTDEC
 70
     0
  9
$DIMALTU
 70
     2
  9
$DIMALTTD
 70
     3
  9
$DIMTXSTY
  7
Standard
  9
$DIMAUNIT
 70
     0
  9
$DIMADEC
 70
     2
  9
$DIMALTRND
 40
0.0
  9
$DIMAZIN
 70
     0
  9
$DIMDSEP
 70
    44
  9
$DIMATFIT
 70
     3
  9
$DIMFRAC
 70
     0
  9
$DIMLDRBLK
  1

  9
$DIMLUNIT
 70
     2
  9
$DIMLWD
 70
    -2
  9
$DIMLWE
 70
    -2
  9
$DIMTMOVE
 70
     0
  9
$LUNITS
 70
     2
  9
$LUPREC
 70
     2
  9
$SKETCHINC
 40
1.0
  9
$FILLETRAD
 40
0.0
  9
$AUNITS
 70
     0
  9
$AUPREC
 70
     2
  9
$MENU
  1
.
  9
$ELEVATION
 40
0.0
  9
$PELEVATION
 40
0.0
  9
$THICKNESS
 40
0.0
  9
$LIMCHECK
 70
     0
  9
$CHAMFERA
 40
0.0
  9
$CHAMFERB
 40
0.0
  9
$CHAMFERC
 40
0.0
  9
$CHAMFERD
 40
0.0
  9
$SKPOLY
 70
     0
  9
$TDCREATE
 40
2460115.62109456
  9
$TDUCREATE
 40
2460115.24609456
  9
$TDUPDATE
 40
2460115.621095
  9
$TDUUPDATE
 40
2460115.246095
  9
$TDINDWG
 40
0.0000000116
  9
$TDUSRTIMER
 40
0.0000000116
  9
$USRTIMER
 70
     1
  9
$ANGBASE
 50
0.0
  9
$ANGDIR
 70
     0
  9
$PDMODE
 70
     0
  9
$PDSIZE
 40
-1.0
  9
$PLINEWID
 40
0.0
  9
$SPLFRAME
 70
     0
  9
$SPLINETYPE
 70
     6
  9
$SPLINESEGS
 70
     8
  9
$HANDSEED
  5
211
  9
$SURFTAB1
 70
     6
  9
$SURFTAB2
 70
     6
  9
$SURFTYPE
 70
     6
  9
$SURFU
 70
     6
  9
$SURFV
 70
     6
  9
$UCSBASE
  2

  9
$UCSNAME
  2

  9
$UCSORG
 10
0.0
 20
0.0
 30
0.0
  9
$UCSXDIR
 10
1.0
 20
0.0
 30
0.0
  9
$UCSYDIR
 10
0.0
 20
1.0
 30
0.0
  9
$UCSORTHOREF
  2

  9
$UCSORTHOVIEW
 70
     0
  9
$UCSORGTOP
 10
0.0
 20
0.0
 30
0.0
  9
$UCSORGBOTTOM
 10
0.0
 20
0.0
 30
0.0
  9
$UCSORGLEFT
 10
0.0
 20
0.0
 30
0.0
  9
$UCSORGRIGHT
 10
0.0
 20
0.0
 30
0.0
  9
$UCSORGFRONT
 10
0.0
 20
0.0
 30
0.0
  9
$UCSORGBACK
 10
0.0
 20
0.0
 30
0.0
  9
$PUCSBASE
  2

  9
$PUCSNAME
  2

  9
$PUCSORG
 10
0.0
 20
0.0
 30
0.0
  9
$PUCSXDIR
 10
1.0
 20
0.0
 30
0.0
  9
$PUCSYDIR
 10
0.0
 20
1.0
 30
0.0
  9
$PUCSORTHOREF
  2

  9
$PUCSORTHOVIEW
 70
     0
  9
$PUCSORGTOP
 10
0.0
 20
0.0
 30
0.0
  9
$PUCSORGBOTTOM
 10
0.0
 20
0.0
 30
0.0
  9
$PUCSORGLEFT
 10
0.0
 20
0.0
 30
0.0
  9
$PUCSORGRIGHT
 10
0.0
 20
0.0
 30
0.0
  9
$PUCSORGFRONT
 10
0.0
 20
0.0
 30
0.0
  9
$PUCSORGBACK
 10
0.0
 20
0.0
 30
0.0
  9
$USERI1
 70
     0
  9
$USERI2
 70
     0
  9
$USERI3
 70
     0
  9
$USERI4
 70
     0
  9
$USERI5
 70
     0
  9
$USERR1
 40
0.0
  9
$USERR2
 40
0.0
  9
$USERR3
 40
0.0
  9
$USERR4
 40
0.0
  9
$USERR5
 40
0.0
  9
$WORLDVIEW
 70
     1
  9
$SHADEDGE
 70
     3
  9
$SHADEDIF
 70
    70
  9
$TILEMODE
 70
     1
  9
$MAXACTVP
 70
    64
  9
$PINSBASE
 10
0.0
 20
0.0
 30
0.0
  9
$PLIMCHECK
 70
     0
  9
$PEXTMIN
 10
1.0000000000E+20
 20
1.0000000000E+20
 30
1.0000000000E+20
  9
$PEXTMAX
 10
-1.0000000000E+20
 20
-1.0000000000E+20
 30
-1.0000000000E+20
  9
$PLIMMIN
 10
0.0
 20
0.0
  9
$PLIMMAX
 10
420.0
 20
297.0
  9
$UNITMODE
 70
     0
  9
$VISRETAIN
 70
     1
  9
$PLINEGEN
 70
     0
  9
$PSLTSCALE
 70
     1
  9
$TREEDEPTH
 70
  3020
  9
$CMLSTYLE
  2
Standard
  9
$CMLJUST
 70
     0
  9
$CMLSCALE
 40
20.0
  9
$PROXYGRAPHICS
 70
     1
  9
$MEASUREMENT
 70
     1
  9
$CELWEIGHT
370
    -1
  9
$ENDCAPS
280
     0
  9
$JOINSTYLE
280
     0
  9
$LWDISPLAY
290
     1
  9
$INSUNITS
 70
     4
  9
$HYPERLINKBASE
  1

  9
$STYLESHEET
  1

  9
$XEDIT
290
     1
  9
$CEPSNTYPE
380
     0
  9
$PSTYLEMODE
290
     1
  9
$FINGERPRINTGUID
  2
{fe9c29b9-0190-497f-8114-0cc22721ad38}
  9
$VERSIONGUID
  2
{FAEB1C32-E019-11D5-929B-00C0DF256EC4}
  9
$EXTNAMES
290
     1
  9
$PSVPSCALE
 40
0.0
  9
$OLESTARTUP
290
     0
  0
ENDSEC
  0
SECTION
  2
CLASSES
  0
CLASS
  1
ACDBDICTIONARYWDFLT
  2
AcDbDictionaryWithDefault
  3
ObjectDBX Classes
 90
        0
280
     0
281
     0
  0
CLASS
  1
VISUALSTYLE
  2
AcDbVisualStyle
  3
ObjectDBX Classes
 90
     4095
280
     0
281
     0
  0
CLASS
  1
MATERIAL
  2
AcDbMaterial
  3
ObjectDBX Classes
 90
     1153
280
     0
281
     0
  0
CLASS
  1
SCALE
  2
AcDbScale
  3
ObjectDBX Classes
 90
     1153
280
     0
281
     0
  0
CLASS
  1
TABLESTYLE
  2
AcDbTableStyle
  3
ObjectDBX Classes
 90
     4095
280
     0
281
     0
  0
CLASS
  1
MLEADERSTYLE
  2
AcDbMLeaderStyle
  3
ACDB_MLEADERSTYLE_CLASS
 90
     4095
280
     0
281
     0
  0
CLASS
  1
SUN
  2
AcDbSun
  3
SCENEOE
 90
     1153
280
     0
281
     0
  0
CLASS
  1
ACDBPLACEHOLDER
  2
AcDbPlaceHolder
  3
ObjectDBX Classes
 90
        0
280
     0
281
     0
  0
CLASS
  1
LAYOUT
  2
AcDbLayout
  3
ObjectDBX Classes
 90
        0
280
     0
281
     0
  0
ENDSEC
  0
SECTION
  2
TABLES
  0
TABLE
  2
VPORT
  5
8
330
0
100
AcDbSymbolTable
 70
     1
  0
VPORT
  5
29
330
8
100
AcDbSymbolTableRecord
100
AcDbViewportTableRecord
  2
*Active
 70
     0
 10
0.0
 20
0.0
 11
1.0
 21
1.0
 12
1050.0
 22
1485.0
 13
0.0
 23
0.0
 14
10.0
 24
10.0
 15
10.0
 25
10.0
 16
0.0
 26
0.0
 36
1.0
 17
0.0
 27
0.0
 37
0.0
 40
2970.0
 41
0.7070707071
 42
50.0
 43
0.0
 44
0.0
 50
0.0
 51
0.0
 71
     0
 72
  2000
 73
     1
 74
     3
 75
     0
 76
     0
 77
     0
 78
     0
281
     0
 65
     1
110
0.0
120
0.0
130
0.0
111
1.0
121
0.0
131
0.0
112
0.0
122
1.0
132
0.0
 79
     0
146
0.0
  0
ENDTAB
  0
TABLE
  2
LTYPE
  5
5
330
0
100
AcDbSymbolTable
 70
     6
  0
LTYPE
  5
14
330
5
100
AcDbSymbolTableRecord
100
AcDbLinetypeTableRecord
  2
ByBlock
 70
     0
  3

 72
    65
 73
     0
 40
0.0
  0
LTYPE
  5
15
330
5
100
AcDbSymbolTableRecord
100
AcDbLinetypeTableRecord
  2
ByLayer
 70
     0
  3

 72
    65
 73
     0
 40
0.0
  0
LTYPE
  5
16
330
5
100
AcDbSymbolTableRecord
100
AcDbLinetypeTableRecord
  2
Continuous
 70
     0
  3
Solid line
 72
    65
 73
     0
 40
0.0
  0
LTYPE
  5
5E
330
5
100
AcDbSymbolTableRecord
100
AcDbLinetypeTableRecord
  2
HIDDEN
 70
     0
  3
Hidden __ __ __ __ __ __ __ __ __ __ __ __ __ __
 72
    65
 73
     2
 40
1.905
 49
1.27
 74
     0
 49
-0.635
 74
     0
  0
LTYPE
  5
5F
330
5
100
AcDbSymbolTableRecord
100
AcDbLinetypeTableRecord
  2
PHANTOM
 70
     0
  3
Phantom ______  __  __  ______  __  __  ______
 72
    65
 73
     6
 40
12.7
 49
6.35
 74
     0
 49
-1.27
 74
     0
 49
1.27
 74
     0
 49
-1.27
 74
     0
 49
1.27
 74
     0
 49
-1.27
 74
     0
  0
LTYPE
  5
60
330
5
100
AcDbSymbolTableRecord
100
AcDbLinetypeTableRecord
  2
CENTER
 70
     0
  3
Center ____ _ ____ _ ____ _ ____ _ ____ _ ____
 72
    65
 73
     4
 40
10.16
 49
6.35
 74
     0
 49
-1.27
 74
     0
 49
1.27
 74
     0
 49
-1.27
 74
     0
  0
LTYPE
  5
61
330
5
100
AcDbSymbolTableRecord
100
AcDbLinetypeTableRecord
  2
CENTERX2
 70
     0
  3
Center (2x) ________  __  ________  __  _____
 72
    65
 73
     4
 40
20.32
 49
12.7
 74
     0
 49
-2.54
 74
     0
 49
2.54
 74
     0
 49
-2.54
 74
     0
  0
LTYPE
  5
62
330
5
100
AcDbSymbolTableRecord
100
AcDbLinetypeTableRecord
  2
DOT2
 70
     0
  3
Dot (.5x) ........................................
 72
    65
 73
     2
 40
0.635
 49
0.0
 74
     0
 49
-0.635
 74
     0
  0
ENDTAB
  0
TABLE
  2
LAYER
  5
2
330
0
100
AcDbSymbolTable
 70
     6
  0
LAYER
  5
10
330
2
100
AcDbSymbolTableRecord
100
AcDbLayerTableRecord
  2
0
 70
     0
 62
     7
  6
Continuous
370
    -3
390
F
  0
LAYER
  5
63
330
2
100
AcDbSymbolTableRecord
100
AcDbLayerTableRecord
  2
1
 70
     0
 62
     4
  6
Continuous
370
    25
390
F
  0
LAYER
  5
64
330
2
100
AcDbSymbolTableRecord
100
AcDbLayerTableRecord
  2
2
 70
     0
 62
     3
  6
CENTERX2
370
    -3
390
F
  0
LAYER
  5
65
330
2
100
AcDbSymbolTableRecord
100
AcDbLayerTableRecord
  2
3
 70
     0
 62
     2
  6
Continuous
370
    -3
390
F
  0
LAYER
  5
66
330
2
100
AcDbSymbolTableRecord
100
AcDbLayerTableRecord
  2
4
 70
     0
 62
     7
  6
Continuous
370
    -3
390
F
  0
LAYER
  5
67
330
2
100
AcDbSymbolTableRecord
100
AcDbLayerTableRecord
  2
基礎穴
 70
     0
 62
     1
  6
PHANTOM
370
    35
390
F
  0
ENDTAB
  0
TABLE
  2
STYLE
  5
3
330
0
100
AcDbSymbolTable
 70
     2
  0
STYLE
  5
11
330
3
100
AcDbSymbolTableRecord
100
AcDbTextStyleTableRecord
  2
Standard
 70
     0
 40
0.0
 41
1.0
 50
0.0
 71
     0
 42
35.2777777778
  3
txt
  4
bigfont
  0
STYLE
  5
68
330
3
100
AcDbSymbolTableRecord
100
AcDbTextStyleTableRecord
  2
SLDTEXTSTYLE0
 70
     0
 40
0.0
 41
0.7
 50
0.0
 71
     0
 42
35.2777777778
  3
TXT
  4
bigfont
  0
ENDTAB
  0
TABLE
  2
VIEW
  5
6
330
0
100
AcDbSymbolTable
 70
     0
  0
ENDTAB
  0
TABLE
  2
UCS
  5
7
330
0
100
AcDbSymbolTable
 70
     0
  0
ENDTAB
  0
TABLE
  2
APPID
  5
9
330
0
100
AcDbSymbolTable
 70
     1
  0
APPID
  5
12
330
9
100
AcDbSymbolTableRecord
100
AcDbRegAppTableRecord
  2
ACAD
 70
     0
  0
ENDTAB
  0
TABLE
  2
DIMSTYLE
  5
A
330
0
100
AcDbSymbolTable
 70
     1
100
AcDbDimStyleTable
  0
DIMSTYLE
105
27
330
A
100
AcDbSymbolTableRecord
100
AcDbDimStyleTableRecord
  2
ISO-25
 70
     0
 41
2.5
 42
0.625
 43
3.75
 44
1.25
 73
     0
 74
     0
 77
     1
 78
     8
140
2.5
141
2.5
143
0.0393700787
147
0.625
171
     3
172
     1
178
     0
271
     2
272
     2
274
     3
278
    44
283
     0
284
     8
340
11
  0
ENDTAB
  0
TABLE
  2
BLOCK_RECORD
  5
1
330
0
100
AcDbSymbolTable
 70
     2
  0
BLOCK_RECORD
  5
1F
330
1
100
AcDbSymbolTableRecord
100
AcDbBlockTableRecord
  2
*Model_Space
340
22
  0
BLOCK_RECORD
  5
1B
330
1
100
AcDbSymbolTableRecord
100
AcDbBlockTableRecord
  2
*Paper_Space
340
1E
  0
BLOCK_RECORD
  5
23
330
1
100
AcDbSymbolTableRecord
100
AcDbBlockTableRecord
  2
*Paper_Space0
340
26
  0
BLOCK_RECORD
  5
D5
330
1
100
AcDbSymbolTableRecord
100
AcDbBlockTableRecord
  2
SW_CENTERMARKSYMBOL_0
340
0
102
{BLKREFS
331
E0
102
}
  0
ENDTAB
  0
ENDSEC
  0
SECTION
  2
BLOCKS
  0
BLOCK
  5
20
330
1F
100
AcDbEntity
  8
0
100
AcDbBlockBegin
  2
*Model_Space
 70
     0
 10
0.0
 20
0.0
 30
0.0
  3
*Model_Space
  1

  0
ENDBLK
  5
21
330
1F
100
AcDbEntity
  8
0
100
AcDbBlockEnd
  0
BLOCK
  5
1C
330
1B
100
AcDbEntity
 67
     1
  8
0
100
AcDbBlockBegin
  2
*Paper_Space
 70
     0
 10
0.0
 20
0.0
 30
0.0
  3
*Paper_Space
  1

  0
ENDBLK
  5
1D
330
1B
100
AcDbEntity
 67
     1
  8
0
100
AcDbBlockEnd
  0
BLOCK
  5
24
330
23
100
AcDbEntity
  8
0
100
AcDbBlockBegin
  2
*Paper_Space0
 70
     0
 10
0.0
 20
0.0
 30
0.0
  3
*Paper_Space0
  1

  0
ENDBLK
  5
25
330
23
100
AcDbEntity
  8
0
100
AcDbBlockEnd
  0
BLOCK
  5
D6
330
D5
100
AcDbEntity
  8
0
100
AcDbBlockBegin
  2
SW_CENTERMARKSYMBOL_0
 70
     0
 10
0.0
 20
0.0
 30
0.0
  3
SW_CENTERMARKSYMBOL_0
  1

  0
LINE
  5
D8
330
D5
100
AcDbEntity
  8
2
 62
     0
100
AcDbLine
 10
0.0
 20
0.0
 30
0.0
 11
0.0
 21
2.5
 31
0.0
  0
LINE
  5
D9
330
D5
100
AcDbEntity
  8
2
 62
     0
100
AcDbLine
 10
0.0
 20
0.0
 30
0.0
 11
-2.5
 21
0.0
 31
0.0
  0
LINE
  5
DA
330
D5
100
AcDbEntity
  8
2
 62
     0
100
AcDbLine
 10
0.0
 20
0.0
 30
0.0
 11
0.0
 21
-2.5
 31
0.0
  0
LINE
  5
DB
330
D5
100
AcDbEntity
  8
2
 62
     0
100
AcDbLine
 10
0.0
 20
0.0
 30
0.0
 11
2.5
 21
0.0
 31
0.0
  0
LINE
  5
DC
330
D5
100
AcDbEntity
  8
2
 62
     0
100
AcDbLine
 10
0.0
 20
5.0
 30
0.0
 11
0.0
 21
227.5
 31
0.0
  0
LINE
  5
DD
330
D5
100
AcDbEntity
  8
2
 62
     0
100
AcDbLine
 10
-5.0
 20
0.0
 30
0.0
 11
-227.5
 21
0.0
 31
0.0
  0
LINE
  5
DE
330
D5
100
AcDbEntity
  8
2
 62
     0
100
AcDbLine
 10
0.0
 20
-5.0
 30
0.0
 11
0.0
 21
-227.5
 31
0.0
  0
LINE
  5
DF
330
D5
100
AcDbEntity
  8
2
 62
     0
100
AcDbLine
 10
5.0
 20
0.0
 30
0.0
 11
227.5
 21
0.0
 31
0.0
  0
ENDBLK
  5
D7
330
D5
100
AcDbEntity
  8
0
100
AcDbBlockEnd
  0
ENDSEC
  0
SECTION
  2
ENTITIES
  0
MTEXT
  5
69
330
1F
100
AcDbEntity
  8
0
  6
Continuous
 62
     7
370
     0
100
AcDbMText
 10
1346.6385320425
 20
624.7837792956
 30
0.0
 40
26.4583333333
 41
0.0
 71
     1
 72
     1
  1
LL02540YS01K-L3
  7
SLDTEXTSTYLE0
 73
     1
 44
1.0
  0
LINE
  5
6A
330
1F
100
AcDbEntity
  8
1
100
AcDbLine
 10
1028.8985536855
 20
935.9364991189
 30
0.0
 11
1028.8985536855
 21
855.9364991189
 31
0.0
  0
LINE
  5
6B
330
1F
100
AcDbEntity
  8
1
100
AcDbLine
 10
1063.8985536855
 20
855.9364991189
 30
0.0
 11
1063.8985536855
 21
935.9364991189
 31
0.0
  0
LINE
  5
6C
330
1F
100
AcDbEntity
  8
1
100
AcDbLine
 10
128.8985536855
 20
935.9364991189
 30
0.0
 11
128.8985536855
 21
855.9364991189
 31
0.0
  0
LINE
  5
6D
330
1F
100
AcDbEntity
  8
1
100
AcDbLine
 10
163.8985536855
 20
855.9364991189
 30
0.0
 11
163.8985536855
 21
935.9364991189
 31
0.0
  0
LINE
  5
6E
330
1F
100
AcDbEntity
  8
1
100
AcDbLine
 10
451.3985536855
 20
1010.9364991189
 30
0.0
 11
451.3985536855
 21
1015.4364991189
 31
0.0
  0
LINE
  5
6F
330
1F
100
AcDbEntity
  8
1
100
AcDbLine
 10
1003.8985536855
 20
1635.4364991189
 30
0.0
 11
133.8985536855
 21
1635.4364991189
 31
0.0
  0
LINE
  5
70
330
1F
100
AcDbEntity
  8
1
100
AcDbLine
 10
1003.8985536855
 20
1015.4364991189
 30
0.0
 11
1003.8985536855
 21
1635.4364991189
 31
0.0
  0
LINE
  5
71
330
1F
100
AcDbEntity
  8
1
100
AcDbLine
 10
133.8985536855
 20
1015.4364991189
 30
0.0
 11
1003.8985536855
 21
1015.4364991189
 31
0.0
  0
LINE
  5
72
330
1F
100
AcDbEntity
  8
1
100
AcDbLine
 10
133.8985536855
 20
1635.4364991189
 30
0.0
 11
133.8985536855
 21
1015.4364991189
 31
0.0
  0
LINE
  5
73
330
1F
100
AcDbEntity
  8
1
100
AcDbLine
 10
106.3985536855
 20
855.9364991189
 30
0.0
 11
1086.3985536855
 21
855.9364991189
 31
0.0
  0
LINE
  5
74
330
1F
100
AcDbEntity
  8
1
100
AcDbLine
 10
1086.3985536855
 20
852.7364991189
 30
0.0
 11
1086.3985536855
 21
855.9364991189
 31
0.0
  0
LINE
  5
75
330
1F
100
AcDbEntity
  8
1
100
AcDbLine
 10
106.3985536855
 20
852.7364991189
 30
0.0
 11
1086.3985536855
 21
852.7364991189
 31
0.0
  0
LINE
  5
76
330
1F
100
AcDbEntity
  8
1
100
AcDbLine
 10
106.3985536855
 20
852.7364991189
 30
0.0
 11
106.3985536855
 21
855.9364991189
 31
0.0
  0
LINE
  5
77
330
1F
100
AcDbEntity
  8
1
100
AcDbLine
 10
106.3985536855
 20
790.9364991189
 30
0.0
 11
106.3985536855
 21
794.1364991189
 31
0.0
  0
LINE
  5
78
330
1F
100
AcDbEntity
  8
1
100
AcDbLine
 10
1086.3985536855
 20
794.1364991189
 30
0.0
 11
106.3985536855
 21
794.1364991189
 31
0.0
  0
LINE
  5
79
330
1F
100
AcDbEntity
  8
1
100
AcDbLine
 10
1086.3985536855
 20
790.9364991189
 30
0.0
 11
1086.3985536855
 21
794.1364991189
 31
0.0
  0
LINE
  5
7A
330
1F
100
AcDbEntity
  8
1
100
AcDbLine
 10
1086.3985536855
 20
790.9364991189
 30
0.0
 11
106.3985536855
 21
790.9364991189
 31
0.0
  0
LINE
  5
7B
330
1F
100
AcDbEntity
  8
1
100
AcDbLine
 10
1049.5985536855
 20
794.1364991189
 30
0.0
 11
1049.5985536855
 21
852.7364991189
 31
0.0
  0
LINE
  5
7C
330
1F
100
AcDbEntity
  8
1
100
AcDbLine
 10
143.1985536855
 20
794.1364991189
 30
0.0
 11
143.1985536855
 21
852.7364991189
 31
0.0
  0
LINE
  5
7D
330
1F
100
AcDbEntity
  8
1
100
AcDbLine
 10
971.3985536855
 20
1015.4364991189
 30
0.0
 11
971.3985536855
 21
1010.9364991189
 31
0.0
  0
LINE
  5
7E
330
1F
100
AcDbEntity
  8
1
100
AcDbLine
 10
1003.8985536855
 20
1015.4364991189
 30
0.0
 11
1071.3985536855
 21
1015.4364991189
 31
0.0
  0
LINE
  5
7F
330
1F
100
AcDbEntity
  8
1
100
AcDbLine
 10
1071.3985536855
 20
1015.4364991189
 30
0.0
 11
1071.3985536855
 21
1010.9364991189
 31
0.0
  0
LINE
  5
80
330
1F
100
AcDbEntity
  8
1
100
AcDbLine
 10
971.3985536855
 20
1010.9364991189
 30
0.0
 11
1071.3985536855
 21
1010.9364991189
 31
0.0
  0
LINE
  5
81
330
1F
100
AcDbEntity
  8
1
100
AcDbLine
 10
66.3985536855
 20
1010.9364991189
 30
0.0
 11
166.3985536855
 21
1010.9364991189
 31
0.0
  0
LINE
  5
82
330
1F
100
AcDbEntity
  8
1
100
AcDbLine
 10
66.3985536855
 20
1015.4364991189
 30
0.0
 11
133.8985536855
 21
1015.4364991189
 31
0.0
  0
LINE
  5
83
330
1F
100
AcDbEntity
  8
1
100
AcDbLine
 10
66.3985536855
 20
1015.4364991189
 30
0.0
 11
66.3985536855
 21
1010.9364991189
 31
0.0
  0
LINE
  5
84
330
1F
100
AcDbEntity
  8
1
100
AcDbLine
 10
166.3985536855
 20
1015.4364991189
 30
0.0
 11
166.3985536855
 21
1010.9364991189
 31
0.0
  0
LINE
  5
85
330
1F
100
AcDbEntity
  8
1
100
AcDbLine
 10
1086.3985536855
 20
940.9364991189
 30
0.0
 11
1086.3985536855
 21
935.9364991189
 31
0.0
  0
LINE
  5
86
330
1F
100
AcDbEntity
  8
1
100
AcDbLine
 10
106.3985536855
 20
935.9364991189
 30
0.0
 11
1086.3985536855
 21
935.9364991189
 31
0.0
  0
LINE
  5
87
330
1F
100
AcDbEntity
  8
1
100
AcDbLine
 10
106.3985536855
 20
940.9364991189
 30
0.0
 11
106.3985536855
 21
935.9364991189
 31
0.0
  0
LINE
  5
88
330
1F
100
AcDbEntity
  8
1
100
AcDbLine
 10
106.3985536855
 20
940.9364991189
 30
0.0
 11
1086.3985536855
 21
940.9364991189
 31
0.0
  0
LINE
  5
89
330
1F
100
AcDbEntity
  8
1
100
AcDbLine
 10
106.3985536855
 20
1005.9364991189
 30
0.0
 11
1086.3985536855
 21
1005.9364991189
 31
0.0
  0
LINE
  5
8A
330
1F
100
AcDbEntity
  8
1
100
AcDbLine
 10
106.3985536855
 20
1010.9364991189
 30
0.0
 11
106.3985536855
 21
1005.9364991189
 31
0.0
  0
LINE
  5
8B
330
1F
100
AcDbEntity
  8
1
100
AcDbLine
 10
1086.3985536855
 20
1010.9364991189
 30
0.0
 11
1086.3985536855
 21
1005.9364991189
 31
0.0
  0
LINE
  5
8C
330
1F
100
AcDbEntity
  8
1
100
AcDbLine
 10
1071.3985536855
 20
1010.9364991189
 30
0.0
 11
1086.3985536855
 21
1010.9364991189
 31
0.0
  0
LINE
  5
8D
330
1F
100
AcDbEntity
  8
1
100
AcDbLine
 10
166.3985536855
 20
1010.9364991189
 30
0.0
 11
971.3985536855
 21
1010.9364991189
 31
0.0
  0
LINE
  5
8E
330
1F
100
AcDbEntity
  8
1
100
AcDbLine
 10
1051.3985536855
 20
1005.9364991189
 30
0.0
 11
1051.3985536855
 21
940.9364991189
 31
0.0
  0
LINE
  5
8F
330
1F
100
AcDbEntity
  8
1
100
AcDbLine
 10
141.3985536855
 20
1005.9364991189
 30
0.0
 11
141.3985536855
 21
940.9364991189
 31
0.0
  0
LINE
  5
90
330
1F
100
AcDbEntity
  8
1
100
AcDbLine
 10
1138.3985536855
 20
1470.9364991189
 30
0.0
 11
1141.3985536855
 21
1470.9364991189
 31
0.0
  0
LINE
  5
91
330
1F
100
AcDbEntity
  8
1
100
AcDbLine
 10
1138.3985536855
 20
1004.9364991189
 30
0.0
 11
1138.3985536855
 21
1470.9364991189
 31
0.0
  0
LINE
  5
92
330
1F
100
AcDbEntity
  8
1
100
AcDbLine
 10
1138.3985536855
 20
1004.9364991189
 30
0.0
 11
1141.3985536855
 21
1004.9364991189
 31
0.0
  0
LINE
  5
93
330
1F
100
AcDbEntity
  8
1
100
AcDbLine
 10
1141.3985536855
 20
1004.9364991189
 30
0.0
 11
1141.3985536855
 21
1470.9364991189
 31
0.0
  0
LINE
  5
94
330
1F
100
AcDbEntity
  8
1
100
AcDbLine
 10
1073.5985536855
 20
1445.1364991189
 30
0.0
 11
1138.3985536855
 21
1445.1364991189
 31
0.0
  0
ARC
  5
95
330
1F
100
AcDbEntity
  8
1
100
AcDbCircle
 10
806.3985536855
 20
1425.9364991189
 30
0.0
 40
313.2000000000005
100
AcDbArc
 50
90.0
 51
138.0176490838
  0
LINE
  5
96
330
1F
100
AcDbEntity
  8
1
100
AcDbLine
 10
1138.3985536855
 20
1030.9612995734
 30
0.0
 11
1003.8985536855
 21
1041.1953700729
 31
0.0
  0
ARC
  5
97
330
1F
100
AcDbEntity
  8
1
100
AcDbCircle
 10
813.3985536855
 20
1478.9364991189
 30
0.0
 40
260.2000000000005
100
AcDbArc
 50
0.0
 51
90.0
  0
LINE
  5
98
330
1F
100
AcDbEntity
  8
1
100
AcDbLine
 10
1073.5985536855
 20
1478.9364991189
 30
0.0
 11
1073.5985536855
 21
1445.1364991189
 31
0.0
  0
LINE
  5
99
330
1F
100
AcDbEntity
  8
1
100
AcDbLine
 10
806.3985536855
 20
1739.1364991189
 30
0.0
 11
813.3985536855
 21
1739.1364991189
 31
0.0
  0
CIRCLE
  5
9A
330
1F
100
AcDbEntity
  8
0
  6
HIDDEN
 62
     7
370
    18
100
AcDbCircle
 10
308.8985536855
 20
1162.9364991189
 30
0.0
 40
13.99999999999994
  0
ARC
  5
9B
330
1F
100
AcDbEntity
  8
0
  6
HIDDEN
 62
     7
370
    18
100
AcDbCircle
 10
308.8985536855
 20
1162.9364991189
 30
0.0
 40
121.5000000000001
100
AcDbArc
 50
298.8696782224
 51
241.1303217776
  0
LINE
  5
9C
330
1F
100
AcDbEntity
  8
0
  6
HIDDEN
 62
     7
370
    18
100
AcDbLine
 10
367.5610630079
 20
1056.5364991189
 30
0.0
 11
250.2360443631
 21
1056.5364991189
 31
0.0
  0
LINE
  5
9D
330
1F
100
AcDbEntity
  8
0
  6
HIDDEN
 62
     7
370
    18
100
AcDbLine
 10
166.3985536855
 20
1015.4364991189
 30
0.0
 11
166.3985536855
 21
1050.9364991189
 31
0.0
  0
LINE
  5
9E
330
1F
100
AcDbEntity
  8
0
  6
HIDDEN
 62
     7
370
    18
100
AcDbLine
 10
451.3985536855
 20
1015.4364991189
 30
0.0
 11
451.3985536855
 21
1050.9364991189
 31
0.0
  0
LINE
  5
9F
330
1F
100
AcDbEntity
  8
0
  6
HIDDEN
 62
     7
370
    18
100
AcDbLine
 10
451.3985536855
 20
1050.9364991189
 30
0.0
 11
166.3985536855
 21
1050.9364991189
 31
0.0
  0
LINE
  5
A0
330
1F
100
AcDbEntity
  8
0
  6
HIDDEN
 62
     7
370
    18
100
AcDbLine
 10
392.8985536855
 20
1050.9364991189
 30
0.0
 11
392.8985536855
 21
1062.1364991189
 31
0.0
  0
LINE
  5
A1
330
1F
100
AcDbEntity
  8
0
  6
HIDDEN
 62
     7
370
    18
100
AcDbLine
 10
224.8985536855
 20
1062.1364991189
 30
0.0
 11
224.8985536855
 21
1050.9364991189
 31
0.0
  0
LINE
  5
A2
330
1F
100
AcDbEntity
  8
0
  6
HIDDEN
 62
     7
370
    18
100
AcDbLine
 10
241.0633858151
 20
1062.1364991189
 30
0.0
 11
224.8985536855
 21
1062.1364991189
 31
0.0
  0
LINE
  5
A3
330
1F
100
AcDbEntity
  8
0
  6
HIDDEN
 62
     7
370
    18
100
AcDbLine
 10
392.8985536855
 20
1062.1364991189
 30
0.0
 11
376.7337215558
 21
1062.1364991189
 31
0.0
  0
CIRCLE
  5
A4
330
1F
100
AcDbEntity
  8
0
  6
HIDDEN
 62
     7
370
    18
100
AcDbCircle
 10
308.8985536855
 20
1162.9364991189
 30
0.0
 40
75.00000000000001
  0
CIRCLE
  5
A5
330
1F
100
AcDbEntity
  8
0
  6
HIDDEN
 62
     7
370
    18
100
AcDbCircle
 10
836.3985536855
 20
1455.9364991189
 30
0.0
 40
75.0000000000001
  0
LINE
  5
A6
330
1F
100
AcDbEntity
  8
0
  6
HIDDEN
 62
     7
370
    18
100
AcDbLine
 10
1046.3985536855
 20
790.9364991189
 30
0.0
 11
1046.3985536855
 21
855.9364991189
 31
0.0
  0
LINE
  5
A7
330
1F
100
AcDbEntity
  8
0
  6
HIDDEN
 62
     7
370
    18
100
AcDbLine
 10
146.3985536855
 20
790.9364991189
 30
0.0
 11
146.3985536855
 21
855.9364991189
 31
0.0
  0
LINE
  5
A8
330
1F
100
AcDbEntity
  8
0
  6
HIDDEN
 62
     7
370
    18
100
AcDbLine
 10
146.3985536855
 20
1010.9364991189
 30
0.0
 11
146.3985536855
 21
935.9364991189
 31
0.0
  0
LINE
  5
A9
330
1F
100
AcDbEntity
  8
0
  6
HIDDEN
 62
     7
370
    18
100
AcDbLine
 10
1046.3985536855
 20
1010.9364991189
 30
0.0
 11
1046.3985536855
 21
935.9364991189
 31
0.0
  0
ARC
  5
AA
330
1F
100
AcDbEntity
  8
0
  6
HIDDEN
 62
     7
370
    18
100
AcDbCircle
 10
866.3985536855
 20
1425.9364991189
 30
0.0
 40
373.2000000000006
100
AcDbArc
 50
180.0
 51
265.648763286
  0
ARC
  5
AB
330
1F
100
AcDbEntity
  8
0
  6
HIDDEN
 62
     7
370
    18
100
AcDbCircle
 10
806.3985536855
 20
1425.9364991189
 30
0.0
 40
313.2000000000004
100
AcDbArc
 50
138.0176490838
 51
180.0
  0
LINE
  5
AC
330
1F
100
AcDbEntity
  8
0
  6
HIDDEN
 62
     7
370
    18
100
AcDbLine
 10
1003.8985536855
 20
1041.1953700729
 30
0.0
 11
838.083709623
 21
1053.8121790245
 31
0.0
  0
LINE
  5
AD
330
1F
100
AcDbEntity
  8
0
  6
HIDDEN
 62
     7
370
    18
100
AcDbLine
 10
1072.3985536855
 20
1478.9364991189
 30
0.0
 11
1072.3985536855
 21
1443.9364991189
 31
0.0
  0
LINE
  5
AE
330
1F
100
AcDbEntity
  8
0
  6
HIDDEN
 62
     7
370
    18
100
AcDbLine
 10
1072.3985536855
 20
1443.9364991189
 30
0.0
 11
1141.3985536855
 21
1443.9364991189
 31
0.0
  0
LINE
  5
AF
330
1F
100
AcDbEntity
  8
0
  6
HIDDEN
 62
     7
370
    18
100
AcDbLine
 10
806.3985536855
 20
1737.9364991189
 30
0.0
 11
813.3985536855
 21
1737.9364991189
 31
0.0
  0
ARC
  5
B0
330
1F
100
AcDbEntity
  8
0
  6
HIDDEN
 62
     7
370
    18
100
AcDbCircle
 10
806.3985536855
 20
1425.9364991189
 30
0.0
 40
312.0000000000005
100
AcDbArc
 50
90.0
 51
180.0
  0
ARC
  5
B1
330
1F
100
AcDbEntity
  8
0
  6
HIDDEN
 62
     7
370
    18
100
AcDbCircle
 10
813.3985536855
 20
1478.9364991189
 30
0.0
 40
259.0000000000006
100
AcDbArc
 50
0.0
 51
90.0
  0
LINE
  5
B2
330
1F
100
AcDbEntity
  8
0
  6
HIDDEN
 62
     7
370
    18
100
AcDbLine
 10
1141.3985536855
 20
1031.9364991189
 30
0.0
 11
838.1747541376
 21
1055.0087202467
 31
0.0
  0
ARC
  5
B3
330
1F
100
AcDbEntity
  8
0
  6
HIDDEN
 62
     7
370
    18
100
AcDbCircle
 10
866.3985536855
 20
1425.9364991189
 30
0.0
 40
372.0000000000006
100
AcDbArc
 50
180.0
 51
265.648763286
  0
CIRCLE
  5
B4
330
1F
100
AcDbEntity
  8
0
  6
HIDDEN
 62
     7
370
    18
100
AcDbCircle
 10
836.3985536855
 20
1455.9364991189
 30
0.0
 40
200.0000000000003
  0
CIRCLE
  5
B5
330
1F
100
AcDbEntity
  8
0
  6
HIDDEN
 62
     7
370
    18
100
AcDbCircle
 10
836.3985536855
 20
1455.9364991189
 30
0.0
 40
225.0000000000002
  0
CIRCLE
  5
B6
330
1F
100
AcDbEntity
  8
0
  6
HIDDEN
 62
     7
370
    18
100
AcDbCircle
 10
836.3985536855
 20
1455.9364991189
 30
0.0
 40
202.3000000000004
  0
CIRCLE
  5
B7
330
1F
100
AcDbEntity
  8
0
  6
HIDDEN
 62
     7
370
    18
100
AcDbCircle
 10
988.4265116406
 20
1303.9085411638
 30
0.0
 40
4.000000000000114
  0
CIRCLE
  5
B8
330
1F
100
AcDbEntity
  8
0
  6
HIDDEN
 62
     7
370
    18
100
AcDbCircle
 10
1044.0726063376
 20
1400.2904044219
 30
0.0
 40
3.999999999999773
  0
CIRCLE
  5
B9
330
1F
100
AcDbEntity
  8
0
  6
HIDDEN
 62
     7
370
    18
100
AcDbCircle
 10
1044.0726063376
 20
1511.5825938159
 30
0.0
 40
4.0
  0
CIRCLE
  5
BA
330
1F
100
AcDbEntity
  8
0
  6
HIDDEN
 62
     7
370
    18
100
AcDbCircle
 10
988.4265116406
 20
1607.964457074
 30
0.0
 40
4.000000000000114
  0
CIRCLE
  5
BB
330
1F
100
AcDbEntity
  8
0
  6
HIDDEN
 62
     7
370
    18
100
AcDbCircle
 10
892.0446483825
 20
1663.6105517711
 30
0.0
 40
4.0
  0
CIRCLE
  5
BC
330
1F
100
AcDbEntity
  8
0
  6
HIDDEN
 62
     7
370
    18
100
AcDbCircle
 10
780.7524589884
 20
1663.6105517711
 30
0.0
 40
3.999999999999886
  0
CIRCLE
  5
BD
330
1F
100
AcDbEntity
  8
0
  6
HIDDEN
 62
     7
370
    18
100
AcDbCircle
 10
684.3705957304
 20
1607.964457074
 30
0.0
 40
4.0
  0
CIRCLE
  5
BE
330
1F
100
AcDbEntity
  8
0
  6
HIDDEN
 62
     7
370
    18
100
AcDbCircle
 10
628.7245010333
 20
1511.5825938159
 30
0.0
 40
4.000000000000114
  0
CIRCLE
  5
BF
330
1F
100
AcDbEntity
  8
0
  6
HIDDEN
 62
     7
370
    18
100
AcDbCircle
 10
628.7245010333
 20
1400.2904044219
 30
0.0
 40
4.0
  0
CIRCLE
  5
C0
330
1F
100
AcDbEntity
  8
0
  6
HIDDEN
 62
     7
370
    18
100
AcDbCircle
 10
684.3705957304
 20
1303.9085411638
 30
0.0
 40
4.0
  0
CIRCLE
  5
C1
330
1F
100
AcDbEntity
  8
0
  6
HIDDEN
 62
     7
370
    18
100
AcDbCircle
 10
780.7524589884
 20
1248.2624464668
 30
0.0
 40
4.000000000000114
  0
CIRCLE
  5
C2
330
1F
100
AcDbEntity
  8
0
  6
HIDDEN
 62
     7
370
    18
100
AcDbCircle
 10
892.0446483825
 20
1248.2624464668
 30
0.0
 40
4.000000000000114
  0
LINE
  5
C3
330
1F
100
AcDbEntity
  8
0
  6
HIDDEN
 62
     7
370
    18
100
AcDbLine
 10
162.3985536855
 20
790.9364991189
 30
0.0
 11
162.3985536855
 21
794.1364991189
 31
0.0
  0
LINE
  5
C4
330
1F
100
AcDbEntity
  8
0
  6
HIDDEN
 62
     7
370
    18
100
AcDbLine
 10
150.3985536855
 20
794.1364991189
 30
0.0
 11
150.3985536855
 21
790.9364991189
 31
0.0
  0
LINE
  5
C5
330
1F
100
AcDbEntity
  8
0
  6
HIDDEN
 62
     7
370
    18
100
AcDbLine
 10
602.3985536855
 20
790.9364991189
 30
0.0
 11
602.3985536855
 21
794.1364991189
 31
0.0
  0
LINE
  5
C6
330
1F
100
AcDbEntity
  8
0
  6
HIDDEN
 62
     7
370
    18
100
AcDbLine
 10
590.3985536855
 20
794.1364991189
 30
0.0
 11
590.3985536855
 21
790.9364991189
 31
0.0
  0
LINE
  5
C7
330
1F
100
AcDbEntity
  8
0
  6
HIDDEN
 62
     7
370
    18
100
AcDbLine
 10
1042.3985536855
 20
790.9364991189
 30
0.0
 11
1042.3985536855
 21
794.1364991189
 31
0.0
  0
LINE
  5
C8
330
1F
100
AcDbEntity
  8
0
  6
HIDDEN
 62
     7
370
    18
100
AcDbLine
 10
1030.3985536855
 20
794.1364991189
 30
0.0
 11
1030.3985536855
 21
790.9364991189
 31
0.0
  0
LINE
  5
C9
330
1F
100
AcDbEntity
  8
0
  6
HIDDEN
 62
     7
370
    18
100
AcDbLine
 10
1141.3985536855
 20
1291.9364991189
 30
0.0
 11
1138.3985536855
 21
1291.9364991189
 31
0.0
  0
LINE
  5
CA
330
1F
100
AcDbEntity
  8
0
  6
HIDDEN
 62
     7
370
    18
100
AcDbLine
 10
1138.3985536855
 20
1283.9364991189
 30
0.0
 11
1141.3985536855
 21
1283.9364991189
 31
0.0
  0
LINE
  5
CB
330
1F
100
AcDbEntity
  8
0
  6
HIDDEN
 62
     7
370
    18
100
AcDbLine
 10
1141.3985536855
 20
1464.9364991189
 30
0.0
 11
1138.3985536855
 21
1464.9364991189
 31
0.0
  0
LINE
  5
CC
330
1F
100
AcDbEntity
  8
0
  6
HIDDEN
 62
     7
370
    18
100
AcDbLine
 10
1138.3985536855
 20
1456.9364991189
 30
0.0
 11
1141.3985536855
 21
1456.9364991189
 31
0.0
  0
LINE
  5
CD
330
1F
100
AcDbEntity
  8
0
  6
HIDDEN
 62
     7
370
    18
100
AcDbLine
 10
1141.3985536855
 20
1391.9364991189
 30
0.0
 11
1138.3985536855
 21
1391.9364991189
 31
0.0
  0
LINE
  5
CE
330
1F
100
AcDbEntity
  8
0
  6
HIDDEN
 62
     7
370
    18
100
AcDbLine
 10
1138.3985536855
 20
1383.9364991189
 30
0.0
 11
1141.3985536855
 21
1383.9364991189
 31
0.0
  0
LINE
  5
CF
330
1F
100
AcDbEntity
  8
0
  6
HIDDEN
 62
     7
370
    18
100
AcDbLine
 10
1141.3985536855
 20
1091.9364991189
 30
0.0
 11
1138.3985536855
 21
1091.9364991189
 31
0.0
  0
LINE
  5
D0
330
1F
100
AcDbEntity
  8
0
  6
HIDDEN
 62
     7
370
    18
100
AcDbLine
 10
1138.3985536855
 20
1083.9364991189
 30
0.0
 11
1141.3985536855
 21
1083.9364991189
 31
0.0
  0
LINE
  5
D1
330
1F
100
AcDbEntity
  8
0
  6
HIDDEN
 62
     7
370
    18
100
AcDbLine
 10
1141.3985536855
 20
1018.9364991189
 30
0.0
 11
1138.3985536855
 21
1018.9364991189
 31
0.0
  0
LINE
  5
D2
330
1F
100
AcDbEntity
  8
0
  6
HIDDEN
 62
     7
370
    18
100
AcDbLine
 10
1138.3985536855
 20
1010.9364991189
 30
0.0
 11
1141.3985536855
 21
1010.9364991189
 31
0.0
  0
LINE
  5
D3
330
1F
100
AcDbEntity
  8
0
  6
HIDDEN
 62
     7
370
    18
100
AcDbLine
 10
1141.3985536855
 20
1191.9364991189
 30
0.0
 11
1138.3985536855
 21
1191.9364991189
 31
0.0
  0
LINE
  5
D4
330
1F
100
AcDbEntity
  8
0
  6
HIDDEN
 62
     7
370
    18
100
AcDbLine
 10
1138.3985536855
 20
1183.9364991189
 30
0.0
 11
1141.3985536855
 21
1183.9364991189
 31
0.0
  0
INSERT
  5
E0
330
1F
100
AcDbEntity
  8
2
100
AcDbBlockReference
  2
SW_CENTERMARKSYMBOL_0
 10
836.3985536855
 20
1455.9364991189
 30
0.0
  0
LINE
  5
E1
330
1F
100
AcDbEntity
  8
1
100
AcDbLine
 10
1531.2651051808
 20
1284.4364991189
 30
0.0
 11
1527.3921218346
 21
1284.4364991189
 31
0.0
  0
LINE
  5
E2
330
1F
100
AcDbEntity
  8
1
100
AcDbLine
 10
1519.3286135077
 20
1284.4364991189
 30
0.0
 11
1453.8286135077
 21
1284.4364991189
 31
0.0
  0
LINE
  5
E3
330
1F
100
AcDbEntity
  8
1
100
AcDbLine
 10
1436.3286135077
 20
1148.9364991189
 30
0.0
 11
1453.8286135077
 21
1148.9364991189
 31
0.0
  0
LINE
  5
E4
330
1F
100
AcDbEntity
  8
1
100
AcDbLine
 10
1453.8286135077
 20
1176.9364991189
 30
0.0
 11
1436.3286135077
 21
1176.9364991189
 31
0.0
  0
LINE
  5
E5
330
1F
100
AcDbEntity
  8
1
100
AcDbLine
 10
1850.8286135077
 20
935.9364991189
 30
0.0
 11
1850.8286135077
 21
855.9364991189
 31
0.0
  0
LINE
  5
E6
330
1F
100
AcDbEntity
  8
1
100
AcDbLine
 10
1885.8286135077
 20
855.9364991189
 30
0.0
 11
1885.8286135077
 21
935.9364991189
 31
0.0
  0
LINE
  5
E7
330
1F
100
AcDbEntity
  8
1
100
AcDbLine
 10
1430.8286135077
 20
935.9364991189
 30
0.0
 11
1430.8286135077
 21
855.9364991189
 31
0.0
  0
LINE
  5
E8
330
1F
100
AcDbEntity
  8
1
100
AcDbLine
 10
1465.8286135077
 20
855.9364991189
 30
0.0
 11
1465.8286135077
 21
935.9364991189
 31
0.0
  0
LINE
  5
E9
330
1F
100
AcDbEntity
  8
1
100
AcDbLine
 10
1899.3286135077
 20
1680.9364991189
 30
0.0
 11
1897.0286135077
 21
1680.9364991189
 31
0.0
  0
LINE
  5
EA
330
1F
100
AcDbEntity
  8
1
100
AcDbLine
 10
1897.0286135077
 20
1230.9364991189
 30
0.0
 11
1899.3286135077
 21
1230.9364991189
 31
0.0
  0
LINE
  5
EB
330
1F
100
AcDbEntity
  8
1
100
AcDbLine
 10
1849.3286135077
 20
1680.9364991189
 30
0.0
 11
1847.9286135077
 21
1680.9364991189
 31
0.0
  0
LINE
  5
EC
330
1F
100
AcDbEntity
  8
1
100
AcDbLine
 10
1897.0286135077
 20
1658.2364991189
 30
0.0
 11
1849.3286135077
 21
1658.2364991189
 31
0.0
  0
LINE
  5
ED
330
1F
100
AcDbEntity
  8
1
100
AcDbLine
 10
1873.3286135077
 20
1253.6364991189
 30
0.0
 11
1897.0286135077
 21
1253.6364991189
 31
0.0
  0
LINE
  5
EE
330
1F
100
AcDbEntity
  8
1
100
AcDbLine
 10
1463.8286135077
 20
1010.9364991189
 30
0.0
 11
1463.8286135077
 21
1050.9364991189
 31
0.0
  0
LINE
  5
EF
330
1F
100
AcDbEntity
  8
1
100
AcDbLine
 10
1519.3286135077
 20
1050.9364991189
 30
0.0
 11
1463.8286135077
 21
1050.9364991189
 31
0.0
  0
LINE
  5
F0
330
1F
100
AcDbEntity
  8
1
100
AcDbLine
 10
1483.8286135077
 20
1056.5364991189
 30
0.0
 11
1453.8286135077
 21
1056.5364991189
 31
0.0
  0
LINE
  5
F1
330
1F
100
AcDbEntity
  8
1
100
AcDbLine
 10
1453.8286135077
 20
1284.4364991189
 30
0.0
 11
1453.8286135077
 21
1056.5364991189
 31
0.0
  0
LINE
  5
F2
330
1F
100
AcDbEntity
  8
1
100
AcDbLine
 10
1483.8286135077
 20
1050.9364991189
 30
0.0
 11
1483.8286135077
 21
1062.1364991189
 31
0.0
  0
LINE
  5
F3
330
1F
100
AcDbEntity
  8
1
100
AcDbLine
 10
1483.8286135077
 20
1062.1364991189
 30
0.0
 11
1519.3286135077
 21
1062.1364991189
 31
0.0
  0
LINE
  5
F4
330
1F
100
AcDbEntity
  8
1
100
AcDbLine
 10
1276.3286135077
 20
1015.4364991189
 30
0.0
 11
1328.3286135077
 21
1015.4364991189
 31
0.0
  0
LINE
  5
F5
330
1F
100
AcDbEntity
  8
1
100
AcDbLine
 10
1276.3286135077
 20
1015.4364991189
 30
0.0
 11
1276.3286135077
 21
1635.4364991189
 31
0.0
  0
LINE
  5
F6
330
1F
100
AcDbEntity
  8
1
100
AcDbLine
 10
1276.3286135077
 20
1635.4364991189
 30
0.0
 11
1436.3286135077
 21
1635.4364991189
 31
0.0
  0
LINE
  5
F7
330
1F
100
AcDbEntity
  8
1
100
AcDbLine
 10
1436.3286135077
 20
1015.4364991189
 30
0.0
 11
1436.3286135077
 21
1635.4364991189
 31
0.0
  0
LINE
  5
F8
330
1F
100
AcDbEntity
  8
1
100
AcDbLine
 10
1428.3286135077
 20
855.9364991189
 30
0.0
 11
1888.3286135077
 21
855.9364991189
 31
0.0
  0
LINE
  5
F9
330
1F
100
AcDbEntity
  8
1
100
AcDbLine
 10
1888.3286135077
 20
852.7364991189
 30
0.0
 11
1888.3286135077
 21
855.9364991189
 31
0.0
  0
LINE
  5
FA
330
1F
100
AcDbEntity
  8
1
100
AcDbLine
 10
1428.3286135077
 20
852.7364991189
 30
0.0
 11
1888.3286135077
 21
852.7364991189
 31
0.0
  0
LINE
  5
FB
330
1F
100
AcDbEntity
  8
1
100
AcDbLine
 10
1428.3286135077
 20
852.7364991189
 30
0.0
 11
1428.3286135077
 21
855.9364991189
 31
0.0
  0
LINE
  5
FC
330
1F
100
AcDbEntity
  8
1
100
AcDbLine
 10
1888.3286135077
 20
790.9364991189
 30
0.0
 11
1428.3286135077
 21
790.9364991189
 31
0.0
  0
LINE
  5
FD
330
1F
100
AcDbEntity
  8
1
100
AcDbLine
 10
1428.3286135077
 20
790.9364991189
 30
0.0
 11
1428.3286135077
 21
794.1364991189
 31
0.0
  0
LINE
  5
FE
330
1F
100
AcDbEntity
  8
1
100
AcDbLine
 10
1888.3286135077
 20
790.9364991189
 30
0.0
 11
1888.3286135077
 21
794.1364991189
 31
0.0
  0
LINE
  5
FF
330
1F
100
AcDbEntity
  8
1
100
AcDbLine
 10
1888.3286135077
 20
794.1364991189
 30
0.0
 11
1428.3286135077
 21
794.1364991189
 31
0.0
  0
LINE
  5
100
330
1F
100
AcDbEntity
  8
1
100
AcDbLine
 10
1465.1286135077
 20
794.1364991189
 30
0.0
 11
1465.1286135077
 21
852.7364991189
 31
0.0
  0
LINE
  5
101
330
1F
100
AcDbEntity
  8
1
100
AcDbLine
 10
1851.5286135077
 20
794.1364991189
 30
0.0
 11
1851.5286135077
 21
852.7364991189
 31
0.0
  0
LINE
  5
102
330
1F
100
AcDbEntity
  8
1
100
AcDbLine
 10
1888.3286135077
 20
940.9364991189
 30
0.0
 11
1888.3286135077
 21
935.9364991189
 31
0.0
  0
LINE
  5
103
330
1F
100
AcDbEntity
  8
1
100
AcDbLine
 10
1428.3286135077
 20
935.9364991189
 30
0.0
 11
1888.3286135077
 21
935.9364991189
 31
0.0
  0
LINE
  5
104
330
1F
100
AcDbEntity
  8
1
100
AcDbLine
 10
1428.3286135077
 20
940.9364991189
 30
0.0
 11
1428.3286135077
 21
935.9364991189
 31
0.0
  0
LINE
  5
105
330
1F
100
AcDbEntity
  8
1
100
AcDbLine
 10
1428.3286135077
 20
940.9364991189
 30
0.0
 11
1888.3286135077
 21
940.9364991189
 31
0.0
  0
LINE
  5
106
330
1F
100
AcDbEntity
  8
1
100
AcDbLine
 10
1888.3286135077
 20
1010.9364991189
 30
0.0
 11
1888.3286135077
 21
1005.9364991189
 31
0.0
  0
LINE
  5
107
330
1F
100
AcDbEntity
  8
1
100
AcDbLine
 10
1428.3286135077
 20
1005.9364991189
 30
0.0
 11
1519.3286135077
 21
1005.9364991189
 31
0.0
  0
LINE
  5
108
330
1F
100
AcDbEntity
  8
1
100
AcDbLine
 10
1873.3286135077
 20
1005.9364991189
 30
0.0
 11
1888.3286135077
 21
1005.9364991189
 31
0.0
  0
LINE
  5
109
330
1F
100
AcDbEntity
  8
1
100
AcDbLine
 10
1428.3286135077
 20
1010.9364991189
 30
0.0
 11
1428.3286135077
 21
1005.9364991189
 31
0.0
  0
LINE
  5
10A
330
1F
100
AcDbEntity
  8
1
100
AcDbLine
 10
1428.3286135077
 20
1010.9364991189
 30
0.0
 11
1519.3286135077
 21
1010.9364991189
 31
0.0
  0
LINE
  5
10B
330
1F
100
AcDbEntity
  8
1
100
AcDbLine
 10
1873.3286135077
 20
1010.9364991189
 30
0.0
 11
1888.3286135077
 21
1010.9364991189
 31
0.0
  0
LINE
  5
10C
330
1F
100
AcDbEntity
  8
1
100
AcDbLine
 10
1328.3286135077
 20
1015.4364991189
 30
0.0
 11
1328.3286135077
 21
1010.9364991189
 31
0.0
  0
LINE
  5
10D
330
1F
100
AcDbEntity
  8
1
100
AcDbLine
 10
1328.3286135077
 20
1010.9364991189
 30
0.0
 11
1428.3286135077
 21
1010.9364991189
 31
0.0
  0
LINE
  5
10E
330
1F
100
AcDbEntity
  8
1
100
AcDbLine
 10
1328.3286135077
 20
1015.4364991189
 30
0.0
 11
1458.3286135077
 21
1015.4364991189
 31
0.0
  0
LINE
  5
10F
330
1F
100
AcDbEntity
  8
1
100
AcDbLine
 10
1458.3286135077
 20
1015.4364991189
 30
0.0
 11
1458.3286135077
 21
1010.9364991189
 31
0.0
  0
LINE
  5
110
330
1F
100
AcDbEntity
  8
1
100
AcDbLine
 10
1463.3286135077
 20
1005.9364991189
 30
0.0
 11
1463.3286135077
 21
940.9364991189
 31
0.0
  0
LINE
  5
111
330
1F
100
AcDbEntity
  8
1
100
AcDbLine
 10
1853.3286135077
 20
1004.9364991189
 30
0.0
 11
1853.3286135077
 21
940.9364991189
 31
0.0
  0
CIRCLE
  5
112
330
1F
100
AcDbEntity
  8
1
100
AcDbCircle
 10
1529.3286135077
 20
1014.9364991189
 30
0.0
 40
3.999999999999773
  0
CIRCLE
  5
113
330
1F
100
AcDbEntity
  8
1
100
AcDbCircle
 10
1529.3286135077
 20
1087.9364991189
 30
0.0
 40
3.999999999999773
  0
CIRCLE
  5
114
330
1F
100
AcDbEntity
  8
1
100
AcDbCircle
 10
1529.3286135077
 20
1187.9364991189
 30
0.0
 40
3.999999999999773
  0
CIRCLE
  5
115
330
1F
100
AcDbEntity
  8
1
100
AcDbCircle
 10
1596.3286135077
 20
1014.9364991189
 30
0.0
 40
4.000000000000227
  0
CIRCLE
  5
116
330
1F
100
AcDbEntity
  8
1
100
AcDbCircle
 10
1696.3286135077
 20
1014.9364991189
 30
0.0
 40
4.0
  0
CIRCLE
  5
117
330
1F
100
AcDbEntity
  8
1
100
AcDbCircle
 10
1796.3286135077
 20
1014.9364991189
 30
0.0
 40
4.000000000000227
  0
CIRCLE
  5
118
330
1F
100
AcDbEntity
  8
1
100
AcDbCircle
 10
1863.3286135077
 20
1187.9364991189
 30
0.0
 40
3.999999999999773
  0
CIRCLE
  5
119
330
1F
100
AcDbEntity
  8
1
100
AcDbCircle
 10
1863.3286135077
 20
1087.9364991189
 30
0.0
 40
3.999999999999773
  0
CIRCLE
  5
11A
330
1F
100
AcDbEntity
  8
1
100
AcDbCircle
 10
1863.3286135077
 20
1014.9364991189
 30
0.0
 40
3.999999999999773
  0
CIRCLE
  5
11B
330
1F
100
AcDbEntity
  8
1
100
AcDbCircle
 10
1863.3286135077
 20
1460.9364991189
 30
0.0
 40
3.999999999999773
  0
CIRCLE
  5
11C
330
1F
100
AcDbEntity
  8
1
100
AcDbCircle
 10
1863.3286135077
 20
1387.9364991189
 30
0.0
 40
3.999999999999773
  0
CIRCLE
  5
11D
330
1F
100
AcDbEntity
  8
1
100
AcDbCircle
 10
1863.3286135077
 20
1287.9364991189
 30
0.0
 40
3.999999999999773
  0
CIRCLE
  5
11E
330
1F
100
AcDbEntity
  8
1
100
AcDbCircle
 10
1796.3286135077
 20
1460.9364991189
 30
0.0
 40
4.000000000000227
  0
CIRCLE
  5
11F
330
1F
100
AcDbEntity
  8
1
100
AcDbCircle
 10
1696.3286135077
 20
1460.9364991189
 30
0.0
 40
4.0
  0
CIRCLE
  5
120
330
1F
100
AcDbEntity
  8
1
100
AcDbCircle
 10
1596.3286135077
 20
1460.9364991189
 30
0.0
 40
4.000000000000227
  0
CIRCLE
  5
121
330
1F
100
AcDbEntity
  8
1
100
AcDbCircle
 10
1529.3286135077
 20
1387.9364991189
 30
0.0
 40
3.999999999999773
  0
CIRCLE
  5
122
330
1F
100
AcDbEntity
  8
1
100
AcDbCircle
 10
1529.3286135077
 20
1460.9364991189
 30
0.0
 40
3.999999999999773
  0
LINE
  5
123
330
1F
100
AcDbEntity
  8
1
100
AcDbLine
 10
1519.3286135077
 20
1470.9364991189
 30
0.0
 11
1873.3286135077
 21
1470.9364991189
 31
0.0
  0
LINE
  5
124
330
1F
100
AcDbEntity
  8
1
100
AcDbLine
 10
1873.3286135077
 20
1470.9364991189
 30
0.0
 11
1873.3286135077
 21
1004.9364991189
 31
0.0
  0
LINE
  5
125
330
1F
100
AcDbEntity
  8
1
100
AcDbLine
 10
1873.3286135077
 20
1004.9364991189
 30
0.0
 11
1519.3286135077
 21
1004.9364991189
 31
0.0
  0
LINE
  5
126
330
1F
100
AcDbEntity
  8
1
100
AcDbLine
 10
1519.3286135077
 20
1004.9364991189
 30
0.0
 11
1519.3286135077
 21
1470.9364991189
 31
0.0
  0
LINE
  5
127
330
1F
100
AcDbEntity
  8
1
100
AcDbLine
 10
1546.3286135077
 20
1443.9364991189
 30
0.0
 11
1846.3286135077
 21
1443.9364991189
 31
0.0
  0
LINE
  5
128
330
1F
100
AcDbEntity
  8
1
100
AcDbLine
 10
1546.3286135077
 20
1443.9364991189
 30
0.0
 11
1546.3286135077
 21
1031.9364991189
 31
0.0
  0
LINE
  5
129
330
1F
100
AcDbEntity
  8
1
100
AcDbLine
 10
1546.3286135077
 20
1031.9364991189
 30
0.0
 11
1846.3286135077
 21
1031.9364991189
 31
0.0
  0
LINE
  5
12A
330
1F
100
AcDbEntity
  8
1
100
AcDbLine
 10
1846.3286135077
 20
1443.9364991189
 30
0.0
 11
1846.3286135077
 21
1031.9364991189
 31
0.0
  0
CIRCLE
  5
12B
330
1F
100
AcDbEntity
  8
1
100
AcDbCircle
 10
1529.3286135077
 20
1287.9364991189
 30
0.0
 40
3.999999999999773
  0
LINE
  5
12C
330
1F
100
AcDbEntity
  8
1
100
AcDbLine
 10
1544.7286135077
 20
1478.9364991189
 30
0.0
 11
1544.7286135077
 21
1470.9364991189
 31
0.0
  0
LINE
  5
12D
330
1F
100
AcDbEntity
  8
1
100
AcDbLine
 10
1847.9286135077
 20
1478.9364991189
 30
0.0
 11
1847.9286135077
 21
1470.9364991189
 31
0.0
  0
LINE
  5
12E
330
1F
100
AcDbEntity
  8
1
100
AcDbLine
 10
1544.7286135077
 20
1739.1364991189
 30
0.0
 11
1847.9286135077
 21
1739.1364991189
 31
0.0
  0
LINE
  5
12F
330
1F
100
AcDbEntity
  8
1
100
AcDbLine
 10
1544.7286135077
 20
1739.1364991189
 30
0.0
 11
1544.7286135077
 21
1478.9364991189
 31
0.0
  0
LINE
  5
130
330
1F
100
AcDbEntity
  8
1
100
AcDbLine
 10
1847.9286135077
 20
1739.1364991189
 30
0.0
 11
1847.9286135077
 21
1478.9364991189
 31
0.0
  0
LINE
  5
131
330
1F
100
AcDbEntity
  8
1
100
AcDbLine
 10
1897.0286135077
 20
1230.9364991189
 30
0.0
 11
1897.0286135077
 21
1680.9364991189
 31
0.0
  0
LINE
  5
132
330
1F
100
AcDbEntity
  8
1
100
AcDbLine
 10
1899.3286135077
 20
1230.9364991189
 30
0.0
 11
1899.3286135077
 21
1680.9364991189
 31
0.0
  0
LINE
  5
133
330
1F
100
AcDbEntity
  8
1
100
AcDbLine
 10
1849.3286135077
 20
1680.9364991189
 30
0.0
 11
1849.3286135077
 21
1470.9364991189
 31
0.0
  0
LINE
  5
134
330
1F
100
AcDbEntity
  8
0
  6
HIDDEN
 62
     7
370
    18
100
AcDbLine
 10
1723.8286135077
 20
1010.9364991189
 30
0.0
 11
1723.8286135077
 21
1050.9364991189
 31
0.0
  0
LINE
  5
135
330
1F
100
AcDbEntity
  8
0
  6
HIDDEN
 62
     7
370
    18
100
AcDbLine
 10
1723.8286135077
 20
1050.9364991189
 30
0.0
 11
1519.3286135077
 21
1050.9364991189
 31
0.0
  0
LINE
  5
136
330
1F
100
AcDbEntity
  8
0
  6
HIDDEN
 62
     7
370
    18
100
AcDbLine
 10
1779.8286135077
 20
1056.5364991189
 30
0.0
 11
1703.8286135077
 21
1056.5364991189
 31
0.0
  0
LINE
  5
137
330
1F
100
AcDbEntity
  8
0
  6
HIDDEN
 62
     7
370
    18
100
AcDbLine
 10
1779.8286135077
 20
1056.5364991189
 30
0.0
 11
1779.8286135077
 21
1284.4364991189
 31
0.0
  0
LINE
  5
138
330
1F
100
AcDbEntity
  8
0
  6
HIDDEN
 62
     7
370
    18
100
AcDbLine
 10
1519.3286135077
 20
1062.1364991189
 30
0.0
 11
1703.8286135077
 21
1062.1364991189
 31
0.0
  0
LINE
  5
139
330
1F
100
AcDbEntity
  8
0
  6
HIDDEN
 62
     7
370
    18
100
AcDbLine
 10
1703.8286135077
 20
1050.9364991189
 30
0.0
 11
1703.8286135077
 21
1062.1364991189
 31
0.0
  0
LINE
  5
13A
330
1F
100
AcDbEntity
  8
0
  6
HIDDEN
 62
     7
370
    18
100
AcDbLine
 10
1318.8286135077
 20
1088.1758711163
 30
0.0
 11
1318.8286135077
 21
1087.9364991189
 31
0.0
  0
LINE
  5
13B
330
1F
100
AcDbEntity
  8
0
  6
HIDDEN
 62
     7
370
    18
100
AcDbLine
 10
1318.8286135077
 20
1237.9364991189
 30
0.0
 11
1318.8286135077
 21
1088.1758711163
 31
0.0
  0
LINE
  5
13C
330
1F
100
AcDbEntity
  8
0
  6
HIDDEN
 62
     7
370
    18
100
AcDbLine
 10
1393.8286135077
 20
1088.1758711163
 30
0.0
 11
1393.8286135077
 21
1087.9364991189
 31
0.0
  0
LINE
  5
13D
330
1F
100
AcDbEntity
  8
0
  6
HIDDEN
 62
     7
370
    18
100
AcDbLine
 10
1393.8286135077
 20
1237.9364991189
 30
0.0
 11
1393.8286135077
 21
1088.1758711163
 31
0.0
  0
LINE
  5
13E
330
1F
100
AcDbEntity
  8
0
  6
HIDDEN
 62
     7
370
    18
100
AcDbLine
 10
1318.8286135077
 20
1530.4060361975
 30
0.0
 11
1318.8286135077
 21
1380.9364991189
 31
0.0
  0
LINE
  5
13F
330
1F
100
AcDbEntity
  8
0
  6
HIDDEN
 62
     7
370
    18
100
AcDbLine
 10
1318.8286135077
 20
1530.9364991189
 30
0.0
 11
1318.8286135077
 21
1530.4060361975
 31
0.0
  0
LINE
  5
140
330
1F
100
AcDbEntity
  8
0
  6
HIDDEN
 62
     7
370
    18
100
AcDbLine
 10
1393.8286135077
 20
1530.4060361975
 30
0.0
 11
1393.8286135077
 21
1380.9364991189
 31
0.0
  0
LINE
  5
141
330
1F
100
AcDbEntity
  8
0
  6
HIDDEN
 62
     7
370
    18
100
AcDbLine
 10
1393.8286135077
 20
1530.9364991189
 30
0.0
 11
1393.8286135077
 21
1530.4060361975
 31
0.0
  0
LINE
  5
142
330
1F
100
AcDbEntity
  8
0
  6
HIDDEN
 62
     7
370
    18
100
AcDbLine
 10
1848.3286135077
 20
790.9364991189
 30
0.0
 11
1848.3286135077
 21
855.9364991189
 31
0.0
  0
LINE
  5
143
330
1F
100
AcDbEntity
  8
0
  6
HIDDEN
 62
     7
370
    18
100
AcDbLine
 10
1468.3286135077
 20
790.9364991189
 30
0.0
 11
1468.3286135077
 21
855.9364991189
 31
0.0
  0
LINE
  5
144
330
1F
100
AcDbEntity
  8
0
  6
HIDDEN
 62
     7
370
    18
100
AcDbLine
 10
1519.3286135077
 20
1005.9364991189
 30
0.0
 11
1873.3286135077
 21
1005.9364991189
 31
0.0
  0
LINE
  5
145
330
1F
100
AcDbEntity
  8
0
  6
HIDDEN
 62
     7
370
    18
100
AcDbLine
 10
1519.3286135077
 20
1010.9364991189
 30
0.0
 11
1873.3286135077
 21
1010.9364991189
 31
0.0
  0
LINE
  5
146
330
1F
100
AcDbEntity
  8
0
  6
HIDDEN
 62
     7
370
    18
100
AcDbLine
 10
1853.3286135077
 20
1005.9364991189
 30
0.0
 11
1853.3286135077
 21
1004.9364991189
 31
0.0
  0
LINE
  5
147
330
1F
100
AcDbEntity
  8
0
  6
HIDDEN
 62
     7
370
    18
100
AcDbLine
 10
1848.3286135077
 20
1010.9364991189
 30
0.0
 11
1848.3286135077
 21
935.9364991189
 31
0.0
  0
LINE
  5
148
330
1F
100
AcDbEntity
  8
0
  6
HIDDEN
 62
     7
370
    18
100
AcDbLine
 10
1468.3286135077
 20
1010.9364991189
 30
0.0
 11
1468.3286135077
 21
935.9364991189
 31
0.0
  0
LINE
  5
149
330
1F
100
AcDbEntity
  8
0
  6
HIDDEN
 62
     7
370
    18
100
AcDbLine
 10
1847.9286135077
 20
1030.9612995734
 30
0.0
 11
1847.9286135077
 21
1445.1364991189
 31
0.0
  0
LINE
  5
14A
330
1F
100
AcDbEntity
  8
0
  6
HIDDEN
 62
     7
370
    18
100
AcDbLine
 10
1847.9286135077
 20
1030.9612995734
 30
0.0
 11
1544.7286135077
 21
1030.9612995734
 31
0.0
  0
LINE
  5
14B
330
1F
100
AcDbEntity
  8
0
  6
HIDDEN
 62
     7
370
    18
100
AcDbLine
 10
1544.7286135077
 20
1445.1364991189
 30
0.0
 11
1847.9286135077
 21
1445.1364991189
 31
0.0
  0
LINE
  5
14C
330
1F
100
AcDbEntity
  8
0
  6
HIDDEN
 62
     7
370
    18
100
AcDbLine
 10
1544.7286135077
 20
1030.9612995734
 30
0.0
 11
1544.7286135077
 21
1445.1364991189
 31
0.0
  0
LINE
  5
14D
330
1F
100
AcDbEntity
  8
0
  6
HIDDEN
 62
     7
370
    18
100
AcDbLine
 10
1544.7286135077
 20
1470.9364991189
 30
0.0
 11
1544.7286135077
 21
1445.1364991189
 31
0.0
  0
LINE
  5
14E
330
1F
100
AcDbEntity
  8
0
  6
HIDDEN
 62
     7
370
    18
100
AcDbLine
 10
1847.9286135077
 20
1470.9364991189
 30
0.0
 11
1847.9286135077
 21
1445.1364991189
 31
0.0
  0
LINE
  5
14F
330
1F
100
AcDbEntity
  8
0
  6
HIDDEN
 62
     7
370
    18
100
AcDbLine
 10
1546.3286135077
 20
1478.9364991189
 30
0.0
 11
1546.3286135077
 21
1443.9364991189
 31
0.0
  0
LINE
  5
150
330
1F
100
AcDbEntity
  8
0
  6
HIDDEN
 62
     7
370
    18
100
AcDbLine
 10
1846.3286135077
 20
1478.9364991189
 30
0.0
 11
1846.3286135077
 21
1443.9364991189
 31
0.0
  0
LINE
  5
151
330
1F
100
AcDbEntity
  8
0
  6
HIDDEN
 62
     7
370
    18
100
AcDbLine
 10
1546.3286135077
 20
1737.9364991189
 30
0.0
 11
1846.3286135077
 21
1737.9364991189
 31
0.0
  0
LINE
  5
152
330
1F
100
AcDbEntity
  8
0
  6
HIDDEN
 62
     7
370
    18
100
AcDbLine
 10
1546.3286135077
 20
1737.9364991189
 30
0.0
 11
1546.3286135077
 21
1478.9364991189
 31
0.0
  0
LINE
  5
153
330
1F
100
AcDbEntity
  8
0
  6
HIDDEN
 62
     7
370
    18
100
AcDbLine
 10
1846.3286135077
 20
1737.9364991189
 30
0.0
 11
1846.3286135077
 21
1478.9364991189
 31
0.0
  0
LINE
  5
154
330
1F
100
AcDbEntity
  8
0
  6
HIDDEN
 62
     7
370
    18
100
AcDbLine
 10
1849.3286135077
 20
1455.9364991189
 30
0.0
 11
1849.3286135077
 21
1230.9364991189
 31
0.0
  0
LINE
  5
155
330
1F
100
AcDbEntity
  8
0
  6
HIDDEN
 62
     7
370
    18
100
AcDbLine
 10
1849.3286135077
 20
1470.9364991189
 30
0.0
 11
1849.3286135077
 21
1455.9364991189
 31
0.0
  0
LINE
  5
156
330
1F
100
AcDbEntity
  8
0
  6
HIDDEN
 62
     7
370
    18
100
AcDbLine
 10
1779.8286135077
 20
1284.4364991189
 30
0.0
 11
1531.2651051808
 21
1284.4364991189
 31
0.0
  0
LINE
  5
157
330
1F
100
AcDbEntity
  8
0
  6
HIDDEN
 62
     7
370
    18
100
AcDbLine
 10
1527.3921218346
 20
1284.4364991189
 30
0.0
 11
1519.3286135077
 21
1284.4364991189
 31
0.0
  0
LINE
  5
158
330
1F
100
AcDbEntity
  8
0
  6
HIDDEN
 62
     7
370
    18
100
AcDbLine
 10
1393.8286135077
 20
1148.9364991189
 30
0.0
 11
1436.3286135077
 21
1148.9364991189
 31
0.0
  0
LINE
  5
159
330
1F
100
AcDbEntity
  8
0
  6
HIDDEN
 62
     7
370
    18
100
AcDbLine
 10
1436.3286135077
 20
1176.9364991189
 30
0.0
 11
1393.8286135077
 21
1176.9364991189
 31
0.0
  0
LINE
  5
15A
330
1F
100
AcDbEntity
  8
0
  6
HIDDEN
 62
     7
370
    18
100
AcDbLine
 10
1318.8286135077
 20
1087.9364991189
 30
0.0
 11
1393.8286135077
 21
1087.9364991189
 31
0.0
  0
LINE
  5
15B
330
1F
100
AcDbEntity
  8
0
  6
HIDDEN
 62
     7
370
    18
100
AcDbLine
 10
1393.8286135077
 20
1237.9364991189
 30
0.0
 11
1318.8286135077
 21
1237.9364991189
 31
0.0
  0
LINE
  5
15C
330
1F
100
AcDbEntity
  8
0
  6
HIDDEN
 62
     7
370
    18
100
AcDbLine
 10
1318.8286135077
 20
1380.9364991189
 30
0.0
 11
1393.8286135077
 21
1380.9364991189
 31
0.0
  0
LINE
  5
15D
330
1F
100
AcDbEntity
  8
0
  6
HIDDEN
 62
     7
370
    18
100
AcDbLine
 10
1393.8286135077
 20
1530.9364991189
 30
0.0
 11
1318.8286135077
 21
1530.9364991189
 31
0.0
  0
LINE
  5
15E
330
1F
100
AcDbEntity
  8
0
  6
HIDDEN
 62
     7
370
    18
100
AcDbLine
 10
1876.3286135077
 20
790.9364991189
 30
0.0
 11
1876.3286135077
 21
794.1364991189
 31
0.0
  0
LINE
  5
15F
330
1F
100
AcDbEntity
  8
0
  6
HIDDEN
 62
     7
370
    18
100
AcDbLine
 10
1864.3286135077
 20
794.1364991189
 30
0.0
 11
1864.3286135077
 21
790.9364991189
 31
0.0
  0
LINE
  5
160
330
1F
100
AcDbEntity
  8
0
  6
HIDDEN
 62
     7
370
    18
100
AcDbLine
 10
1452.3286135077
 20
790.9364991189
 30
0.0
 11
1452.3286135077
 21
794.1364991189
 31
0.0
  0
LINE
  5
161
330
1F
100
AcDbEntity
  8
0
  6
HIDDEN
 62
     7
370
    18
100
AcDbLine
 10
1440.3286135077
 20
794.1364991189
 30
0.0
 11
1440.3286135077
 21
790.9364991189
 31
0.0
  0
LINE
  5
162
330
1F
100
AcDbEntity
  8
0
  6
HIDDEN
 62
     7
370
    18
100
AcDbLine
 10
1847.9286135077
 20
1230.9364991189
 30
0.0
 11
1849.3286135077
 21
1230.9364991189
 31
0.0
  0
LINE
  5
163
330
1F
100
AcDbEntity
  8
0
  6
HIDDEN
 62
     7
370
    18
100
AcDbLine
 10
1899.3286135077
 20
1404.2904044219
 30
0.0
 11
1897.0286135077
 21
1404.2904044219
 31
0.0
  0
LINE
  5
164
330
1F
100
AcDbEntity
  8
0
  6
HIDDEN
 62
     7
370
    18
100
AcDbLine
 10
1897.0286135077
 20
1396.2904044219
 30
0.0
 11
1899.3286135077
 21
1396.2904044219
 31
0.0
  0
LINE
  5
165
330
1F
100
AcDbEntity
  8
0
  6
HIDDEN
 62
     7
370
    18
100
AcDbLine
 10
1899.3286135077
 20
1515.5825938159
 30
0.0
 11
1897.0286135077
 21
1515.5825938159
 31
0.0
  0
LINE
  5
166
330
1F
100
AcDbEntity
  8
0
  6
HIDDEN
 62
     7
370
    18
100
AcDbLine
 10
1897.0286135077
 20
1507.5825938159
 30
0.0
 11
1899.3286135077
 21
1507.5825938159
 31
0.0
  0
LINE
  5
167
330
1F
100
AcDbEntity
  8
0
  6
HIDDEN
 62
     7
370
    18
100
AcDbLine
 10
1849.3286135077
 20
1253.6364991189
 30
0.0
 11
1873.3286135077
 21
1253.6364991189
 31
0.0
  0
LINE
  5
168
330
1F
100
AcDbEntity
  8
0
  6
HIDDEN
 62
     7
370
    18
100
AcDbLine
 10
1846.3286135077
 20
1255.9364991189
 30
0.0
 11
1899.3286135077
 21
1255.9364991189
 31
0.0
  0
LINE
  5
169
330
1F
100
AcDbEntity
  8
0
  6
HIDDEN
 62
     7
370
    18
100
AcDbLine
 10
1899.3286135077
 20
1655.9364991189
 30
0.0
 11
1846.3286135077
 21
1655.9364991189
 31
0.0
  0
LINE
  5
16A
330
1F
100
AcDbEntity
  8
0
  6
HIDDEN
 62
     7
370
    18
100
AcDbLine
 10
1899.3286135077
 20
1307.9085411638
 30
0.0
 11
1897.0286135077
 21
1307.9085411638
 31
0.0
  0
LINE
  5
16B
330
1F
100
AcDbEntity
  8
0
  6
HIDDEN
 62
     7
370
    18
100
AcDbLine
 10
1897.0286135077
 20
1299.9085411638
 30
0.0
 11
1899.3286135077
 21
1299.9085411638
 31
0.0
  0
LINE
  5
16C
330
1F
100
AcDbEntity
  8
0
  6
HIDDEN
 62
     7
370
    18
100
AcDbLine
 10
1899.3286135077
 20
1611.964457074
 30
0.0
 11
1897.0286135077
 21
1611.964457074
 31
0.0
  0
LINE
  5
16D
330
1F
100
AcDbEntity
  8
0
  6
HIDDEN
 62
     7
370
    18
100
AcDbLine
 10
1897.0286135077
 20
1603.964457074
 30
0.0
 11
1899.3286135077
 21
1603.964457074
 31
0.0
  0
LINE
  5
16E
330
1F
100
AcDbEntity
  8
0
  6
HIDDEN
 62
     7
370
    18
100
AcDbLine
 10
1899.3286135077
 20
1252.2624464668
 30
0.0
 11
1897.0286135077
 21
1252.2624464668
 31
0.0
  0
LINE
  5
16F
330
1F
100
AcDbEntity
  8
0
  6
HIDDEN
 62
     7
370
    18
100
AcDbLine
 10
1897.0286135077
 20
1244.2624464668
 30
0.0
 11
1899.3286135077
 21
1244.2624464668
 31
0.0
  0
LINE
  5
170
330
1F
100
AcDbEntity
  8
0
  6
HIDDEN
 62
     7
370
    18
100
AcDbLine
 10
1899.3286135077
 20
1667.6105517711
 30
0.0
 11
1897.0286135077
 21
1667.6105517711
 31
0.0
  0
LINE
  5
171
330
1F
100
AcDbEntity
  8
0
  6
HIDDEN
 62
     7
370
    18
100
AcDbLine
 10
1897.0286135077
 20
1659.6105517711
 30
0.0
 11
1899.3286135077
 21
1659.6105517711
 31
0.0
  0
LINE
  5
172
330
1F
100
AcDbEntity
  8
2
100
AcDbLine
 10
1291.2788912423
 20
1455.9364991189
 30
0.0
 11
1885.0220167094
 21
1455.9364991189
 31
0.0
  0
LINE
  5
173
330
1F
100
AcDbEntity
  8
2
100
AcDbLine
 10
1696.3286135077
 20
1716.4710460485
 30
0.0
 11
1696.3286135077
 21
960.7979772722
 31
0.0
  0
LINE
  5
174
330
1F
100
AcDbEntity
  8
2
100
AcDbLine
 10
1858.8047877927
 20
1237.9364991189
 30
0.0
 11
1530.3183313654
 21
1237.9364991189
 31
0.0
  0
LINE
  5
175
330
1F
100
AcDbEntity
  8
1
100
AcDbLine
 10
430.3985536855
 20
2159.4393656364
 30
0.0
 11
430.3985536855
 21
2485.4393656364
 31
0.0
  0
LINE
  5
176
330
1F
100
AcDbEntity
  8
1
100
AcDbLine
 10
187.3985536855
 20
2485.4393656364
 30
0.0
 11
187.3985536855
 21
2159.4393656364
 31
0.0
  0
LINE
  5
177
330
1F
100
AcDbEntity
  8
1
100
AcDbLine
 10
322.8985536855
 20
2141.9393656364
 30
0.0
 11
322.8985536855
 21
2159.4393656364
 31
0.0
  0
LINE
  5
178
330
1F
100
AcDbEntity
  8
1
100
AcDbLine
 10
294.8985536855
 20
2159.4393656364
 30
0.0
 11
294.8985536855
 21
2141.9393656364
 31
0.0
  0
LINE
  5
179
330
1F
100
AcDbEntity
  8
1
100
AcDbLine
 10
611.3985536855
 20
2604.9393656364
 30
0.0
 11
611.3985536855
 21
2602.6393656364
 31
0.0
  0
LINE
  5
17A
330
1F
100
AcDbEntity
  8
1
100
AcDbLine
 10
1061.3985536855
 20
2602.6393656364
 30
0.0
 11
1061.3985536855
 21
2604.9393656364
 31
0.0
  0
LINE
  5
17B
330
1F
100
AcDbEntity
  8
1
100
AcDbLine
 10
1061.3985536855
 20
2553.5393656364
 30
0.0
 11
1061.3985536855
 21
2554.9393656364
 31
0.0
  0
LINE
  5
17C
330
1F
100
AcDbEntity
  8
1
100
AcDbLine
 10
611.3985536855
 20
2554.9393656364
 30
0.0
 11
611.3985536855
 21
2553.5393656364
 31
0.0
  0
LINE
  5
17D
330
1F
100
AcDbEntity
  8
1
100
AcDbLine
 10
634.0985536855
 20
2602.6393656364
 30
0.0
 11
634.0985536855
 21
2554.9393656364
 31
0.0
  0
LINE
  5
17E
330
1F
100
AcDbEntity
  8
1
100
AcDbLine
 10
1038.6985536855
 20
2554.9393656364
 30
0.0
 11
1038.6985536855
 21
2602.6393656364
 31
0.0
  0
LINE
  5
17F
330
1F
100
AcDbEntity
  8
1
100
AcDbLine
 10
1071.3985536855
 20
2163.9393656364
 30
0.0
 11
971.3985536855
 21
2163.9393656364
 31
0.0
  0
LINE
  5
180
330
1F
100
AcDbEntity
  8
1
100
AcDbLine
 10
1071.3985536855
 20
2033.9393656364
 30
0.0
 11
1071.3985536855
 21
2163.9393656364
 31
0.0
  0
LINE
  5
181
330
1F
100
AcDbEntity
  8
1
100
AcDbLine
 10
1003.8985536855
 20
2033.9393656364
 30
0.0
 11
1071.3985536855
 21
2033.9393656364
 31
0.0
  0
LINE
  5
182
330
1F
100
AcDbEntity
  8
1
100
AcDbLine
 10
971.3985536855
 20
2163.9393656364
 30
0.0
 11
971.3985536855
 21
2141.9393656364
 31
0.0
  0
LINE
  5
183
330
1F
100
AcDbEntity
  8
1
100
AcDbLine
 10
166.3985536855
 20
2163.9393656364
 30
0.0
 11
66.3985536855
 21
2163.9393656364
 31
0.0
  0
LINE
  5
184
330
1F
100
AcDbEntity
  8
1
100
AcDbLine
 10
166.3985536855
 20
2141.9393656364
 30
0.0
 11
166.3985536855
 21
2163.9393656364
 31
0.0
  0
LINE
  5
185
330
1F
100
AcDbEntity
  8
1
100
AcDbLine
 10
66.3985536855
 20
2033.9393656364
 30
0.0
 11
133.8985536855
 21
2033.9393656364
 31
0.0
  0
LINE
  5
186
330
1F
100
AcDbEntity
  8
1
100
AcDbLine
 10
66.3985536855
 20
2163.9393656364
 30
0.0
 11
66.3985536855
 21
2033.9393656364
 31
0.0
  0
LINE
  5
187
330
1F
100
AcDbEntity
  8
1
100
AcDbLine
 10
1071.3985536855
 20
2133.9393656364
 30
0.0
 11
1086.3985536855
 21
2133.9393656364
 31
0.0
  0
LINE
  5
188
330
1F
100
AcDbEntity
  8
1
100
AcDbLine
 10
146.3985536855
 20
2173.9393656364
 30
0.0
 11
166.3985536855
 21
2173.9393656364
 31
0.0
  0
LINE
  5
189
330
1F
100
AcDbEntity
  8
1
100
AcDbLine
 10
451.3985536855
 20
2173.9393656364
 30
0.0
 11
1046.3985536855
 21
2173.9393656364
 31
0.0
  0
LINE
  5
18A
330
1F
100
AcDbEntity
  8
1
100
AcDbLine
 10
146.3985536855
 20
2553.9393656364
 30
0.0
 11
146.3985536855
 21
2173.9393656364
 31
0.0
  0
LINE
  5
18B
330
1F
100
AcDbEntity
  8
1
100
AcDbLine
 10
1046.3985536855
 20
2173.9393656364
 30
0.0
 11
1046.3985536855
 21
2250.3393656364
 31
0.0
  0
LINE
  5
18C
330
1F
100
AcDbEntity
  8
1
100
AcDbLine
 10
611.3985536855
 20
2553.9393656364
 30
0.0
 11
146.3985536855
 21
2553.9393656364
 31
0.0
  0
LINE
  5
18D
330
1F
100
AcDbEntity
  8
1
100
AcDbLine
 10
1086.3985536855
 20
2593.9393656364
 30
0.0
 11
1038.6985536855
 21
2593.9393656364
 31
0.0
  0
LINE
  5
18E
330
1F
100
AcDbEntity
  8
1
100
AcDbLine
 10
634.0985536855
 20
2593.9393656364
 30
0.0
 11
106.3985536855
 21
2593.9393656364
 31
0.0
  0
LINE
  5
18F
330
1F
100
AcDbEntity
  8
1
100
AcDbLine
 10
1086.3985536855
 20
2133.9393656364
 30
0.0
 11
1086.3985536855
 21
2250.3393656364
 31
0.0
  0
LINE
  5
190
330
1F
100
AcDbEntity
  8
1
100
AcDbLine
 10
1086.3985536855
 20
2553.5393656364
 30
0.0
 11
1086.3985536855
 21
2593.9393656364
 31
0.0
  0
LINE
  5
191
330
1F
100
AcDbEntity
  8
1
100
AcDbLine
 10
106.3985536855
 20
2593.9393656364
 30
0.0
 11
106.3985536855
 21
2163.9393656364
 31
0.0
  0
LINE
  5
192
330
1F
100
AcDbEntity
  8
1
100
AcDbLine
 10
187.3985536855
 20
2159.4393656364
 30
0.0
 11
430.3985536855
 21
2159.4393656364
 31
0.0
  0
LINE
  5
193
330
1F
100
AcDbEntity
  8
1
100
AcDbLine
 10
430.3985536855
 20
2485.4393656364
 30
0.0
 11
187.3985536855
 21
2485.4393656364
 31
0.0
  0
LINE
  5
194
330
1F
100
AcDbEntity
  8
1
100
AcDbLine
 10
451.3985536855
 20
2429.4393656364
 30
0.0
 11
451.3985536855
 21
2169.4393656364
 31
0.0
  0
LINE
  5
195
330
1F
100
AcDbEntity
  8
1
100
AcDbLine
 10
451.3985536855
 20
2169.4393656364
 30
0.0
 11
430.3985536855
 21
2169.4393656364
 31
0.0
  0
LINE
  5
196
330
1F
100
AcDbEntity
  8
1
100
AcDbLine
 10
187.3985536855
 20
2169.4393656364
 30
0.0
 11
166.3985536855
 21
2169.4393656364
 31
0.0
  0
LINE
  5
197
330
1F
100
AcDbEntity
  8
1
100
AcDbLine
 10
166.3985536855
 20
2169.4393656364
 30
0.0
 11
166.3985536855
 21
2429.4393656364
 31
0.0
  0
LINE
  5
198
330
1F
100
AcDbEntity
  8
1
100
AcDbLine
 10
166.3985536855
 20
2429.4393656364
 30
0.0
 11
187.3985536855
 21
2429.4393656364
 31
0.0
  0
LINE
  5
199
330
1F
100
AcDbEntity
  8
1
100
AcDbLine
 10
430.3985536855
 20
2429.4393656364
 30
0.0
 11
451.3985536855
 21
2429.4393656364
 31
0.0
  0
LINE
  5
19A
330
1F
100
AcDbEntity
  8
1
100
AcDbLine
 10
1003.8985536855
 20
1981.9393656364
 30
0.0
 11
1003.8985536855
 21
2141.9393656364
 31
0.0
  0
LINE
  5
19B
330
1F
100
AcDbEntity
  8
1
100
AcDbLine
 10
1003.8985536855
 20
1981.9393656364
 30
0.0
 11
133.8985536855
 21
1981.9393656364
 31
0.0
  0
LINE
  5
19C
330
1F
100
AcDbEntity
  8
1
100
AcDbLine
 10
133.8985536855
 20
1981.9393656364
 30
0.0
 11
133.8985536855
 21
2141.9393656364
 31
0.0
  0
LINE
  5
19D
330
1F
100
AcDbEntity
  8
1
100
AcDbLine
 10
1003.8985536855
 20
2141.9393656364
 30
0.0
 11
133.8985536855
 21
2141.9393656364
 31
0.0
  0
LINE
  5
19E
330
1F
100
AcDbEntity
  8
1
100
AcDbLine
 10
493.1985536855
 20
2250.3393656364
 30
0.0
 11
806.3985536855
 21
2250.3393656364
 31
0.0
  0
LINE
  5
19F
330
1F
100
AcDbEntity
  8
1
100
AcDbLine
 10
493.1985536855
 20
2250.3393656364
 30
0.0
 11
493.1985536855
 21
2553.5393656364
 31
0.0
  0
LINE
  5
1A0
330
1F
100
AcDbEntity
  8
1
100
AcDbLine
 10
493.1985536855
 20
2553.5393656364
 30
0.0
 11
806.3985536855
 21
2553.5393656364
 31
0.0
  0
LINE
  5
1A1
330
1F
100
AcDbEntity
  8
1
100
AcDbLine
 10
1073.5985536855
 20
2250.3393656364
 30
0.0
 11
1073.5985536855
 21
2553.5393656364
 31
0.0
  0
LINE
  5
1A2
330
1F
100
AcDbEntity
  8
1
100
AcDbLine
 10
813.3985536855
 20
2250.3393656364
 30
0.0
 11
1073.5985536855
 21
2250.3393656364
 31
0.0
  0
LINE
  5
1A3
330
1F
100
AcDbEntity
  8
1
100
AcDbLine
 10
813.3985536855
 20
2553.5393656364
 30
0.0
 11
1073.5985536855
 21
2553.5393656364
 31
0.0
  0
LINE
  5
1A4
330
1F
100
AcDbEntity
  8
1
100
AcDbLine
 10
806.3985536855
 20
2250.3393656364
 30
0.0
 11
813.3985536855
 21
2250.3393656364
 31
0.0
  0
LINE
  5
1A5
330
1F
100
AcDbEntity
  8
1
100
AcDbLine
 10
806.3985536855
 20
2553.5393656364
 30
0.0
 11
813.3985536855
 21
2553.5393656364
 31
0.0
  0
LINE
  5
1A6
330
1F
100
AcDbEntity
  8
1
100
AcDbLine
 10
1061.3985536855
 20
2602.6393656364
 30
0.0
 11
611.3985536855
 21
2602.6393656364
 31
0.0
  0
LINE
  5
1A7
330
1F
100
AcDbEntity
  8
1
100
AcDbLine
 10
1061.3985536855
 20
2604.9393656364
 30
0.0
 11
611.3985536855
 21
2604.9393656364
 31
0.0
  0
LINE
  5
1A8
330
1F
100
AcDbEntity
  8
1
100
AcDbLine
 10
611.3985536855
 20
2554.9393656364
 30
0.0
 11
1061.3985536855
 21
2554.9393656364
 31
0.0
  0
LINE
  5
1A9
330
1F
100
AcDbEntity
  8
1
100
AcDbLine
 10
1138.3985536855
 20
2224.9393656364
 30
0.0
 11
1141.3985536855
 21
2224.9393656364
 31
0.0
  0
LINE
  5
1AA
330
1F
100
AcDbEntity
  8
1
100
AcDbLine
 10
1141.3985536855
 20
2224.9393656364
 30
0.0
 11
1141.3985536855
 21
2578.9393656364
 31
0.0
  0
LINE
  5
1AB
330
1F
100
AcDbEntity
  8
1
100
AcDbLine
 10
1138.3985536855
 20
2224.9393656364
 30
0.0
 11
1138.3985536855
 21
2578.9393656364
 31
0.0
  0
LINE
  5
1AC
330
1F
100
AcDbEntity
  8
1
100
AcDbLine
 10
1138.3985536855
 20
2578.9393656364
 30
0.0
 11
1141.3985536855
 21
2578.9393656364
 31
0.0
  0
LINE
  5
1AD
330
1F
100
AcDbEntity
  8
1
100
AcDbLine
 10
1073.5985536855
 20
2250.3393656364
 30
0.0
 11
1138.3985536855
 21
2250.3393656364
 31
0.0
  0
LINE
  5
1AE
330
1F
100
AcDbEntity
  8
1
100
AcDbLine
 10
1073.5985536855
 20
2553.5393656364
 30
0.0
 11
1138.3985536855
 21
2553.5393656364
 31
0.0
  0
LINE
  5
1AF
330
1F
100
AcDbEntity
  8
0
  6
HIDDEN
 62
     7
370
    18
100
AcDbLine
 10
971.3985536855
 20
2033.9393656364
 30
0.0
 11
1003.8985536855
 21
2033.9393656364
 31
0.0
  0
LINE
  5
1B0
330
1F
100
AcDbEntity
  8
0
  6
HIDDEN
 62
     7
370
    18
100
AcDbLine
 10
971.3985536855
 20
2141.9393656364
 30
0.0
 11
971.3985536855
 21
2033.9393656364
 31
0.0
  0
LINE
  5
1B1
330
1F
100
AcDbEntity
  8
0
  6
HIDDEN
 62
     7
370
    18
100
AcDbLine
 10
166.3985536855
 20
2033.9393656364
 30
0.0
 11
166.3985536855
 21
2141.9393656364
 31
0.0
  0
LINE
  5
1B2
330
1F
100
AcDbEntity
  8
0
  6
HIDDEN
 62
     7
370
    18
100
AcDbLine
 10
133.8985536855
 20
2033.9393656364
 30
0.0
 11
166.3985536855
 21
2033.9393656364
 31
0.0
  0
LINE
  5
1B3
330
1F
100
AcDbEntity
  8
0
  6
HIDDEN
 62
     7
370
    18
100
AcDbLine
 10
166.3985536855
 20
2133.9393656364
 30
0.0
 11
971.3985536855
 21
2133.9393656364
 31
0.0
  0
LINE
  5
1B4
330
1F
100
AcDbEntity
  8
0
  6
HIDDEN
 62
     7
370
    18
100
AcDbLine
 10
166.3985536855
 20
2173.9393656364
 30
0.0
 11
451.3985536855
 21
2173.9393656364
 31
0.0
  0
LINE
  5
1B5
330
1F
100
AcDbEntity
  8
0
  6
HIDDEN
 62
     7
370
    18
100
AcDbLine
 10
1046.3985536855
 20
2250.3393656364
 30
0.0
 11
1046.3985536855
 21
2553.9393656364
 31
0.0
  0
LINE
  5
1B6
330
1F
100
AcDbEntity
  8
0
  6
HIDDEN
 62
     7
370
    18
100
AcDbLine
 10
1046.3985536855
 20
2553.9393656364
 30
0.0
 11
611.3985536855
 21
2553.9393656364
 31
0.0
  0
LINE
  5
1B7
330
1F
100
AcDbEntity
  8
0
  6
HIDDEN
 62
     7
370
    18
100
AcDbLine
 10
1038.6985536855
 20
2593.9393656364
 30
0.0
 11
634.0985536855
 21
2593.9393656364
 31
0.0
  0
LINE
  5
1B8
330
1F
100
AcDbEntity
  8
0
  6
HIDDEN
 62
     7
370
    18
100
AcDbLine
 10
1086.3985536855
 20
2250.3393656364
 30
0.0
 11
1086.3985536855
 21
2553.5393656364
 31
0.0
  0
LINE
  5
1B9
330
1F
100
AcDbEntity
  8
0
  6
HIDDEN
 62
     7
370
    18
100
AcDbLine
 10
106.3985536855
 20
2133.9393656364
 30
0.0
 11
166.3985536855
 21
2133.9393656364
 31
0.0
  0
LINE
  5
1BA
330
1F
100
AcDbEntity
  8
0
  6
HIDDEN
 62
     7
370
    18
100
AcDbLine
 10
106.3985536855
 20
2163.9393656364
 30
0.0
 11
106.3985536855
 21
2133.9393656364
 31
0.0
  0
LINE
  5
1BB
330
1F
100
AcDbEntity
  8
0
  6
HIDDEN
 62
     7
370
    18
100
AcDbLine
 10
971.3985536855
 20
2133.9393656364
 30
0.0
 11
1071.3985536855
 21
2133.9393656364
 31
0.0
  0
LINE
  5
1BC
330
1F
100
AcDbEntity
  8
0
  6
HIDDEN
 62
     7
370
    18
100
AcDbLine
 10
1051.3985536855
 20
2168.9393656364
 30
0.0
 11
1051.3985536855
 21
2558.9393656364
 31
0.0
  0
LINE
  5
1BD
330
1F
100
AcDbEntity
  8
0
  6
HIDDEN
 62
     7
370
    18
100
AcDbLine
 10
1051.3985536855
 20
2558.9393656364
 30
0.0
 11
141.3985536855
 21
2558.9393656364
 31
0.0
  0
LINE
  5
1BE
330
1F
100
AcDbEntity
  8
0
  6
HIDDEN
 62
     7
370
    18
100
AcDbLine
 10
141.3985536855
 20
2558.9393656364
 30
0.0
 11
141.3985536855
 21
2168.9393656364
 31
0.0
  0
LINE
  5
1BF
330
1F
100
AcDbEntity
  8
0
  6
HIDDEN
 62
     7
370
    18
100
AcDbLine
 10
141.3985536855
 20
2168.9393656364
 30
0.0
 11
1051.3985536855
 21
2168.9393656364
 31
0.0
  0
CIRCLE
  5
1C0
330
1F
100
AcDbEntity
  8
0
  6
HIDDEN
 62
     7
370
    18
100
AcDbCircle
 10
156.3985536855
 20
2151.9393656364
 30
0.0
 40
6.000000000000455
  0
CIRCLE
  5
1C1
330
1F
100
AcDbEntity
  8
0
  6
HIDDEN
 62
     7
370
    18
100
AcDbCircle
 10
596.3985536855
 20
2151.9393656364
 30
0.0
 40
6.000000000000455
  0
CIRCLE
  5
1C2
330
1F
100
AcDbEntity
  8
0
  6
HIDDEN
 62
     7
370
    18
100
AcDbCircle
 10
1036.3985536855
 20
2151.9393656364
 30
0.0
 40
6.000000000000455
  0
CIRCLE
  5
1C3
330
1F
100
AcDbEntity
  8
0
  6
HIDDEN
 62
     7
370
    18
100
AcDbCircle
 10
596.3985536855
 20
2575.9393656364
 30
0.0
 40
5.999999999999545
  0
CIRCLE
  5
1C4
330
1F
100
AcDbEntity
  8
0
  6
HIDDEN
 62
     7
370
    18
100
AcDbCircle
 10
1036.3985536855
 20
2575.9393656364
 30
0.0
 40
5.999999999999545
  0
CIRCLE
  5
1C5
330
1F
100
AcDbEntity
  8
0
  6
HIDDEN
 62
     7
370
    18
100
AcDbCircle
 10
156.3985536855
 20
2575.9393656364
 30
0.0
 40
5.999999999999545
  0
LINE
  5
1C6
330
1F
100
AcDbEntity
  8
0
  6
HIDDEN
 62
     7
370
    18
100
AcDbLine
 10
241.0633858151
 20
2189.4393656364
 30
0.0
 11
250.2360443631
 21
2189.4393656364
 31
0.0
  0
LINE
  5
1C7
330
1F
100
AcDbEntity
  8
0
  6
HIDDEN
 62
     7
370
    18
100
AcDbLine
 10
241.0633858151
 20
2189.4393656364
 30
0.0
 11
241.0633858151
 21
2409.4393656364
 31
0.0
  0
LINE
  5
1C8
330
1F
100
AcDbEntity
  8
0
  6
HIDDEN
 62
     7
370
    18
100
AcDbLine
 10
241.0633858151
 20
2409.4393656364
 30
0.0
 11
250.2360443631
 21
2409.4393656364
 31
0.0
  0
LINE
  5
1C9
330
1F
100
AcDbEntity
  8
0
  6
HIDDEN
 62
     7
370
    18
100
AcDbLine
 10
250.2360443631
 20
2485.4393656364
 30
0.0
 11
250.2360443631
 21
2409.4393656364
 31
0.0
  0
LINE
  5
1CA
330
1F
100
AcDbEntity
  8
0
  6
HIDDEN
 62
     7
370
    18
100
AcDbLine
 10
367.5610630079
 20
2485.4393656364
 30
0.0
 11
367.5610630079
 21
2409.4393656364
 31
0.0
  0
LINE
  5
1CB
330
1F
100
AcDbEntity
  8
0
  6
HIDDEN
 62
     7
370
    18
100
AcDbLine
 10
367.5610630079
 20
2409.4393656364
 30
0.0
 11
376.7337215558
 21
2409.4393656364
 31
0.0
  0
LINE
  5
1CC
330
1F
100
AcDbEntity
  8
0
  6
HIDDEN
 62
     7
370
    18
100
AcDbLine
 10
376.7337215558
 20
2409.4393656364
 30
0.0
 11
376.7337215558
 21
2189.4393656364
 31
0.0
  0
LINE
  5
1CD
330
1F
100
AcDbEntity
  8
0
  6
HIDDEN
 62
     7
370
    18
100
AcDbLine
 10
367.5610630079
 20
2189.4393656364
 30
0.0
 11
376.7337215558
 21
2189.4393656364
 31
0.0
  0
LINE
  5
1CE
330
1F
100
AcDbEntity
  8
0
  6
HIDDEN
 62
     7
370
    18
100
AcDbLine
 10
367.5610630079
 20
2189.4393656364
 30
0.0
 11
367.5610630079
 21
2159.4393656364
 31
0.0
  0
LINE
  5
1CF
330
1F
100
AcDbEntity
  8
0
  6
HIDDEN
 62
     7
370
    18
100
AcDbLine
 10
250.2360443631
 20
2189.4393656364
 30
0.0
 11
250.2360443631
 21
2159.4393656364
 31
0.0
  0
LINE
  5
1D0
330
1F
100
AcDbEntity
  8
0
  6
HIDDEN
 62
     7
370
    18
100
AcDbLine
 10
392.8985536855
 20
2189.4393656364
 30
0.0
 11
392.8985536855
 21
2409.4393656364
 31
0.0
  0
LINE
  5
1D1
330
1F
100
AcDbEntity
  8
0
  6
HIDDEN
 62
     7
370
    18
100
AcDbLine
 10
392.8985536855
 20
2189.4393656364
 30
0.0
 11
376.7337215558
 21
2189.4393656364
 31
0.0
  0
LINE
  5
1D2
330
1F
100
AcDbEntity
  8
0
  6
HIDDEN
 62
     7
370
    18
100
AcDbLine
 10
392.8985536855
 20
2409.4393656364
 30
0.0
 11
376.7337215558
 21
2409.4393656364
 31
0.0
  0
LINE
  5
1D3
330
1F
100
AcDbEntity
  8
0
  6
HIDDEN
 62
     7
370
    18
100
AcDbLine
 10
224.8985536855
 20
2189.4393656364
 30
0.0
 11
224.8985536855
 21
2409.4393656364
 31
0.0
  0
LINE
  5
1D4
330
1F
100
AcDbEntity
  8
0
  6
HIDDEN
 62
     7
370
    18
100
AcDbLine
 10
241.0633858151
 20
2189.4393656364
 30
0.0
 11
224.8985536855
 21
2189.4393656364
 31
0.0
  0
LINE
  5
1D5
330
1F
100
AcDbEntity
  8
0
  6
HIDDEN
 62
     7
370
    18
100
AcDbLine
 10
241.0633858151
 20
2409.4393656364
 30
0.0
 11
224.8985536855
 21
2409.4393656364
 31
0.0
  0
LINE
  5
1D6
330
1F
100
AcDbEntity
  8
0
  6
HIDDEN
 62
     7
370
    18
100
AcDbLine
 10
250.2360443631
 20
2409.4393656364
 30
0.0
 11
367.5610630079
 21
2409.4393656364
 31
0.0
  0
LINE
  5
1D7
330
1F
100
AcDbEntity
  8
0
  6
HIDDEN
 62
     7
370
    18
100
AcDbLine
 10
250.2360443631
 20
2189.4393656364
 30
0.0
 11
367.5610630079
 21
2189.4393656364
 31
0.0
  0
LINE
  5
1D8
330
1F
100
AcDbEntity
  8
0
  6
HIDDEN
 62
     7
370
    18
100
AcDbLine
 10
430.3985536855
 20
2169.4393656364
 30
0.0
 11
187.3985536855
 21
2169.4393656364
 31
0.0
  0
LINE
  5
1D9
330
1F
100
AcDbEntity
  8
0
  6
HIDDEN
 62
     7
370
    18
100
AcDbLine
 10
187.3985536855
 20
2429.4393656364
 30
0.0
 11
430.3985536855
 21
2429.4393656364
 31
0.0
  0
LINE
  5
1DA
330
1F
100
AcDbEntity
  8
0
  6
HIDDEN
 62
     7
370
    18
100
AcDbLine
 10
233.8985536855
 20
2024.4393656364
 30
0.0
 11
383.8985536855
 21
2024.4393656364
 31
0.0
  0
LINE
  5
1DB
330
1F
100
AcDbEntity
  8
0
  6
HIDDEN
 62
     7
370
    18
100
AcDbLine
 10
233.8985536855
 20
2099.4393656364
 30
0.0
 11
383.8985536855
 21
2099.4393656364
 31
0.0
  0
LINE
  5
1DC
330
1F
100
AcDbEntity
  8
0
  6
HIDDEN
 62
     7
370
    18
100
AcDbLine
 10
845.3029372856
 20
2024.4393656364
 30
0.0
 11
911.3985536855
 21
2024.4393656364
 31
0.0
  0
LINE
  5
1DD
330
1F
100
AcDbEntity
  8
0
  6
HIDDEN
 62
     7
370
    18
100
AcDbLine
 10
761.3985536855
 20
2024.4393656364
 30
0.0
 11
845.3029372856
 21
2024.4393656364
 31
0.0
  0
LINE
  5
1DE
330
1F
100
AcDbEntity
  8
0
  6
HIDDEN
 62
     7
370
    18
100
AcDbLine
 10
845.3029372856
 20
2099.4393656364
 30
0.0
 11
911.3985536855
 21
2099.4393656364
 31
0.0
  0
LINE
  5
1DF
330
1F
100
AcDbEntity
  8
0
  6
HIDDEN
 62
     7
370
    18
100
AcDbLine
 10
761.3985536855
 20
2099.4393656364
 30
0.0
 11
845.3029372856
 21
2099.4393656364
 31
0.0
  0
LINE
  5
1E0
330
1F
100
AcDbEntity
  8
0
  6
HIDDEN
 62
     7
370
    18
100
AcDbLine
 10
494.3985536855
 20
2251.9393656364
 30
0.0
 11
494.3985536855
 21
2551.9393656364
 31
0.0
  0
LINE
  5
1E1
330
1F
100
AcDbEntity
  8
0
  6
HIDDEN
 62
     7
370
    18
100
AcDbLine
 10
494.3985536855
 20
2251.9393656364
 30
0.0
 11
806.3985536855
 21
2251.9393656364
 31
0.0
  0
LINE
  5
1E2
330
1F
100
AcDbEntity
  8
0
  6
HIDDEN
 62
     7
370
    18
100
AcDbLine
 10
494.3985536855
 20
2551.9393656364
 30
0.0
 11
806.3985536855
 21
2551.9393656364
 31
0.0
  0
LINE
  5
1E3
330
1F
100
AcDbEntity
  8
0
  6
HIDDEN
 62
     7
370
    18
100
AcDbLine
 10
813.3985536855
 20
2251.9393656364
 30
0.0
 11
1072.3985536855
 21
2251.9393656364
 31
0.0
  0
LINE
  5
1E4
330
1F
100
AcDbEntity
  8
0
  6
HIDDEN
 62
     7
370
    18
100
AcDbLine
 10
1072.3985536855
 20
2251.9393656364
 30
0.0
 11
1072.3985536855
 21
2551.9393656364
 31
0.0
  0
LINE
  5
1E5
330
1F
100
AcDbEntity
  8
0
  6
HIDDEN
 62
     7
370
    18
100
AcDbLine
 10
813.3985536855
 20
2551.9393656364
 30
0.0
 11
1072.3985536855
 21
2551.9393656364
 31
0.0
  0
LINE
  5
1E6
330
1F
100
AcDbEntity
  8
0
  6
HIDDEN
 62
     7
370
    18
100
AcDbLine
 10
806.3985536855
 20
2551.9393656364
 30
0.0
 11
813.3985536855
 21
2551.9393656364
 31
0.0
  0
LINE
  5
1E7
330
1F
100
AcDbEntity
  8
0
  6
HIDDEN
 62
     7
370
    18
100
AcDbLine
 10
806.3985536855
 20
2251.9393656364
 30
0.0
 11
813.3985536855
 21
2251.9393656364
 31
0.0
  0
LINE
  5
1E8
330
1F
100
AcDbEntity
  8
0
  6
HIDDEN
 62
     7
370
    18
100
AcDbLine
 10
1072.3985536855
 20
2251.9393656364
 30
0.0
 11
1141.3985536855
 21
2251.9393656364
 31
0.0
  0
LINE
  5
1E9
330
1F
100
AcDbEntity
  8
0
  6
HIDDEN
 62
     7
370
    18
100
AcDbLine
 10
1072.3985536855
 20
2551.9393656364
 30
0.0
 11
1141.3985536855
 21
2551.9393656364
 31
0.0
  0
LINE
  5
1EA
330
1F
100
AcDbEntity
  8
0
  6
HIDDEN
 62
     7
370
    18
100
AcDbLine
 10
322.8985536855
 20
2099.4393656364
 30
0.0
 11
322.8985536855
 21
2141.9393656364
 31
0.0
  0
LINE
  5
1EB
330
1F
100
AcDbEntity
  8
0
  6
HIDDEN
 62
     7
370
    18
100
AcDbLine
 10
294.8985536855
 20
2141.9393656364
 30
0.0
 11
294.8985536855
 21
2099.4393656364
 31
0.0
  0
LINE
  5
1EC
330
1F
100
AcDbEntity
  8
0
  6
HIDDEN
 62
     7
370
    18
100
AcDbLine
 10
383.8985536855
 20
2024.4393656364
 30
0.0
 11
383.8985536855
 21
2099.4393656364
 31
0.0
  0
LINE
  5
1ED
330
1F
100
AcDbEntity
  8
0
  6
HIDDEN
 62
     7
370
    18
100
AcDbLine
 10
233.8985536855
 20
2099.4393656364
 30
0.0
 11
233.8985536855
 21
2024.4393656364
 31
0.0
  0
LINE
  5
1EE
330
1F
100
AcDbEntity
  8
0
  6
HIDDEN
 62
     7
370
    18
100
AcDbLine
 10
911.3985536855
 20
2024.4393656364
 30
0.0
 11
911.3985536855
 21
2099.4393656364
 31
0.0
  0
LINE
  5
1EF
330
1F
100
AcDbEntity
  8
0
  6
HIDDEN
 62
     7
370
    18
100
AcDbLine
 10
761.3985536855
 20
2099.4393656364
 30
0.0
 11
761.3985536855
 21
2024.4393656364
 31
0.0
  0
LINE
  5
1F0
330
1F
100
AcDbEntity
  8
0
  6
HIDDEN
 62
     7
370
    18
100
AcDbLine
 10
888.0446483825
 20
2604.9393656364
 30
0.0
 11
888.0446483825
 21
2602.6393656364
 31
0.0
  0
LINE
  5
1F1
330
1F
100
AcDbEntity
  8
0
  6
HIDDEN
 62
     7
370
    18
100
AcDbLine
 10
896.0446483825
 20
2602.6393656364
 30
0.0
 11
896.0446483825
 21
2604.9393656364
 31
0.0
  0
LINE
  5
1F2
330
1F
100
AcDbEntity
  8
0
  6
HIDDEN
 62
     7
370
    18
100
AcDbLine
 10
776.7524589884
 20
2604.9393656364
 30
0.0
 11
776.7524589884
 21
2602.6393656364
 31
0.0
  0
LINE
  5
1F3
330
1F
100
AcDbEntity
  8
0
  6
HIDDEN
 62
     7
370
    18
100
AcDbLine
 10
784.7524589884
 20
2602.6393656364
 30
0.0
 11
784.7524589884
 21
2604.9393656364
 31
0.0
  0
LINE
  5
1F4
330
1F
100
AcDbEntity
  8
0
  6
HIDDEN
 62
     7
370
    18
100
AcDbLine
 10
1036.3985536855
 20
2551.9393656364
 30
0.0
 11
1036.3985536855
 21
2604.9393656364
 31
0.0
  0
LINE
  5
1F5
330
1F
100
AcDbEntity
  8
0
  6
HIDDEN
 62
     7
370
    18
100
AcDbLine
 10
636.3985536855
 20
2604.9393656364
 30
0.0
 11
636.3985536855
 21
2551.9393656364
 31
0.0
  0
LINE
  5
1F6
330
1F
100
AcDbEntity
  8
0
  6
HIDDEN
 62
     7
370
    18
100
AcDbLine
 10
680.3705957304
 20
2604.9393656364
 30
0.0
 11
680.3705957304
 21
2602.6393656364
 31
0.0
  0
LINE
  5
1F7
330
1F
100
AcDbEntity
  8
0
  6
HIDDEN
 62
     7
370
    18
100
AcDbLine
 10
688.3705957304
 20
2602.6393656364
 30
0.0
 11
688.3705957304
 21
2604.9393656364
 31
0.0
  0
LINE
  5
1F8
330
1F
100
AcDbEntity
  8
0
  6
HIDDEN
 62
     7
370
    18
100
AcDbLine
 10
984.4265116406
 20
2604.9393656364
 30
0.0
 11
984.4265116406
 21
2602.6393656364
 31
0.0
  0
LINE
  5
1F9
330
1F
100
AcDbEntity
  8
0
  6
HIDDEN
 62
     7
370
    18
100
AcDbLine
 10
992.4265116406
 20
2602.6393656364
 30
0.0
 11
992.4265116406
 21
2604.9393656364
 31
0.0
  0
LINE
  5
1FA
330
1F
100
AcDbEntity
  8
0
  6
HIDDEN
 62
     7
370
    18
100
AcDbLine
 10
624.7245010333
 20
2604.9393656364
 30
0.0
 11
624.7245010333
 21
2602.6393656364
 31
0.0
  0
LINE
  5
1FB
330
1F
100
AcDbEntity
  8
0
  6
HIDDEN
 62
     7
370
    18
100
AcDbLine
 10
632.7245010333
 20
2602.6393656364
 30
0.0
 11
632.7245010333
 21
2604.9393656364
 31
0.0
  0
LINE
  5
1FC
330
1F
100
AcDbEntity
  8
0
  6
HIDDEN
 62
     7
370
    18
100
AcDbLine
 10
1040.0726063376
 20
2604.9393656364
 30
0.0
 11
1040.0726063376
 21
2602.6393656364
 31
0.0
  0
LINE
  5
1FD
330
1F
100
AcDbEntity
  8
0
  6
HIDDEN
 62
     7
370
    18
100
AcDbLine
 10
1048.0726063376
 20
2602.6393656364
 30
0.0
 11
1048.0726063376
 21
2604.9393656364
 31
0.0
  0
LINE
  5
1FE
330
1F
100
AcDbEntity
  8
0
  6
HIDDEN
 62
     7
370
    18
100
AcDbLine
 10
1141.3985536855
 20
2572.9393656364
 30
0.0
 11
1138.3985536855
 21
2572.9393656364
 31
0.0
  0
LINE
  5
1FF
330
1F
100
AcDbEntity
  8
0
  6
HIDDEN
 62
     7
370
    18
100
AcDbLine
 10
1138.3985536855
 20
2564.9393656364
 30
0.0
 11
1141.3985536855
 21
2564.9393656364
 31
0.0
  0
LINE
  5
200
330
1F
100
AcDbEntity
  8
0
  6
HIDDEN
 62
     7
370
    18
100
AcDbLine
 10
1141.3985536855
 20
2505.9393656364
 30
0.0
 11
1138.3985536855
 21
2505.9393656364
 31
0.0
  0
LINE
  5
201
330
1F
100
AcDbEntity
  8
0
  6
HIDDEN
 62
     7
370
    18
100
AcDbLine
 10
1138.3985536855
 20
2497.9393656364
 30
0.0
 11
1141.3985536855
 21
2497.9393656364
 31
0.0
  0
LINE
  5
202
330
1F
100
AcDbEntity
  8
0
  6
HIDDEN
 62
     7
370
    18
100
AcDbLine
 10
1141.3985536855
 20
2405.9393656364
 30
0.0
 11
1138.3985536855
 21
2405.9393656364
 31
0.0
  0
LINE
  5
203
330
1F
100
AcDbEntity
  8
0
  6
HIDDEN
 62
     7
370
    18
100
AcDbLine
 10
1138.3985536855
 20
2397.9393656364
 30
0.0
 11
1141.3985536855
 21
2397.9393656364
 31
0.0
  0
LINE
  5
204
330
1F
100
AcDbEntity
  8
0
  6
HIDDEN
 62
     7
370
    18
100
AcDbLine
 10
1141.3985536855
 20
2305.9393656364
 30
0.0
 11
1138.3985536855
 21
2305.9393656364
 31
0.0
  0
LINE
  5
205
330
1F
100
AcDbEntity
  8
0
  6
HIDDEN
 62
     7
370
    18
100
AcDbLine
 10
1138.3985536855
 20
2297.9393656364
 30
0.0
 11
1141.3985536855
 21
2297.9393656364
 31
0.0
  0
LINE
  5
206
330
1F
100
AcDbEntity
  8
0
  6
HIDDEN
 62
     7
370
    18
100
AcDbLine
 10
1141.3985536855
 20
2238.9393656364
 30
0.0
 11
1138.3985536855
 21
2238.9393656364
 31
0.0
  0
LINE
  5
207
330
1F
100
AcDbEntity
  8
0
  6
HIDDEN
 62
     7
370
    18
100
AcDbLine
 10
1138.3985536855
 20
2230.9393656364
 30
0.0
 11
1141.3985536855
 21
2230.9393656364
 31
0.0
  0
CIRCLE
  5
208
330
1F
100
AcDbEntity
  8
基礎穴
100
AcDbCircle
 10
156.3985536855
 20
2151.9393656364
 30
0.0
 40
5.999999999999996
  0
CIRCLE
  5
209
330
1F
100
AcDbEntity
  8
基礎穴
100
AcDbCircle
 10
596.3985536855
 20
2151.9393656364
 30
0.0
 40
6.000000000000023
  0
CIRCLE
  5
20A
330
1F
100
AcDbEntity
  8
基礎穴
100
AcDbCircle
 10
1036.3985536855
 20
2151.9393656364
 30
0.0
 40
5.999999999999915
  0
CIRCLE
  5
20B
330
1F
100
AcDbEntity
  8
基礎穴
100
AcDbCircle
 10
1036.3985536855
 20
2575.9393656364
 30
0.0
 40
5.999999999999915
  0
CIRCLE
  5
20C
330
1F
100
AcDbEntity
  8
基礎穴
100
AcDbCircle
 10
596.3985536855
 20
2575.9393656364
 30
0.0
 40
6.000000000000023
  0
CIRCLE
  5
20D
330
1F
100
AcDbEntity
  8
基礎穴
100
AcDbCircle
 10
156.3985536855
 20
2575.9393656364
 30
0.0
 40
5.999999999999996
  0
LINE
  5
20E
330
1F
100
AcDbEntity
  8
2
100
AcDbLine
 10
836.3985536855
 20
2009.937299322
 30
0.0
 11
836.3985536855
 21
2597.2190022496
 31
0.0
  0
LINE
  5
20F
330
1F
100
AcDbEntity
  8
2
100
AcDbLine
 10
464.3987531397
 20
2401.9393656364
 30
0.0
 11
1122.7910848946
 21
2401.9393656364
 31
0.0
  0
ENDSEC
  0
SECTION
  2
OBJECTS
  0
DICTIONARY
  5
C
330
0
100
AcDbDictionary
281
     1
  3
ACAD_GROUP
350
D
  3
ACAD_LAYOUT
350
1A
  3
ACAD_MLINESTYLE
350
17
  3
ACAD_PLOTSETTINGS
350
19
  3
ACAD_PLOTSTYLENAME
350
E
  3
ACAD_SCALELIST
350
47
  3
DWGPROPS
350
210
  0
DICTIONARY
  5
D
102
{ACAD_REACTORS
330
C
102
}
330
C
100
AcDbDictionary
281
     1
  0
DICTIONARY
  5
1A
102
{ACAD_REACTORS
330
C
102
}
330
C
100
AcDbDictionary
281
     1
  3
Layout1
350
1E
  3
Layout2
350
26
  3
Model
350
22
  0
DICTIONARY
  5
17
102
{ACAD_REACTORS
330
C
102
}
330
C
100
AcDbDictionary
281
     1
  3
Standard
350
18
  0
DICTIONARY
  5
19
102
{ACAD_REACTORS
330
C
102
}
330
C
100
AcDbDictionary
281
     1
  0
ACDBDICTIONARYWDFLT
  5
E
102
{ACAD_REACTORS
330
C
102
}
330
C
100
AcDbDictionary
281
     1
  3
Normal
350
F
100
AcDbDictionaryWithDefault
340
F
  0
DICTIONARY
  5
47
102
{ACAD_REACTORS
330
C
102
}
330
C
100
AcDbDictionary
281
     1
  3
A0
350
48
  3
A1
350
49
  3
A2
350
4A
  3
A3
350
4B
  3
A4
350
4C
  3
A5
350
4D
  3
A6
350
4E
  3
A7
350
4F
  3
A8
350
50
  3
A9
350
51
  3
B0
350
52
  3
B1
350
53
  3
B2
350
54
  3
B3
350
55
  3
B4
350
56
  3
B5
350
57
  3
B6
350
58
  0
XRECORD
  5
210
102
{ACAD_REACTORS
330
C
102
}
330
C
100
AcDbXrecord
280
     1
  1
DWGPROPS COOKIE
  2

  3

  4

  6

  7

  8
yuta.kunimatsu
  9

300
=
301
=
302
=
303
=
304
=
305
=
306
=
307
=
308
=
309
=
 40
0.0
 41
2460115.24609456
 42
2460115.246095
  1

 90
        0
  0
LAYOUT
  5
1E
102
{ACAD_REACTORS
330
1A
102
}
330
1A
100
AcDbPlotSettings
  1

  2
none_device
  4

  6

 40
0.0
 41
0.0
 42
0.0
 43
0.0
 44
0.0
 45
0.0
 46
0.0
 47
0.0
 48
0.0
 49
0.0
140
0.0
141
0.0
142
1.0
143
1.0
 70
   688
 72
     1
 73
     0
 74
     5
  7

 75
    16
147
1.0
148
0.0
149
0.0
100
AcDbLayout
  1
Layout1
 70
     1
 71
     1
 10
0.0
 20
0.0
 11
420.0
 21
297.0
 12
0.0
 22
0.0
 32
0.0
 14
1.0000000000E+20
 24
1.0000000000E+20
 34
1.0000000000E+20
 15
-1.0000000000E+20
 25
-1.0000000000E+20
 35
-1.0000000000E+20
146
0.0
 13
0.0
 23
0.0
 33
0.0
 16
1.0
 26
0.0
 36
0.0
 17
0.0
 27
1.0
 37
0.0
 76
     0
330
1B
  0
LAYOUT
  5
26
102
{ACAD_REACTORS
330
1A
102
}
330
1A
100
AcDbPlotSettings
  1

  2
none_device
  4

  6

 40
0.0
 41
0.0
 42
0.0
 43
0.0
 44
0.0
 45
0.0
 46
0.0
 47
0.0
 48
0.0
 49
0.0
140
0.0
141
0.0
142
1.0
143
1.0
 70
   688
 72
     1
 73
     0
 74
     5
  7

 75
    16
147
1.0
148
0.0
149
0.0
100
AcDbLayout
  1
Layout2
 70
     1
 71
     2
 10
0.0
 20
0.0
 11
0.0
 21
0.0
 12
0.0
 22
0.0
 32
0.0
 14
0.0
 24
0.0
 34
0.0
 15
0.0
 25
0.0
 35
0.0
146
0.0
 13
0.0
 23
0.0
 33
0.0
 16
1.0
 26
0.0
 36
0.0
 17
0.0
 27
1.0
 37
0.0
 76
     0
330
23
  0
LAYOUT
  5
22
102
{ACAD_REACTORS
330
1A
102
}
330
1A
100
AcDbPlotSettings
  1

  2
none_device
  4
Letter_(8.50_x_11.00_Inches)
  6

 40
6.35
 41
6.35
 42
6.35000508
 43
6.35000508
 44
215.9
 45
279.4
 46
0.0
 47
0.0
 48
0.0
 49
0.0
140
0.0
141
0.0
142
1.0
143
1.0
 70
  1712
 72
     1
 73
     0
 74
     0
  7

 75
     0
147
1.0
148
0.0
149
0.0
100
AcDbLayout
  1
Model
 70
     1
 71
     0
 10
0.0
 20
0.0
 11
2100.0
 21
2970.0
 12
0.0
 22
0.0
 32
0.0
 14
0.0
 24
0.0
 34
0.0
 15
2100.0
 25
2970.0
 35
0.0
146
0.0
 13
0.0
 23
0.0
 33
0.0
 16
1.0
 26
0.0
 36
0.0
 17
0.0
 27
1.0
 37
0.0
 76
     0
330
1F
331
29
  0
MLINESTYLE
  5
18
102
{ACAD_REACTORS
330
17
102
}
330
17
100
AcDbMlineStyle
  2
Standard
 70
     0
  3

 62
   256
 51
90.0
 52
90.0
 71
     2
 49
0.5
 62
   256
  6
BYLAYER
 49
-0.5
 62
   256
  6
BYLAYER
  0
ACDBPLACEHOLDER
  5
F
102
{ACAD_REACTORS
330
E
102
}
330
E
  0
SCALE
  5
48
102
{ACAD_REACTORS
330
47
102
}
330
47
100
AcDbScale
 70
     0
300
1:1
140
1.0
141
1.0
290
     1
  0
SCALE
  5
49
102
{ACAD_REACTORS
330
47
102
}
330
47
100
AcDbScale
 70
     0
300
1:2
140
1.0
141
2.0
290
     0
  0
SCALE
  5
4A
102
{ACAD_REACTORS
330
47
102
}
330
47
100
AcDbScale
 70
     0
300
1:4
140
1.0
141
4.0
290
     0
  0
SCALE
  5
4B
102
{ACAD_REACTORS
330
47
102
}
330
47
100
AcDbScale
 70
     0
300
1:5
140
1.0
141
5.0
290
     0
  0
SCALE
  5
4C
102
{ACAD_REACTORS
330
47
102
}
330
47
100
AcDbScale
 70
     0
300
1:8
140
1.0
141
8.0
290
     0
  0
SCALE
  5
4D
102
{ACAD_REACTORS
330
47
102
}
330
47
100
AcDbScale
 70
     0
300
1:10
140
1.0
141
10.0
290
     0
  0
SCALE
  5
4E
102
{ACAD_REACTORS
330
47
102
}
330
47
100
AcDbScale
 70
     0
300
1:16
140
1.0
141
16.0
290
     0
  0
SCALE
  5
4F
102
{ACAD_REACTORS
330
47
102
}
330
47
100
AcDbScale
 70
     0
300
1:20
140
1.0
141
20.0
290
     0
  0
SCALE
  5
50
102
{ACAD_REACTORS
330
47
102
}
330
47
100
AcDbScale
 70
     0
300
1:30
140
1.0
141
30.0
290
     0
  0
SCALE
  5
51
102
{ACAD_REACTORS
330
47
102
}
330
47
100
AcDbScale
 70
     0
300
1:40
140
1.0
141
40.0
290
     0
  0
SCALE
  5
52
102
{ACAD_REACTORS
330
47
102
}
330
47
100
AcDbScale
 70
     0
300
1:50
140
1.0
141
50.0
290
     0
  0
SCALE
  5
53
102
{ACAD_REACTORS
330
47
102
}
330
47
100
AcDbScale
 70
     0
300
1:100
140
1.0
141
100.0
290
     0
  0
SCALE
  5
54
102
{ACAD_REACTORS
330
47
102
}
330
47
100
AcDbScale
 70
     0
300
2:1
140
2.0
141
1.0
290
     0
  0
SCALE
  5
55
102
{ACAD_REACTORS
330
47
102
}
330
47
100
AcDbScale
 70
     0
300
4:1
140
4.0
141
1.0
290
     0
  0
SCALE
  5
56
102
{ACAD_REACTORS
330
47
102
}
330
47
100
AcDbScale
 70
     0
300
8:1
140
8.0
141
1.0
290
     0
  0
SCALE
  5
57
102
{ACAD_REACTORS
330
47
102
}
330
47
100
AcDbScale
 70
     0
300
10:1
140
10.0
141
1.0
290
     0
  0
SCALE
  5
58
102
{ACAD_REACTORS
330
47
102
}
330
47
100
AcDbScale
 70
     0
300
100:1
140
100.0
141
1.0
290
     0
  0
ENDSEC
  0
EOF
