  0
SECTION
  2
HEADER
  9
$ACADVER
  1
AC1015
  9
$ACADMAINTVER
 70
     6
  9
$DWGCODEPAGE
  3
DOS932
  9
$INSBASE
 10
0.0
 20
0.0
 30
0.0
  9
$EXTMIN
 10
0.0
 20
0.0
 30
0.0
  9
$EXTMAX
 10
2100.0
 20
2970.0
 30
0.0
  9
$LIMMIN
 10
0.0
 20
0.0
  9
$LIMMAX
 10
2100.0
 20
2970.0
  9
$ORTHOMODE
 70
     0
  9
$REGENMODE
 70
     1
  9
$FILLMODE
 70
     1
  9
$QTEXTMODE
 70
     0
  9
$MIRRTEXT
 70
     1
  9
$LTSCALE
 40
10.0
  9
$ATTMODE
 70
     1
  9
$TEXTSIZE
 40
35.2777777778
  9
$TRACEWID
 40
1.0
  9
$TEXTSTYLE
  7
Standard
  9
$CLAYER
  8
0
  9
$CELTYPE
  6
ByLayer
  9
$CECOLOR
 62
   256
  9
$CELTSCALE
 40
1.0
  9
$DISPSILH
 70
     0
  9
$DIMSCALE
 40
1.0
  9
$DIMASZ
 40
15.0
  9
$DIMEXO
 40
10.0
  9
$DIMDLI
 40
3.75
  9
$DIMRND
 40
0.0
  9
$DIMDLE
 40
0.0
  9
$DIMEXE
 40
10.0
  9
$DIMTP
 40
0.0
  9
$DIMTM
 40
0.0
  9
$DIMTXT
 40
35.2777777778
  9
$DIMCEN
 40
2.5
  9
$DIMTSZ
 40
0.0
  9
$DIMTOL
 70
     0
  9
$DIMLIM
 70
     0
  9
$DIMTIH
 70
     1
  9
$DIMTOH
 70
     1
  9
$DIMSE1
 70
     0
  9
$DIMSE2
 70
     0
  9
$DIMTAD
 70
     1
  9
$DIMZIN
 70
     0
  9
$DIMBLK
  1

  9
$DIMASO
 70
     1
  9
$DIMSHO
 70
     1
  9
$DIMPOST
  1

  9
$DIMAPOST
  1

  9
$DIMALT
 70
     0
  9
$DIMALTD
 70
     3
  9
$DIMALTF
 40
0.0393700787
  9
$DIMLFAC
 40
1.0
  9
$DIMTOFL
 70
     1
  9
$DIMTVP
 40
0.0
  9
$DIMTIX
 70
     0
  9
$DIMSOXD
 70
     0
  9
$DIMSAH
 70
     0
  9
$DIMBLK1
  1

  9
$DIMBLK2
  1

  9
$DIMSTYLE
  2
ISO-25
  9
$DIMCLRD
 70
     0
  9
$DIMCLRE
 70
     0
  9
$DIMCLRT
 70
     0
  9
$DIMTFAC
 40
1.0
  9
$DIMGAP
 40
15.24
  9
$DIMJUST
 70
     0
  9
$DIMSD1
 70
     0
  9
$DIMSD2
 70
     0
  9
$DIMTOLJ
 70
     0
  9
$DIMTZIN
 70
     0
  9
$DIMALTZ
 70
     0
  9
$DIMALTTZ
 70
     0
  9
$DIMUPT
 70
     0
  9
$DIMDEC
 70
     0
  9
$DIMTDEC
 70
     0
  9
$DIMALTU
 70
     2
  9
$DIMALTTD
 70
     3
  9
$DIMTXSTY
  7
Standard
  9
$DIMAUNIT
 70
     0
  9
$DIMADEC
 70
     2
  9
$DIMALTRND
 40
0.0
  9
$DIMAZIN
 70
     0
  9
$DIMDSEP
 70
    44
  9
$DIMATFIT
 70
     3
  9
$DIMFRAC
 70
     0
  9
$DIMLDRBLK
  1

  9
$DIMLUNIT
 70
     2
  9
$DIMLWD
 70
    -2
  9
$DIMLWE
 70
    -2
  9
$DIMTMOVE
 70
     0
  9
$LUNITS
 70
     2
  9
$LUPREC
 70
     2
  9
$SKETCHINC
 40
1.0
  9
$FILLETRAD
 40
0.0
  9
$AUNITS
 70
     0
  9
$AUPREC
 70
     2
  9
$MENU
  1
.
  9
$ELEVATION
 40
0.0
  9
$PELEVATION
 40
0.0
  9
$THICKNESS
 40
0.0
  9
$LIMCHECK
 70
     0
  9
$CHAMFERA
 40
0.0
  9
$CHAMFERB
 40
0.0
  9
$CHAMFERC
 40
0.0
  9
$CHAMFERD
 40
0.0
  9
$SKPOLY
 70
     0
  9
$TDCREATE
 40
2460115.620824028
  9
$TDUCREATE
 40
2460115.245824028
  9
$TDUPDATE
 40
2460115.620824456
  9
$TDUUPDATE
 40
2460115.245824456
  9
$TDINDWG
 40
0.0000000116
  9
$TDUSRTIMER
 40
0.0000000116
  9
$USRTIMER
 70
     1
  9
$ANGBASE
 50
0.0
  9
$ANGDIR
 70
     0
  9
$PDMODE
 70
     0
  9
$PDSIZE
 40
-1.0
  9
$PLINEWID
 40
0.0
  9
$SPLFRAME
 70
     0
  9
$SPLINETYPE
 70
     6
  9
$SPLINESEGS
 70
     8
  9
$HANDSEED
  5
21A
  9
$SURFTAB1
 70
     6
  9
$SURFTAB2
 70
     6
  9
$SURFTYPE
 70
     6
  9
$SURFU
 70
     6
  9
$SURFV
 70
     6
  9
$UCSBASE
  2

  9
$UCSNAME
  2

  9
$UCSORG
 10
0.0
 20
0.0
 30
0.0
  9
$UCSXDIR
 10
1.0
 20
0.0
 30
0.0
  9
$UCSYDIR
 10
0.0
 20
1.0
 30
0.0
  9
$UCSORTHOREF
  2

  9
$UCSORTHOVIEW
 70
     0
  9
$UCSORGTOP
 10
0.0
 20
0.0
 30
0.0
  9
$UCSORGBOTTOM
 10
0.0
 20
0.0
 30
0.0
  9
$UCSORGLEFT
 10
0.0
 20
0.0
 30
0.0
  9
$UCSORGRIGHT
 10
0.0
 20
0.0
 30
0.0
  9
$UCSORGFRONT
 10
0.0
 20
0.0
 30
0.0
  9
$UCSORGBACK
 10
0.0
 20
0.0
 30
0.0
  9
$PUCSBASE
  2

  9
$PUCSNAME
  2

  9
$PUCSORG
 10
0.0
 20
0.0
 30
0.0
  9
$PUCSXDIR
 10
1.0
 20
0.0
 30
0.0
  9
$PUCSYDIR
 10
0.0
 20
1.0
 30
0.0
  9
$PUCSORTHOREF
  2

  9
$PUCSORTHOVIEW
 70
     0
  9
$PUCSORGTOP
 10
0.0
 20
0.0
 30
0.0
  9
$PUCSORGBOTTOM
 10
0.0
 20
0.0
 30
0.0
  9
$PUCSORGLEFT
 10
0.0
 20
0.0
 30
0.0
  9
$PUCSORGRIGHT
 10
0.0
 20
0.0
 30
0.0
  9
$PUCSORGFRONT
 10
0.0
 20
0.0
 30
0.0
  9
$PUCSORGBACK
 10
0.0
 20
0.0
 30
0.0
  9
$USERI1
 70
     0
  9
$USERI2
 70
     0
  9
$USERI3
 70
     0
  9
$USERI4
 70
     0
  9
$USERI5
 70
     0
  9
$USERR1
 40
0.0
  9
$USERR2
 40
0.0
  9
$USERR3
 40
0.0
  9
$USERR4
 40
0.0
  9
$USERR5
 40
0.0
  9
$WORLDVIEW
 70
     1
  9
$SHADEDGE
 70
     3
  9
$SHADEDIF
 70
    70
  9
$TILEMODE
 70
     1
  9
$MAXACTVP
 70
    64
  9
$PINSBASE
 10
0.0
 20
0.0
 30
0.0
  9
$PLIMCHECK
 70
     0
  9
$PEXTMIN
 10
1.0000000000E+20
 20
1.0000000000E+20
 30
1.0000000000E+20
  9
$PEXTMAX
 10
-1.0000000000E+20
 20
-1.0000000000E+20
 30
-1.0000000000E+20
  9
$PLIMMIN
 10
0.0
 20
0.0
  9
$PLIMMAX
 10
420.0
 20
297.0
  9
$UNITMODE
 70
     0
  9
$VISRETAIN
 70
     1
  9
$PLINEGEN
 70
     0
  9
$PSLTSCALE
 70
     1
  9
$TREEDEPTH
 70
  3020
  9
$CMLSTYLE
  2
Standard
  9
$CMLJUST
 70
     0
  9
$CMLSCALE
 40
20.0
  9
$PROXYGRAPHICS
 70
     1
  9
$MEASUREMENT
 70
     1
  9
$CELWEIGHT
370
    -1
  9
$ENDCAPS
280
     0
  9
$JOINSTYLE
280
     0
  9
$LWDISPLAY
290
     1
  9
$INSUNITS
 70
     4
  9
$HYPERLINKBASE
  1

  9
$STYLESHEET
  1

  9
$XEDIT
290
     1
  9
$CEPSNTYPE
380
     0
  9
$PSTYLEMODE
290
     1
  9
$FINGERPRINTGUID
  2
{423da3a2-ca8b-4a81-8596-6b278b96be59}
  9
$VERSIONGUID
  2
{FAEB1C32-E019-11D5-929B-00C0DF256EC4}
  9
$EXTNAMES
290
     1
  9
$PSVPSCALE
 40
0.0
  9
$OLESTARTUP
290
     0
  0
ENDSEC
  0
SECTION
  2
CLASSES
  0
CLASS
  1
ACDBDICTIONARYWDFLT
  2
AcDbDictionaryWithDefault
  3
ObjectDBX Classes
 90
        0
280
     0
281
     0
  0
CLASS
  1
VISUALSTYLE
  2
AcDbVisualStyle
  3
ObjectDBX Classes
 90
     4095
280
     0
281
     0
  0
CLASS
  1
MATERIAL
  2
AcDbMaterial
  3
ObjectDBX Classes
 90
     1153
280
     0
281
     0
  0
CLASS
  1
SCALE
  2
AcDbScale
  3
ObjectDBX Classes
 90
     1153
280
     0
281
     0
  0
CLASS
  1
TABLESTYLE
  2
AcDbTableStyle
  3
ObjectDBX Classes
 90
     4095
280
     0
281
     0
  0
CLASS
  1
MLEADERSTYLE
  2
AcDbMLeaderStyle
  3
ACDB_MLEADERSTYLE_CLASS
 90
     4095
280
     0
281
     0
  0
CLASS
  1
SUN
  2
AcDbSun
  3
SCENEOE
 90
     1153
280
     0
281
     0
  0
CLASS
  1
ACDBPLACEHOLDER
  2
AcDbPlaceHolder
  3
ObjectDBX Classes
 90
        0
280
     0
281
     0
  0
CLASS
  1
LAYOUT
  2
AcDbLayout
  3
ObjectDBX Classes
 90
        0
280
     0
281
     0
  0
ENDSEC
  0
SECTION
  2
TABLES
  0
TABLE
  2
VPORT
  5
8
330
0
100
AcDbSymbolTable
 70
     1
  0
VPORT
  5
29
330
8
100
AcDbSymbolTableRecord
100
AcDbViewportTableRecord
  2
*Active
 70
     0
 10
0.0
 20
0.0
 11
1.0
 21
1.0
 12
1050.0
 22
1485.0
 13
0.0
 23
0.0
 14
10.0
 24
10.0
 15
10.0
 25
10.0
 16
0.0
 26
0.0
 36
1.0
 17
0.0
 27
0.0
 37
0.0
 40
2970.0
 41
0.7070707071
 42
50.0
 43
0.0
 44
0.0
 50
0.0
 51
0.0
 71
     0
 72
  2000
 73
     1
 74
     3
 75
     0
 76
     0
 77
     0
 78
     0
281
     0
 65
     1
110
0.0
120
0.0
130
0.0
111
1.0
121
0.0
131
0.0
112
0.0
122
1.0
132
0.0
 79
     0
146
0.0
  0
ENDTAB
  0
TABLE
  2
LTYPE
  5
5
330
0
100
AcDbSymbolTable
 70
     6
  0
LTYPE
  5
14
330
5
100
AcDbSymbolTableRecord
100
AcDbLinetypeTableRecord
  2
ByBlock
 70
     0
  3

 72
    65
 73
     0
 40
0.0
  0
LTYPE
  5
15
330
5
100
AcDbSymbolTableRecord
100
AcDbLinetypeTableRecord
  2
ByLayer
 70
     0
  3

 72
    65
 73
     0
 40
0.0
  0
LTYPE
  5
16
330
5
100
AcDbSymbolTableRecord
100
AcDbLinetypeTableRecord
  2
Continuous
 70
     0
  3
Solid line
 72
    65
 73
     0
 40
0.0
  0
LTYPE
  5
5E
330
5
100
AcDbSymbolTableRecord
100
AcDbLinetypeTableRecord
  2
HIDDEN
 70
     0
  3
Hidden __ __ __ __ __ __ __ __ __ __ __ __ __ __
 72
    65
 73
     2
 40
1.905
 49
1.27
 74
     0
 49
-0.635
 74
     0
  0
LTYPE
  5
5F
330
5
100
AcDbSymbolTableRecord
100
AcDbLinetypeTableRecord
  2
PHANTOM
 70
     0
  3
Phantom ______  __  __  ______  __  __  ______
 72
    65
 73
     6
 40
12.7
 49
6.35
 74
     0
 49
-1.27
 74
     0
 49
1.27
 74
     0
 49
-1.27
 74
     0
 49
1.27
 74
     0
 49
-1.27
 74
     0
  0
LTYPE
  5
60
330
5
100
AcDbSymbolTableRecord
100
AcDbLinetypeTableRecord
  2
CENTER
 70
     0
  3
Center ____ _ ____ _ ____ _ ____ _ ____ _ ____
 72
    65
 73
     4
 40
10.16
 49
6.35
 74
     0
 49
-1.27
 74
     0
 49
1.27
 74
     0
 49
-1.27
 74
     0
  0
LTYPE
  5
61
330
5
100
AcDbSymbolTableRecord
100
AcDbLinetypeTableRecord
  2
CENTERX2
 70
     0
  3
Center (2x) ________  __  ________  __  _____
 72
    65
 73
     4
 40
20.32
 49
12.7
 74
     0
 49
-2.54
 74
     0
 49
2.54
 74
     0
 49
-2.54
 74
     0
  0
LTYPE
  5
62
330
5
100
AcDbSymbolTableRecord
100
AcDbLinetypeTableRecord
  2
DOT2
 70
     0
  3
Dot (.5x) ........................................
 72
    65
 73
     2
 40
0.635
 49
0.0
 74
     0
 49
-0.635
 74
     0
  0
ENDTAB
  0
TABLE
  2
LAYER
  5
2
330
0
100
AcDbSymbolTable
 70
     6
  0
LAYER
  5
10
330
2
100
AcDbSymbolTableRecord
100
AcDbLayerTableRecord
  2
0
 70
     0
 62
     7
  6
Continuous
370
    -3
390
F
  0
LAYER
  5
63
330
2
100
AcDbSymbolTableRecord
100
AcDbLayerTableRecord
  2
1
 70
     0
 62
     4
  6
Continuous
370
    25
390
F
  0
LAYER
  5
64
330
2
100
AcDbSymbolTableRecord
100
AcDbLayerTableRecord
  2
2
 70
     0
 62
     3
  6
CENTERX2
370
    -3
390
F
  0
LAYER
  5
65
330
2
100
AcDbSymbolTableRecord
100
AcDbLayerTableRecord
  2
3
 70
     0
 62
     2
  6
Continuous
370
    -3
390
F
  0
LAYER
  5
66
330
2
100
AcDbSymbolTableRecord
100
AcDbLayerTableRecord
  2
4
 70
     0
 62
     7
  6
Continuous
370
    -3
390
F
  0
LAYER
  5
67
330
2
100
AcDbSymbolTableRecord
100
AcDbLayerTableRecord
  2
基礎穴
 70
     0
 62
     1
  6
PHANTOM
370
    35
390
F
  0
ENDTAB
  0
TABLE
  2
STYLE
  5
3
330
0
100
AcDbSymbolTable
 70
     2
  0
STYLE
  5
11
330
3
100
AcDbSymbolTableRecord
100
AcDbTextStyleTableRecord
  2
Standard
 70
     0
 40
0.0
 41
1.0
 50
0.0
 71
     0
 42
35.2777777778
  3
txt
  4
bigfont
  0
STYLE
  5
68
330
3
100
AcDbSymbolTableRecord
100
AcDbTextStyleTableRecord
  2
SLDTEXTSTYLE0
 70
     0
 40
0.0
 41
0.7
 50
0.0
 71
     0
 42
35.2777777778
  3
TXT
  4
bigfont
  0
ENDTAB
  0
TABLE
  2
VIEW
  5
6
330
0
100
AcDbSymbolTable
 70
     0
  0
ENDTAB
  0
TABLE
  2
UCS
  5
7
330
0
100
AcDbSymbolTable
 70
     0
  0
ENDTAB
  0
TABLE
  2
APPID
  5
9
330
0
100
AcDbSymbolTable
 70
     1
  0
APPID
  5
12
330
9
100
AcDbSymbolTableRecord
100
AcDbRegAppTableRecord
  2
ACAD
 70
     0
  0
ENDTAB
  0
TABLE
  2
DIMSTYLE
  5
A
330
0
100
AcDbSymbolTable
 70
     1
100
AcDbDimStyleTable
  0
DIMSTYLE
105
27
330
A
100
AcDbSymbolTableRecord
100
AcDbDimStyleTableRecord
  2
ISO-25
 70
     0
 41
2.5
 42
0.625
 43
3.75
 44
1.25
 73
     0
 74
     0
 77
     1
 78
     8
140
2.5
141
2.5
143
0.0393700787
147
0.625
171
     3
172
     1
178
     0
271
     2
272
     2
274
     3
278
    44
283
     0
284
     8
340
11
  0
ENDTAB
  0
TABLE
  2
BLOCK_RECORD
  5
1
330
0
100
AcDbSymbolTable
 70
     2
  0
BLOCK_RECORD
  5
1F
330
1
100
AcDbSymbolTableRecord
100
AcDbBlockTableRecord
  2
*Model_Space
340
22
  0
BLOCK_RECORD
  5
1B
330
1
100
AcDbSymbolTableRecord
100
AcDbBlockTableRecord
  2
*Paper_Space
340
1E
  0
BLOCK_RECORD
  5
23
330
1
100
AcDbSymbolTableRecord
100
AcDbBlockTableRecord
  2
*Paper_Space0
340
26
  0
BLOCK_RECORD
  5
D9
330
1
100
AcDbSymbolTableRecord
100
AcDbBlockTableRecord
  2
SW_CENTERMARKSYMBOL_0
340
0
102
{BLKREFS
331
E4
102
}
  0
ENDTAB
  0
ENDSEC
  0
SECTION
  2
BLOCKS
  0
BLOCK
  5
20
330
1F
100
AcDbEntity
  8
0
100
AcDbBlockBegin
  2
*Model_Space
 70
     0
 10
0.0
 20
0.0
 30
0.0
  3
*Model_Space
  1

  0
ENDBLK
  5
21
330
1F
100
AcDbEntity
  8
0
100
AcDbBlockEnd
  0
BLOCK
  5
1C
330
1B
100
AcDbEntity
 67
     1
  8
0
100
AcDbBlockBegin
  2
*Paper_Space
 70
     0
 10
0.0
 20
0.0
 30
0.0
  3
*Paper_Space
  1

  0
ENDBLK
  5
1D
330
1B
100
AcDbEntity
 67
     1
  8
0
100
AcDbBlockEnd
  0
BLOCK
  5
24
330
23
100
AcDbEntity
  8
0
100
AcDbBlockBegin
  2
*Paper_Space0
 70
     0
 10
0.0
 20
0.0
 30
0.0
  3
*Paper_Space0
  1

  0
ENDBLK
  5
25
330
23
100
AcDbEntity
  8
0
100
AcDbBlockEnd
  0
BLOCK
  5
DA
330
D9
100
AcDbEntity
  8
0
100
AcDbBlockBegin
  2
SW_CENTERMARKSYMBOL_0
 70
     0
 10
0.0
 20
0.0
 30
0.0
  3
SW_CENTERMARKSYMBOL_0
  1

  0
LINE
  5
DC
330
D9
100
AcDbEntity
  8
2
 62
     0
100
AcDbLine
 10
0.0
 20
0.0
 30
0.0
 11
0.0
 21
2.5
 31
0.0
  0
LINE
  5
DD
330
D9
100
AcDbEntity
  8
2
 62
     0
100
AcDbLine
 10
0.0
 20
0.0
 30
0.0
 11
-2.5
 21
0.0
 31
0.0
  0
LINE
  5
DE
330
D9
100
AcDbEntity
  8
2
 62
     0
100
AcDbLine
 10
0.0
 20
0.0
 30
0.0
 11
0.0
 21
-2.5
 31
0.0
  0
LINE
  5
DF
330
D9
100
AcDbEntity
  8
2
 62
     0
100
AcDbLine
 10
0.0
 20
0.0
 30
0.0
 11
2.5
 21
0.0
 31
0.0
  0
LINE
  5
E0
330
D9
100
AcDbEntity
  8
2
 62
     0
100
AcDbLine
 10
0.0
 20
5.0
 30
0.0
 11
0.0
 21
227.5
 31
0.0
  0
LINE
  5
E1
330
D9
100
AcDbEntity
  8
2
 62
     0
100
AcDbLine
 10
-5.0
 20
0.0
 30
0.0
 11
-227.5
 21
0.0
 31
0.0
  0
LINE
  5
E2
330
D9
100
AcDbEntity
  8
2
 62
     0
100
AcDbLine
 10
0.0
 20
-5.0
 30
0.0
 11
0.0
 21
-227.5
 31
0.0
  0
LINE
  5
E3
330
D9
100
AcDbEntity
  8
2
 62
     0
100
AcDbLine
 10
5.0
 20
0.0
 30
0.0
 11
227.5
 21
0.0
 31
0.0
  0
ENDBLK
  5
DB
330
D9
100
AcDbEntity
  8
0
100
AcDbBlockEnd
  0
ENDSEC
  0
SECTION
  2
ENTITIES
  0
MTEXT
  5
69
330
1F
100
AcDbEntity
  8
0
  6
Continuous
 62
     7
370
     0
100
AcDbMText
 10
1377.667979535
 20
638.5695353226
 30
0.0
 40
26.4583333333
 41
0.0
 71
     1
 72
     1
  1
LL02540YG01K-R2
  7
SLDTEXTSTYLE0
 73
     1
 44
1.0
  0
LINE
  5
6A
330
1F
100
AcDbEntity
  8
1
100
AcDbLine
 10
1015.4828008821
 20
924.0423813049
 30
0.0
 11
1015.4828008821
 21
888.0423813049
 31
0.0
  0
LINE
  5
6B
330
1F
100
AcDbEntity
  8
1
100
AcDbLine
 10
1050.4828008821
 20
888.0423813049
 30
0.0
 11
1050.4828008821
 21
924.0423813049
 31
0.0
  0
LINE
  5
6C
330
1F
100
AcDbEntity
  8
1
100
AcDbLine
 10
115.4828008822
 20
924.0423813049
 30
0.0
 11
115.4828008822
 21
888.0423813049
 31
0.0
  0
LINE
  5
6D
330
1F
100
AcDbEntity
  8
1
100
AcDbLine
 10
150.4828008821
 20
888.0423813049
 30
0.0
 11
150.4828008821
 21
924.0423813049
 31
0.0
  0
LINE
  5
6E
330
1F
100
AcDbEntity
  8
1
100
AcDbLine
 10
437.9828008822
 20
999.0423813049
 30
0.0
 11
437.9828008822
 21
1003.5423813049
 31
0.0
  0
LINE
  5
6F
330
1F
100
AcDbEntity
  8
1
100
AcDbLine
 10
990.4828008822
 20
1518.5423813049
 30
0.0
 11
120.4828008822
 21
1518.5423813049
 31
0.0
  0
LINE
  5
70
330
1F
100
AcDbEntity
  8
1
100
AcDbLine
 10
990.4828008822
 20
1003.5423813049
 30
0.0
 11
990.4828008822
 21
1518.5423813049
 31
0.0
  0
LINE
  5
71
330
1F
100
AcDbEntity
  8
1
100
AcDbLine
 10
120.4828008822
 20
1003.5423813049
 30
0.0
 11
990.4828008822
 21
1003.5423813049
 31
0.0
  0
LINE
  5
72
330
1F
100
AcDbEntity
  8
1
100
AcDbLine
 10
120.4828008822
 20
1518.5423813049
 30
0.0
 11
120.4828008822
 21
1003.5423813049
 31
0.0
  0
LINE
  5
73
330
1F
100
AcDbEntity
  8
1
100
AcDbLine
 10
92.9828008821
 20
888.0423813049
 30
0.0
 11
1072.9828008822
 21
888.0423813049
 31
0.0
  0
LINE
  5
74
330
1F
100
AcDbEntity
  8
1
100
AcDbLine
 10
1072.9828008822
 20
884.8423813049
 30
0.0
 11
1072.9828008822
 21
888.0423813049
 31
0.0
  0
LINE
  5
75
330
1F
100
AcDbEntity
  8
1
100
AcDbLine
 10
92.9828008821
 20
884.8423813049
 30
0.0
 11
1072.9828008822
 21
884.8423813049
 31
0.0
  0
LINE
  5
76
330
1F
100
AcDbEntity
  8
1
100
AcDbLine
 10
92.9828008821
 20
884.8423813049
 30
0.0
 11
92.9828008821
 21
888.0423813049
 31
0.0
  0
LINE
  5
77
330
1F
100
AcDbEntity
  8
1
100
AcDbLine
 10
92.9828008821
 20
823.0423813049
 30
0.0
 11
92.9828008821
 21
826.2423813049
 31
0.0
  0
LINE
  5
78
330
1F
100
AcDbEntity
  8
1
100
AcDbLine
 10
1072.9828008822
 20
826.2423813049
 30
0.0
 11
92.9828008821
 21
826.2423813049
 31
0.0
  0
LINE
  5
79
330
1F
100
AcDbEntity
  8
1
100
AcDbLine
 10
1072.9828008821
 20
823.0423813049
 30
0.0
 11
1072.9828008822
 21
826.2423813049
 31
0.0
  0
LINE
  5
7A
330
1F
100
AcDbEntity
  8
1
100
AcDbLine
 10
1072.9828008821
 20
823.0423813049
 30
0.0
 11
92.9828008821
 21
823.0423813049
 31
0.0
  0
LINE
  5
7B
330
1F
100
AcDbEntity
  8
1
100
AcDbLine
 10
1036.1828008822
 20
826.2423813049
 30
0.0
 11
1036.1828008822
 21
884.8423813049
 31
0.0
  0
LINE
  5
7C
330
1F
100
AcDbEntity
  8
1
100
AcDbLine
 10
129.7828008822
 20
826.2423813049
 30
0.0
 11
129.7828008822
 21
884.8423813049
 31
0.0
  0
LINE
  5
7D
330
1F
100
AcDbEntity
  8
1
100
AcDbLine
 10
957.9828008822
 20
1003.5423813049
 30
0.0
 11
957.9828008822
 21
999.0423813049
 31
0.0
  0
LINE
  5
7E
330
1F
100
AcDbEntity
  8
1
100
AcDbLine
 10
990.4828008822
 20
1003.5423813049
 30
0.0
 11
1057.9828008822
 21
1003.5423813049
 31
0.0
  0
LINE
  5
7F
330
1F
100
AcDbEntity
  8
1
100
AcDbLine
 10
1057.9828008822
 20
1003.5423813049
 30
0.0
 11
1057.9828008822
 21
999.0423813049
 31
0.0
  0
LINE
  5
80
330
1F
100
AcDbEntity
  8
1
100
AcDbLine
 10
957.9828008822
 20
999.0423813049
 30
0.0
 11
1057.9828008822
 21
999.0423813049
 31
0.0
  0
LINE
  5
81
330
1F
100
AcDbEntity
  8
1
100
AcDbLine
 10
52.9828008822
 20
999.0423813049
 30
0.0
 11
152.9828008821
 21
999.0423813049
 31
0.0
  0
LINE
  5
82
330
1F
100
AcDbEntity
  8
1
100
AcDbLine
 10
52.9828008822
 20
1003.5423813049
 30
0.0
 11
120.4828008822
 21
1003.5423813049
 31
0.0
  0
LINE
  5
83
330
1F
100
AcDbEntity
  8
1
100
AcDbLine
 10
52.9828008822
 20
1003.5423813049
 30
0.0
 11
52.9828008822
 21
999.0423813049
 31
0.0
  0
LINE
  5
84
330
1F
100
AcDbEntity
  8
1
100
AcDbLine
 10
152.9828008821
 20
1003.5423813049
 30
0.0
 11
152.9828008821
 21
999.0423813049
 31
0.0
  0
LINE
  5
85
330
1F
100
AcDbEntity
  8
1
100
AcDbLine
 10
1072.9828008822
 20
929.0423813049
 30
0.0
 11
1072.9828008822
 21
924.0423813049
 31
0.0
  0
LINE
  5
86
330
1F
100
AcDbEntity
  8
1
100
AcDbLine
 10
92.9828008822
 20
924.0423813049
 30
0.0
 11
1072.9828008822
 21
924.0423813049
 31
0.0
  0
LINE
  5
87
330
1F
100
AcDbEntity
  8
1
100
AcDbLine
 10
92.9828008822
 20
929.0423813049
 30
0.0
 11
92.9828008822
 21
924.0423813049
 31
0.0
  0
LINE
  5
88
330
1F
100
AcDbEntity
  8
1
100
AcDbLine
 10
92.9828008822
 20
929.0423813049
 30
0.0
 11
1072.9828008822
 21
929.0423813049
 31
0.0
  0
LINE
  5
89
330
1F
100
AcDbEntity
  8
1
100
AcDbLine
 10
92.9828008822
 20
994.0423813049
 30
0.0
 11
1072.9828008822
 21
994.0423813049
 31
0.0
  0
LINE
  5
8A
330
1F
100
AcDbEntity
  8
1
100
AcDbLine
 10
92.9828008822
 20
999.0423813049
 30
0.0
 11
92.9828008822
 21
994.0423813049
 31
0.0
  0
LINE
  5
8B
330
1F
100
AcDbEntity
  8
1
100
AcDbLine
 10
1072.9828008822
 20
999.0423813049
 30
0.0
 11
1072.9828008822
 21
994.0423813049
 31
0.0
  0
LINE
  5
8C
330
1F
100
AcDbEntity
  8
1
100
AcDbLine
 10
1057.9828008822
 20
999.0423813049
 30
0.0
 11
1072.9828008822
 21
999.0423813049
 31
0.0
  0
LINE
  5
8D
330
1F
100
AcDbEntity
  8
1
100
AcDbLine
 10
152.9828008821
 20
999.0423813049
 30
0.0
 11
957.9828008822
 21
999.0423813049
 31
0.0
  0
LINE
  5
8E
330
1F
100
AcDbEntity
  8
1
100
AcDbLine
 10
1037.9828008821
 20
994.0423813049
 30
0.0
 11
1037.9828008821
 21
929.0423813049
 31
0.0
  0
LINE
  5
8F
330
1F
100
AcDbEntity
  8
1
100
AcDbLine
 10
127.9828008822
 20
994.0423813049
 30
0.0
 11
127.9828008822
 21
929.0423813049
 31
0.0
  0
LINE
  5
90
330
1F
100
AcDbEntity
  8
1
100
AcDbLine
 10
837.9828008821
 20
1631.0423813049
 30
0.0
 11
837.9828008821
 21
1634.0423813049
 31
0.0
  0
LINE
  5
91
330
1F
100
AcDbEntity
  8
1
100
AcDbLine
 10
371.9828008822
 20
1631.0423813049
 30
0.0
 11
837.9828008821
 21
1631.0423813049
 31
0.0
  0
LINE
  5
92
330
1F
100
AcDbEntity
  8
1
100
AcDbLine
 10
371.9828008822
 20
1631.0423813049
 30
0.0
 11
371.9828008822
 21
1634.0423813049
 31
0.0
  0
LINE
  5
93
330
1F
100
AcDbEntity
  8
1
100
AcDbLine
 10
371.9828008822
 20
1634.0423813049
 30
0.0
 11
837.9828008821
 21
1634.0423813049
 31
0.0
  0
LINE
  5
94
330
1F
100
AcDbEntity
  8
1
100
AcDbLine
 10
398.0076013367
 20
1631.0423813049
 30
0.0
 11
406.5676974794
 21
1518.5423813049
 31
0.0
  0
ARC
  5
95
330
1F
100
AcDbEntity
  8
1
100
AcDbCircle
 10
845.9828008822
 20
1306.0423813049
 30
0.0
 40
260.2
100
AcDbArc
 50
0.0
 51
90.0
  0
LWPOLYLINE
  5
96
330
1F
100
AcDbEntity
  8
1
100
AcDbPolyline
 90
        3
 70
   128
 43
0.0
 10
679.4134828425
 20
1003.5423813049
 10
689.7446850705
 20
1000.405892024
 10
694.6047545507
 20
999.0423813049
  0
LINE
  5
97
330
1F
100
AcDbEntity
  8
1
100
AcDbLine
 10
812.1828008822
 20
1566.2423813049
 30
0.0
 11
812.1828008822
 21
1631.0423813049
 31
0.0
  0
LINE
  5
98
330
1F
100
AcDbEntity
  8
1
100
AcDbLine
 10
1106.1828008822
 20
1299.0423813049
 30
0.0
 11
1106.1828008822
 21
1306.0423813049
 31
0.0
  0
LINE
  5
99
330
1F
100
AcDbEntity
  8
1
100
AcDbLine
 10
845.9828008822
 20
1566.2423813049
 30
0.0
 11
812.1828008822
 21
1566.2423813049
 31
0.0
  0
LWPOLYLINE
  5
9A
330
1F
100
AcDbEntity
  8
1
100
AcDbPolyline
 90
        3
 70
   128
 43
0.0
 10
882.9507951912
 20
999.0423813049
 10
887.7303582181
 20
1000.5174403387
 10
896.7806332295
 20
1003.5423813049
  0
ARC
  5
9B
330
1F
100
AcDbEntity
  8
1
100
AcDbCircle
 10
792.9828008822
 20
1299.0423813049
 30
0.0
 40
313.2
100
AcDbArc
 50
309.0934793541
 51
0.0
  0
CIRCLE
  5
9C
330
1F
100
AcDbEntity
  8
0
  6
HIDDEN
 62
     7
370
    18
100
AcDbCircle
 10
295.4828008822
 20
1151.0423813049
 30
0.0
 40
14.0
  0
ARC
  5
9D
330
1F
100
AcDbEntity
  8
0
  6
HIDDEN
 62
     7
370
    18
100
AcDbCircle
 10
295.4828008822
 20
1151.0423813049
 30
0.0
 40
121.5000000000001
100
AcDbArc
 50
298.8696782224
 51
241.1303217776
  0
LINE
  5
9E
330
1F
100
AcDbEntity
  8
0
  6
HIDDEN
 62
     7
370
    18
100
AcDbLine
 10
354.1453102045
 20
1044.6423813049
 30
0.0
 11
236.8202915598
 21
1044.6423813049
 31
0.0
  0
LINE
  5
9F
330
1F
100
AcDbEntity
  8
0
  6
HIDDEN
 62
     7
370
    18
100
AcDbLine
 10
152.9828008822
 20
1003.5423813049
 30
0.0
 11
152.9828008822
 21
1039.0423813049
 31
0.0
  0
LINE
  5
A0
330
1F
100
AcDbEntity
  8
0
  6
HIDDEN
 62
     7
370
    18
100
AcDbLine
 10
437.9828008822
 20
1003.5423813049
 30
0.0
 11
437.9828008822
 21
1039.0423813049
 31
0.0
  0
LINE
  5
A1
330
1F
100
AcDbEntity
  8
0
  6
HIDDEN
 62
     7
370
    18
100
AcDbLine
 10
437.9828008822
 20
1039.0423813049
 30
0.0
 11
152.9828008822
 21
1039.0423813049
 31
0.0
  0
LINE
  5
A2
330
1F
100
AcDbEntity
  8
0
  6
HIDDEN
 62
     7
370
    18
100
AcDbLine
 10
379.4828008822
 20
1039.0423813049
 30
0.0
 11
379.4828008822
 21
1050.2423813049
 31
0.0
  0
LINE
  5
A3
330
1F
100
AcDbEntity
  8
0
  6
HIDDEN
 62
     7
370
    18
100
AcDbLine
 10
211.4828008822
 20
1050.2423813049
 30
0.0
 11
211.4828008822
 21
1039.0423813049
 31
0.0
  0
LINE
  5
A4
330
1F
100
AcDbEntity
  8
0
  6
HIDDEN
 62
     7
370
    18
100
AcDbLine
 10
227.6476330118
 20
1050.2423813049
 30
0.0
 11
211.4828008822
 21
1050.2423813049
 31
0.0
  0
LINE
  5
A5
330
1F
100
AcDbEntity
  8
0
  6
HIDDEN
 62
     7
370
    18
100
AcDbLine
 10
379.4828008822
 20
1050.2423813049
 30
0.0
 11
363.3179687525
 21
1050.2423813049
 31
0.0
  0
CIRCLE
  5
A6
330
1F
100
AcDbEntity
  8
0
  6
HIDDEN
 62
     7
370
    18
100
AcDbCircle
 10
822.9828008821
 20
1329.0423813049
 30
0.0
 40
75.0000000000001
  0
CIRCLE
  5
A7
330
1F
100
AcDbEntity
  8
0
  6
HIDDEN
 62
     7
370
    18
100
AcDbCircle
 10
295.4828008822
 20
1151.0423813049
 30
0.0
 40
75.00000000000001
  0
LINE
  5
A8
330
1F
100
AcDbEntity
  8
0
  6
HIDDEN
 62
     7
370
    18
100
AcDbLine
 10
1032.9828008822
 20
823.0423813049
 30
0.0
 11
1032.9828008822
 21
888.0423813049
 31
0.0
  0
LINE
  5
A9
330
1F
100
AcDbEntity
  8
0
  6
HIDDEN
 62
     7
370
    18
100
AcDbLine
 10
132.9828008822
 20
823.0423813049
 30
0.0
 11
132.9828008822
 21
888.0423813049
 31
0.0
  0
LINE
  5
AA
330
1F
100
AcDbEntity
  8
0
  6
HIDDEN
 62
     7
370
    18
100
AcDbLine
 10
132.9828008821
 20
999.0423813049
 30
0.0
 11
132.9828008821
 21
924.0423813049
 31
0.0
  0
LINE
  5
AB
330
1F
100
AcDbEntity
  8
0
  6
HIDDEN
 62
     7
370
    18
100
AcDbLine
 10
1032.9828008821
 20
999.0423813049
 30
0.0
 11
1032.9828008821
 21
924.0423813049
 31
0.0
  0
LINE
  5
AC
330
1F
100
AcDbEntity
  8
0
  6
HIDDEN
 62
     7
370
    18
100
AcDbLine
 10
406.5676974794
 20
1518.5423813049
 30
0.0
 11
420.8584807878
 21
1330.7275372423
 31
0.0
  0
ARC
  5
AD
330
1F
100
AcDbEntity
  8
0
  6
HIDDEN
 62
     7
370
    18
100
AcDbCircle
 10
792.9828008822
 20
1359.0423813049
 30
0.0
 40
373.2
100
AcDbArc
 50
184.351236714
 51
252.2832101886
  0
ARC
  5
AE
330
1F
100
AcDbEntity
  8
0
  6
HIDDEN
 62
     7
370
    18
100
AcDbCircle
 10
792.9828008822
 20
1359.0423813049
 30
0.0
 40
373.2
100
AcDbArc
 50
254.715816765
 51
270.0
  0
ARC
  5
AF
330
1F
100
AcDbEntity
  8
0
  6
HIDDEN
 62
     7
370
    18
100
AcDbCircle
 10
792.9828008822
 20
1299.0423813049
 30
0.0
 40
313.2000000000002
100
AcDbArc
 50
270.0
 51
286.6936361458
  0
ARC
  5
B0
330
1F
100
AcDbEntity
  8
0
  6
HIDDEN
 62
     7
370
    18
100
AcDbCircle
 10
792.9828008822
 20
1299.0423813049
 30
0.0
 40
313.2000000000001
100
AcDbArc
 50
289.3544218327
 51
309.0934793541
  0
LINE
  5
B1
330
1F
100
AcDbEntity
  8
0
  6
HIDDEN
 62
     7
370
    18
100
AcDbLine
 10
1104.9828008822
 20
1299.0423813049
 30
0.0
 11
1104.9828008822
 21
1306.0423813049
 31
0.0
  0
ARC
  5
B2
330
1F
100
AcDbEntity
  8
0
  6
HIDDEN
 62
     7
370
    18
100
AcDbCircle
 10
845.9828008822
 20
1306.0423813049
 30
0.0
 40
259.0
100
AcDbArc
 50
0.0
 51
90.0
  0
LINE
  5
B3
330
1F
100
AcDbEntity
  8
0
  6
HIDDEN
 62
     7
370
    18
100
AcDbLine
 10
845.9828008822
 20
1565.0423813049
 30
0.0
 11
810.9828008822
 21
1565.0423813049
 31
0.0
  0
LINE
  5
B4
330
1F
100
AcDbEntity
  8
0
  6
HIDDEN
 62
     7
370
    18
100
AcDbLine
 10
810.9828008822
 20
1565.0423813049
 30
0.0
 11
810.9828008822
 21
1634.0423813049
 31
0.0
  0
ARC
  5
B5
330
1F
100
AcDbEntity
  8
0
  6
HIDDEN
 62
     7
370
    18
100
AcDbCircle
 10
792.9828008822
 20
1299.0423813049
 30
0.0
 40
312.0
100
AcDbArc
 50
270.0
 51
0.0
  0
ARC
  5
B6
330
1F
100
AcDbEntity
  8
0
  6
HIDDEN
 62
     7
370
    18
100
AcDbCircle
 10
792.9828008822
 20
1359.0423813049
 30
0.0
 40
372.0
100
AcDbArc
 50
184.351236714
 51
270.0
  0
LINE
  5
B7
330
1F
100
AcDbEntity
  8
0
  6
HIDDEN
 62
     7
370
    18
100
AcDbLine
 10
398.9828008822
 20
1634.0423813049
 30
0.0
 11
422.0550220099
 21
1330.818581757
 31
0.0
  0
CIRCLE
  5
B8
330
1F
100
AcDbEntity
  8
0
  6
HIDDEN
 62
     7
370
    18
100
AcDbCircle
 10
822.9828008822
 20
1329.0423813049
 30
0.0
 40
200.0
  0
CIRCLE
  5
B9
330
1F
100
AcDbEntity
  8
0
  6
HIDDEN
 62
     7
370
    18
100
AcDbCircle
 10
822.9828008822
 20
1329.0423813049
 30
0.0
 40
225.0
  0
CIRCLE
  5
BA
330
1F
100
AcDbEntity
  8
0
  6
HIDDEN
 62
     7
370
    18
100
AcDbCircle
 10
822.9828008822
 20
1329.0423813049
 30
0.0
 40
202.3
  0
CIRCLE
  5
BB
330
1F
100
AcDbEntity
  8
0
  6
HIDDEN
 62
     7
370
    18
100
AcDbCircle
 10
670.954842927
 20
1481.07033926
 30
0.0
 40
3.999999999999773
  0
CIRCLE
  5
BC
330
1F
100
AcDbEntity
  8
0
  6
HIDDEN
 62
     7
370
    18
100
AcDbCircle
 10
767.3367061851
 20
1536.716433957
 30
0.0
 40
3.999999999999773
  0
CIRCLE
  5
BD
330
1F
100
AcDbEntity
  8
0
  6
HIDDEN
 62
     7
370
    18
100
AcDbCircle
 10
878.6288955792
 20
1536.716433957
 30
0.0
 40
4.000000000000227
  0
CIRCLE
  5
BE
330
1F
100
AcDbEntity
  8
0
  6
HIDDEN
 62
     7
370
    18
100
AcDbCircle
 10
975.0107588373
 20
1481.07033926
 30
0.0
 40
4.0
  0
CIRCLE
  5
BF
330
1F
100
AcDbEntity
  8
0
  6
HIDDEN
 62
     7
370
    18
100
AcDbCircle
 10
1030.6568535343
 20
1384.6884760019
 30
0.0
 40
3.999999999999773
  0
CIRCLE
  5
C0
330
1F
100
AcDbEntity
  8
0
  6
HIDDEN
 62
     7
370
    18
100
AcDbCircle
 10
1030.6568535343
 20
1273.3962866078
 30
0.0
 40
4.0
  0
CIRCLE
  5
C1
330
1F
100
AcDbEntity
  8
0
  6
HIDDEN
 62
     7
370
    18
100
AcDbCircle
 10
975.0107588373
 20
1177.0144233497
 30
0.0
 40
4.000000000000227
  0
CIRCLE
  5
C2
330
1F
100
AcDbEntity
  8
0
  6
HIDDEN
 62
     7
370
    18
100
AcDbCircle
 10
878.6288955792
 20
1121.3683286527
 30
0.0
 40
4.0
  0
CIRCLE
  5
C3
330
1F
100
AcDbEntity
  8
0
  6
HIDDEN
 62
     7
370
    18
100
AcDbCircle
 10
767.3367061851
 20
1121.3683286527
 30
0.0
 40
4.000000000000227
  0
CIRCLE
  5
C4
330
1F
100
AcDbEntity
  8
0
  6
HIDDEN
 62
     7
370
    18
100
AcDbCircle
 10
615.30874823
 20
1273.3962866078
 30
0.0
 40
3.999999999999773
  0
CIRCLE
  5
C5
330
1F
100
AcDbEntity
  8
0
  6
HIDDEN
 62
     7
370
    18
100
AcDbCircle
 10
615.30874823
 20
1384.6884760019
 30
0.0
 40
4.0
  0
CIRCLE
  5
C6
330
1F
100
AcDbEntity
  8
0
  6
HIDDEN
 62
     7
370
    18
100
AcDbCircle
 10
670.954842927
 20
1177.0144233497
 30
0.0
 40
4.0
  0
LINE
  5
C7
330
1F
100
AcDbEntity
  8
0
  6
HIDDEN
 62
     7
370
    18
100
AcDbLine
 10
148.9828008822
 20
823.0423813049
 30
0.0
 11
148.9828008822
 21
826.2423813049
 31
0.0
  0
LINE
  5
C8
330
1F
100
AcDbEntity
  8
0
  6
HIDDEN
 62
     7
370
    18
100
AcDbLine
 10
136.9828008822
 20
826.2423813049
 30
0.0
 11
136.9828008822
 21
823.0423813049
 31
0.0
  0
LINE
  5
C9
330
1F
100
AcDbEntity
  8
0
  6
HIDDEN
 62
     7
370
    18
100
AcDbLine
 10
588.9828008822
 20
823.0423813049
 30
0.0
 11
588.9828008822
 21
826.2423813049
 31
0.0
  0
LINE
  5
CA
330
1F
100
AcDbEntity
  8
0
  6
HIDDEN
 62
     7
370
    18
100
AcDbLine
 10
576.9828008822
 20
826.2423813049
 30
0.0
 11
576.9828008822
 21
823.0423813049
 31
0.0
  0
LINE
  5
CB
330
1F
100
AcDbEntity
  8
0
  6
HIDDEN
 62
     7
370
    18
100
AcDbLine
 10
1028.9828008822
 20
823.0423813049
 30
0.0
 11
1028.9828008822
 21
826.2423813049
 31
0.0
  0
LINE
  5
CC
330
1F
100
AcDbEntity
  8
0
  6
HIDDEN
 62
     7
370
    18
100
AcDbLine
 10
1016.9828008821
 20
826.2423813049
 30
0.0
 11
1016.9828008821
 21
823.0423813049
 31
0.0
  0
LINE
  5
CD
330
1F
100
AcDbEntity
  8
0
  6
HIDDEN
 62
     7
370
    18
100
AcDbLine
 10
750.9828008822
 20
1634.0423813049
 30
0.0
 11
750.9828008822
 21
1631.0423813049
 31
0.0
  0
LINE
  5
CE
330
1F
100
AcDbEntity
  8
0
  6
HIDDEN
 62
     7
370
    18
100
AcDbLine
 10
758.9828008822
 20
1631.0423813049
 30
0.0
 11
758.9828008822
 21
1634.0423813049
 31
0.0
  0
LINE
  5
CF
330
1F
100
AcDbEntity
  8
0
  6
HIDDEN
 62
     7
370
    18
100
AcDbLine
 10
550.9828008822
 20
1634.0423813049
 30
0.0
 11
550.9828008822
 21
1631.0423813049
 31
0.0
  0
LINE
  5
D0
330
1F
100
AcDbEntity
  8
0
  6
HIDDEN
 62
     7
370
    18
100
AcDbLine
 10
558.9828008822
 20
1631.0423813049
 30
0.0
 11
558.9828008822
 21
1634.0423813049
 31
0.0
  0
LINE
  5
D1
330
1F
100
AcDbEntity
  8
0
  6
HIDDEN
 62
     7
370
    18
100
AcDbLine
 10
650.9828008822
 20
1634.0423813049
 30
0.0
 11
650.9828008822
 21
1631.0423813049
 31
0.0
  0
LINE
  5
D2
330
1F
100
AcDbEntity
  8
0
  6
HIDDEN
 62
     7
370
    18
100
AcDbLine
 10
658.9828008822
 20
1631.0423813049
 30
0.0
 11
658.9828008822
 21
1634.0423813049
 31
0.0
  0
LINE
  5
D3
330
1F
100
AcDbEntity
  8
0
  6
HIDDEN
 62
     7
370
    18
100
AcDbLine
 10
450.9828008822
 20
1634.0423813049
 30
0.0
 11
450.9828008822
 21
1631.0423813049
 31
0.0
  0
LINE
  5
D4
330
1F
100
AcDbEntity
  8
0
  6
HIDDEN
 62
     7
370
    18
100
AcDbLine
 10
458.9828008822
 20
1631.0423813049
 30
0.0
 11
458.9828008822
 21
1634.0423813049
 31
0.0
  0
LINE
  5
D5
330
1F
100
AcDbEntity
  8
0
  6
HIDDEN
 62
     7
370
    18
100
AcDbLine
 10
377.9828008822
 20
1634.0423813049
 30
0.0
 11
377.9828008822
 21
1631.0423813049
 31
0.0
  0
LINE
  5
D6
330
1F
100
AcDbEntity
  8
0
  6
HIDDEN
 62
     7
370
    18
100
AcDbLine
 10
385.9828008822
 20
1631.0423813049
 30
0.0
 11
385.9828008822
 21
1634.0423813049
 31
0.0
  0
LINE
  5
D7
330
1F
100
AcDbEntity
  8
0
  6
HIDDEN
 62
     7
370
    18
100
AcDbLine
 10
823.9828008822
 20
1634.0423813049
 30
0.0
 11
823.9828008822
 21
1631.0423813049
 31
0.0
  0
LINE
  5
D8
330
1F
100
AcDbEntity
  8
0
  6
HIDDEN
 62
     7
370
    18
100
AcDbLine
 10
831.9828008822
 20
1631.0423813049
 30
0.0
 11
831.9828008822
 21
1634.0423813049
 31
0.0
  0
INSERT
  5
E4
330
1F
100
AcDbEntity
  8
2
100
AcDbBlockReference
  2
SW_CENTERMARKSYMBOL_0
 10
822.9828008822
 20
1329.0423813049
 30
0.0
  0
LINE
  5
E5
330
1F
100
AcDbEntity
  8
1
100
AcDbLine
 10
1548.652706772
 20
1272.5423813049
 30
0.0
 11
1457.752706772
 21
1272.5423813049
 31
0.0
  0
LINE
  5
E6
330
1F
100
AcDbEntity
  8
1
100
AcDbLine
 10
1440.252706772
 20
1137.0423813049
 30
0.0
 11
1457.752706772
 21
1137.0423813049
 31
0.0
  0
LINE
  5
E7
330
1F
100
AcDbEntity
  8
1
100
AcDbLine
 10
1457.752706772
 20
1165.0423813049
 30
0.0
 11
1440.252706772
 21
1165.0423813049
 31
0.0
  0
LINE
  5
E8
330
1F
100
AcDbEntity
  8
1
100
AcDbLine
 10
1854.752706772
 20
924.0423813049
 30
0.0
 11
1854.752706772
 21
888.0423813049
 31
0.0
  0
LINE
  5
E9
330
1F
100
AcDbEntity
  8
1
100
AcDbLine
 10
1889.752706772
 20
888.0423813049
 30
0.0
 11
1889.752706772
 21
924.0423813049
 31
0.0
  0
LINE
  5
EA
330
1F
100
AcDbEntity
  8
1
100
AcDbLine
 10
1434.752706772
 20
924.0423813049
 30
0.0
 11
1434.752706772
 21
888.0423813049
 31
0.0
  0
LINE
  5
EB
330
1F
100
AcDbEntity
  8
1
100
AcDbLine
 10
1469.752706772
 20
888.0423813049
 30
0.0
 11
1469.752706772
 21
924.0423813049
 31
0.0
  0
LINE
  5
EC
330
1F
100
AcDbEntity
  8
1
100
AcDbLine
 10
1903.252706772
 20
1554.0423813049
 30
0.0
 11
1900.952706772
 21
1554.0423813049
 31
0.0
  0
LINE
  5
ED
330
1F
100
AcDbEntity
  8
1
100
AcDbLine
 10
1900.952706772
 20
1104.0423813049
 30
0.0
 11
1903.252706772
 21
1104.0423813049
 31
0.0
  0
LINE
  5
EE
330
1F
100
AcDbEntity
  8
1
100
AcDbLine
 10
1851.852706772
 20
1104.0423813049
 30
0.0
 11
1853.252706772
 21
1104.0423813049
 31
0.0
  0
LINE
  5
EF
330
1F
100
AcDbEntity
  8
1
100
AcDbLine
 10
1853.252706772
 20
1554.0423813049
 30
0.0
 11
1851.852706772
 21
1554.0423813049
 31
0.0
  0
LINE
  5
F0
330
1F
100
AcDbEntity
  8
1
100
AcDbLine
 10
1900.952706772
 20
1531.3423813049
 30
0.0
 11
1853.252706772
 21
1531.3423813049
 31
0.0
  0
LINE
  5
F1
330
1F
100
AcDbEntity
  8
1
100
AcDbLine
 10
1853.252706772
 20
1126.7423813049
 30
0.0
 11
1900.952706772
 21
1126.7423813049
 31
0.0
  0
LINE
  5
F2
330
1F
100
AcDbEntity
  8
1
100
AcDbLine
 10
1467.752706772
 20
999.0423813049
 30
0.0
 11
1467.752706772
 21
1039.0423813049
 31
0.0
  0
LINE
  5
F3
330
1F
100
AcDbEntity
  8
1
100
AcDbLine
 10
1548.652706772
 20
1039.0423813049
 30
0.0
 11
1467.752706772
 21
1039.0423813049
 31
0.0
  0
LINE
  5
F4
330
1F
100
AcDbEntity
  8
1
100
AcDbLine
 10
1487.752706772
 20
1044.6423813049
 30
0.0
 11
1457.752706772
 21
1044.6423813049
 31
0.0
  0
LINE
  5
F5
330
1F
100
AcDbEntity
  8
1
100
AcDbLine
 10
1457.752706772
 20
1272.5423813049
 30
0.0
 11
1457.752706772
 21
1044.6423813049
 31
0.0
  0
LINE
  5
F6
330
1F
100
AcDbEntity
  8
1
100
AcDbLine
 10
1487.752706772
 20
1039.0423813049
 30
0.0
 11
1487.752706772
 21
1050.2423813049
 31
0.0
  0
LINE
  5
F7
330
1F
100
AcDbEntity
  8
1
100
AcDbLine
 10
1487.752706772
 20
1050.2423813049
 30
0.0
 11
1548.652706772
 21
1050.2423813049
 31
0.0
  0
LINE
  5
F8
330
1F
100
AcDbEntity
  8
1
100
AcDbLine
 10
1280.252706772
 20
1003.5423813049
 30
0.0
 11
1280.252706772
 21
1518.5423813049
 31
0.0
  0
LINE
  5
F9
330
1F
100
AcDbEntity
  8
1
100
AcDbLine
 10
1280.252706772
 20
1003.5423813049
 30
0.0
 11
1332.252706772
 21
1003.5423813049
 31
0.0
  0
LINE
  5
FA
330
1F
100
AcDbEntity
  8
1
100
AcDbLine
 10
1440.252706772
 20
1003.5423813049
 30
0.0
 11
1440.252706772
 21
1518.5423813049
 31
0.0
  0
LINE
  5
FB
330
1F
100
AcDbEntity
  8
1
100
AcDbLine
 10
1280.252706772
 20
1518.5423813049
 30
0.0
 11
1440.252706772
 21
1518.5423813049
 31
0.0
  0
LINE
  5
FC
330
1F
100
AcDbEntity
  8
1
100
AcDbLine
 10
1892.252706772
 20
823.0423813049
 30
0.0
 11
1432.252706772
 21
823.0423813049
 31
0.0
  0
LINE
  5
FD
330
1F
100
AcDbEntity
  8
1
100
AcDbLine
 10
1432.252706772
 20
823.0423813049
 30
0.0
 11
1432.252706772
 21
826.2423813049
 31
0.0
  0
LINE
  5
FE
330
1F
100
AcDbEntity
  8
1
100
AcDbLine
 10
1892.252706772
 20
826.2423813049
 30
0.0
 11
1432.252706772
 21
826.2423813049
 31
0.0
  0
LINE
  5
FF
330
1F
100
AcDbEntity
  8
1
100
AcDbLine
 10
1892.252706772
 20
823.0423813049
 30
0.0
 11
1892.252706772
 21
826.2423813049
 31
0.0
  0
LINE
  5
100
330
1F
100
AcDbEntity
  8
1
100
AcDbLine
 10
1892.252706772
 20
884.8423813049
 30
0.0
 11
1892.252706772
 21
888.0423813049
 31
0.0
  0
LINE
  5
101
330
1F
100
AcDbEntity
  8
1
100
AcDbLine
 10
1432.252706772
 20
884.8423813049
 30
0.0
 11
1432.252706772
 21
888.0423813049
 31
0.0
  0
LINE
  5
102
330
1F
100
AcDbEntity
  8
1
100
AcDbLine
 10
1432.252706772
 20
884.8423813049
 30
0.0
 11
1892.252706772
 21
884.8423813049
 31
0.0
  0
LINE
  5
103
330
1F
100
AcDbEntity
  8
1
100
AcDbLine
 10
1432.252706772
 20
888.0423813049
 30
0.0
 11
1892.252706772
 21
888.0423813049
 31
0.0
  0
LINE
  5
104
330
1F
100
AcDbEntity
  8
1
100
AcDbLine
 10
1469.052706772
 20
826.2423813049
 30
0.0
 11
1469.052706772
 21
884.8423813049
 31
0.0
  0
LINE
  5
105
330
1F
100
AcDbEntity
  8
1
100
AcDbLine
 10
1855.452706772
 20
826.2423813049
 30
0.0
 11
1855.452706772
 21
884.8423813049
 31
0.0
  0
LINE
  5
106
330
1F
100
AcDbEntity
  8
1
100
AcDbLine
 10
1432.252706772
 20
999.0423813049
 30
0.0
 11
1892.252706772
 21
999.0423813049
 31
0.0
  0
LINE
  5
107
330
1F
100
AcDbEntity
  8
1
100
AcDbLine
 10
1892.252706772
 20
999.0423813049
 30
0.0
 11
1892.252706772
 21
994.0423813049
 31
0.0
  0
LINE
  5
108
330
1F
100
AcDbEntity
  8
1
100
AcDbLine
 10
1432.252706772
 20
999.0423813049
 30
0.0
 11
1432.252706772
 21
994.0423813049
 31
0.0
  0
LINE
  5
109
330
1F
100
AcDbEntity
  8
1
100
AcDbLine
 10
1432.252706772
 20
994.0423813049
 30
0.0
 11
1892.252706772
 21
994.0423813049
 31
0.0
  0
LINE
  5
10A
330
1F
100
AcDbEntity
  8
1
100
AcDbLine
 10
1892.252706772
 20
929.0423813049
 30
0.0
 11
1892.252706772
 21
924.0423813049
 31
0.0
  0
LINE
  5
10B
330
1F
100
AcDbEntity
  8
1
100
AcDbLine
 10
1432.252706772
 20
924.0423813049
 30
0.0
 11
1892.252706772
 21
924.0423813049
 31
0.0
  0
LINE
  5
10C
330
1F
100
AcDbEntity
  8
1
100
AcDbLine
 10
1432.252706772
 20
929.0423813049
 30
0.0
 11
1432.252706772
 21
924.0423813049
 31
0.0
  0
LINE
  5
10D
330
1F
100
AcDbEntity
  8
1
100
AcDbLine
 10
1432.252706772
 20
929.0423813049
 30
0.0
 11
1892.252706772
 21
929.0423813049
 31
0.0
  0
LINE
  5
10E
330
1F
100
AcDbEntity
  8
1
100
AcDbLine
 10
1332.252706772
 20
1003.5423813049
 30
0.0
 11
1332.252706772
 21
999.0423813049
 31
0.0
  0
LINE
  5
10F
330
1F
100
AcDbEntity
  8
1
100
AcDbLine
 10
1332.252706772
 20
1003.5423813049
 30
0.0
 11
1462.252706772
 21
1003.5423813049
 31
0.0
  0
LINE
  5
110
330
1F
100
AcDbEntity
  8
1
100
AcDbLine
 10
1462.252706772
 20
1003.5423813049
 30
0.0
 11
1462.252706772
 21
999.0423813049
 31
0.0
  0
LINE
  5
111
330
1F
100
AcDbEntity
  8
1
100
AcDbLine
 10
1332.252706772
 20
999.0423813049
 30
0.0
 11
1432.252706772
 21
999.0423813049
 31
0.0
  0
LINE
  5
112
330
1F
100
AcDbEntity
  8
1
100
AcDbLine
 10
1857.252706772
 20
994.0423813049
 30
0.0
 11
1857.252706772
 21
929.0423813049
 31
0.0
  0
LINE
  5
113
330
1F
100
AcDbEntity
  8
1
100
AcDbLine
 10
1467.252706772
 20
994.0423813049
 30
0.0
 11
1467.252706772
 21
929.0423813049
 31
0.0
  0
LINE
  5
114
330
1F
100
AcDbEntity
  8
1
100
AcDbLine
 10
1548.652706772
 20
1306.0423813049
 30
0.0
 11
1548.652706772
 21
1566.2423813049
 31
0.0
  0
LINE
  5
115
330
1F
100
AcDbEntity
  8
1
100
AcDbLine
 10
1548.652706772
 20
1566.2423813049
 30
0.0
 11
1851.852706772
 21
1566.2423813049
 31
0.0
  0
LINE
  5
116
330
1F
100
AcDbEntity
  8
1
100
AcDbLine
 10
1851.852706772
 20
1306.0423813049
 30
0.0
 11
1851.852706772
 21
1566.2423813049
 31
0.0
  0
LINE
  5
117
330
1F
100
AcDbEntity
  8
1
100
AcDbLine
 10
1548.652706772
 20
1299.0423813049
 30
0.0
 11
1548.652706772
 21
1306.0423813049
 31
0.0
  0
LINE
  5
118
330
1F
100
AcDbEntity
  8
1
100
AcDbLine
 10
1851.852706772
 20
1299.0423813049
 30
0.0
 11
1851.852706772
 21
1306.0423813049
 31
0.0
  0
LINE
  5
119
330
1F
100
AcDbEntity
  8
1
100
AcDbLine
 10
1548.652706772
 20
999.0423813049
 30
0.0
 11
1548.652706772
 21
1299.0423813049
 31
0.0
  0
LINE
  5
11A
330
1F
100
AcDbEntity
  8
1
100
AcDbLine
 10
1851.852706772
 20
999.0423813049
 30
0.0
 11
1851.852706772
 21
1299.0423813049
 31
0.0
  0
LINE
  5
11B
330
1F
100
AcDbEntity
  8
1
100
AcDbLine
 10
1900.952706772
 20
1554.0423813049
 30
0.0
 11
1900.952706772
 21
1104.0423813049
 31
0.0
  0
LINE
  5
11C
330
1F
100
AcDbEntity
  8
1
100
AcDbLine
 10
1903.252706772
 20
1554.0423813049
 30
0.0
 11
1903.252706772
 21
1104.0423813049
 31
0.0
  0
LINE
  5
11D
330
1F
100
AcDbEntity
  8
1
100
AcDbLine
 10
1853.252706772
 20
1104.0423813049
 30
0.0
 11
1853.252706772
 21
1554.0423813049
 31
0.0
  0
LINE
  5
11E
330
1F
100
AcDbEntity
  8
1
100
AcDbLine
 10
1877.252706772
 20
1631.0423813049
 30
0.0
 11
1877.252706772
 21
1634.0423813049
 31
0.0
  0
LINE
  5
11F
330
1F
100
AcDbEntity
  8
1
100
AcDbLine
 10
1523.252706772
 20
1631.0423813049
 30
0.0
 11
1523.252706772
 21
1634.0423813049
 31
0.0
  0
LINE
  5
120
330
1F
100
AcDbEntity
  8
1
100
AcDbLine
 10
1523.252706772
 20
1634.0423813049
 30
0.0
 11
1877.252706772
 21
1634.0423813049
 31
0.0
  0
LINE
  5
121
330
1F
100
AcDbEntity
  8
1
100
AcDbLine
 10
1523.252706772
 20
1631.0423813049
 30
0.0
 11
1877.252706772
 21
1631.0423813049
 31
0.0
  0
LINE
  5
122
330
1F
100
AcDbEntity
  8
1
100
AcDbLine
 10
1548.652706772
 20
1566.2423813049
 30
0.0
 11
1548.652706772
 21
1631.0423813049
 31
0.0
  0
LINE
  5
123
330
1F
100
AcDbEntity
  8
1
100
AcDbLine
 10
1851.852706772
 20
1566.2423813049
 30
0.0
 11
1851.852706772
 21
1631.0423813049
 31
0.0
  0
LINE
  5
124
330
1F
100
AcDbEntity
  8
0
  6
HIDDEN
 62
     7
370
    18
100
AcDbLine
 10
1727.752706772
 20
999.0423813049
 30
0.0
 11
1727.752706772
 21
1039.0423813049
 31
0.0
  0
LINE
  5
125
330
1F
100
AcDbEntity
  8
0
  6
HIDDEN
 62
     7
370
    18
100
AcDbLine
 10
1727.752706772
 20
1039.0423813049
 30
0.0
 11
1548.652706772
 21
1039.0423813049
 31
0.0
  0
LINE
  5
126
330
1F
100
AcDbEntity
  8
0
  6
HIDDEN
 62
     7
370
    18
100
AcDbLine
 10
1783.752706772
 20
1044.6423813049
 30
0.0
 11
1707.752706772
 21
1044.6423813049
 31
0.0
  0
LINE
  5
127
330
1F
100
AcDbEntity
  8
0
  6
HIDDEN
 62
     7
370
    18
100
AcDbLine
 10
1783.752706772
 20
1044.6423813049
 30
0.0
 11
1783.752706772
 21
1272.5423813049
 31
0.0
  0
LINE
  5
128
330
1F
100
AcDbEntity
  8
0
  6
HIDDEN
 62
     7
370
    18
100
AcDbLine
 10
1548.652706772
 20
1050.2423813049
 30
0.0
 11
1707.752706772
 21
1050.2423813049
 31
0.0
  0
LINE
  5
129
330
1F
100
AcDbEntity
  8
0
  6
HIDDEN
 62
     7
370
    18
100
AcDbLine
 10
1707.752706772
 20
1039.0423813049
 30
0.0
 11
1707.752706772
 21
1050.2423813049
 31
0.0
  0
LINE
  5
12A
330
1F
100
AcDbEntity
  8
0
  6
HIDDEN
 62
     7
370
    18
100
AcDbLine
 10
1322.752706772
 20
1403.5119183835
 30
0.0
 11
1322.752706772
 21
1254.0423813049
 31
0.0
  0
LINE
  5
12B
330
1F
100
AcDbEntity
  8
0
  6
HIDDEN
 62
     7
370
    18
100
AcDbLine
 10
1322.752706772
 20
1404.0423813049
 30
0.0
 11
1322.752706772
 21
1403.5119183835
 31
0.0
  0
LINE
  5
12C
330
1F
100
AcDbEntity
  8
0
  6
HIDDEN
 62
     7
370
    18
100
AcDbLine
 10
1397.752706772
 20
1403.5119183835
 30
0.0
 11
1397.752706772
 21
1254.0423813049
 31
0.0
  0
LINE
  5
12D
330
1F
100
AcDbEntity
  8
0
  6
HIDDEN
 62
     7
370
    18
100
AcDbLine
 10
1397.752706772
 20
1404.0423813049
 30
0.0
 11
1397.752706772
 21
1403.5119183835
 31
0.0
  0
LINE
  5
12E
330
1F
100
AcDbEntity
  8
0
  6
HIDDEN
 62
     7
370
    18
100
AcDbLine
 10
1322.752706772
 20
1076.2817533023
 30
0.0
 11
1322.752706772
 21
1076.0423813049
 31
0.0
  0
LINE
  5
12F
330
1F
100
AcDbEntity
  8
0
  6
HIDDEN
 62
     7
370
    18
100
AcDbLine
 10
1322.752706772
 20
1226.0423813049
 30
0.0
 11
1322.752706772
 21
1076.2817533023
 31
0.0
  0
LINE
  5
130
330
1F
100
AcDbEntity
  8
0
  6
HIDDEN
 62
     7
370
    18
100
AcDbLine
 10
1397.752706772
 20
1076.2817533023
 30
0.0
 11
1397.752706772
 21
1076.0423813049
 31
0.0
  0
LINE
  5
131
330
1F
100
AcDbEntity
  8
0
  6
HIDDEN
 62
     7
370
    18
100
AcDbLine
 10
1397.752706772
 20
1226.0423813049
 30
0.0
 11
1397.752706772
 21
1076.2817533023
 31
0.0
  0
LINE
  5
132
330
1F
100
AcDbEntity
  8
0
  6
HIDDEN
 62
     7
370
    18
100
AcDbLine
 10
1852.252706772
 20
823.0423813049
 30
0.0
 11
1852.252706772
 21
888.0423813049
 31
0.0
  0
LINE
  5
133
330
1F
100
AcDbEntity
  8
0
  6
HIDDEN
 62
     7
370
    18
100
AcDbLine
 10
1472.252706772
 20
823.0423813049
 30
0.0
 11
1472.252706772
 21
888.0423813049
 31
0.0
  0
LINE
  5
134
330
1F
100
AcDbEntity
  8
0
  6
HIDDEN
 62
     7
370
    18
100
AcDbLine
 10
1852.252706772
 20
999.0423813049
 30
0.0
 11
1852.252706772
 21
924.0423813049
 31
0.0
  0
LINE
  5
135
330
1F
100
AcDbEntity
  8
0
  6
HIDDEN
 62
     7
370
    18
100
AcDbLine
 10
1472.252706772
 20
999.0423813049
 30
0.0
 11
1472.252706772
 21
924.0423813049
 31
0.0
  0
LINE
  5
136
330
1F
100
AcDbEntity
  8
0
  6
HIDDEN
 62
     7
370
    18
100
AcDbLine
 10
1548.652706772
 20
985.8423813049
 30
0.0
 11
1851.852706772
 21
985.8423813049
 31
0.0
  0
LINE
  5
137
330
1F
100
AcDbEntity
  8
0
  6
HIDDEN
 62
     7
370
    18
100
AcDbLine
 10
1548.652706772
 20
985.8423813049
 30
0.0
 11
1548.652706772
 21
999.0423813049
 31
0.0
  0
LINE
  5
138
330
1F
100
AcDbEntity
  8
0
  6
HIDDEN
 62
     7
370
    18
100
AcDbLine
 10
1851.852706772
 20
985.8423813049
 30
0.0
 11
1851.852706772
 21
999.0423813049
 31
0.0
  0
LINE
  5
139
330
1F
100
AcDbEntity
  8
0
  6
HIDDEN
 62
     7
370
    18
100
AcDbLine
 10
1850.252706772
 20
1299.0423813049
 30
0.0
 11
1850.252706772
 21
1306.0423813049
 31
0.0
  0
LINE
  5
13A
330
1F
100
AcDbEntity
  8
0
  6
HIDDEN
 62
     7
370
    18
100
AcDbLine
 10
1550.252706772
 20
987.0423813049
 30
0.0
 11
1550.252706772
 21
1299.0423813049
 31
0.0
  0
LINE
  5
13B
330
1F
100
AcDbEntity
  8
0
  6
HIDDEN
 62
     7
370
    18
100
AcDbLine
 10
1550.252706772
 20
987.0423813049
 30
0.0
 11
1850.252706772
 21
987.0423813049
 31
0.0
  0
LINE
  5
13C
330
1F
100
AcDbEntity
  8
0
  6
HIDDEN
 62
     7
370
    18
100
AcDbLine
 10
1850.252706772
 20
987.0423813049
 30
0.0
 11
1850.252706772
 21
1299.0423813049
 31
0.0
  0
LINE
  5
13D
330
1F
100
AcDbEntity
  8
0
  6
HIDDEN
 62
     7
370
    18
100
AcDbLine
 10
1550.252706772
 20
1565.0423813049
 30
0.0
 11
1850.252706772
 21
1565.0423813049
 31
0.0
  0
LINE
  5
13E
330
1F
100
AcDbEntity
  8
0
  6
HIDDEN
 62
     7
370
    18
100
AcDbLine
 10
1550.252706772
 20
1306.0423813049
 30
0.0
 11
1550.252706772
 21
1565.0423813049
 31
0.0
  0
LINE
  5
13F
330
1F
100
AcDbEntity
  8
0
  6
HIDDEN
 62
     7
370
    18
100
AcDbLine
 10
1850.252706772
 20
1306.0423813049
 30
0.0
 11
1850.252706772
 21
1565.0423813049
 31
0.0
  0
LINE
  5
140
330
1F
100
AcDbEntity
  8
0
  6
HIDDEN
 62
     7
370
    18
100
AcDbLine
 10
1550.252706772
 20
1299.0423813049
 30
0.0
 11
1550.252706772
 21
1306.0423813049
 31
0.0
  0
LINE
  5
141
330
1F
100
AcDbEntity
  8
0
  6
HIDDEN
 62
     7
370
    18
100
AcDbLine
 10
1550.252706772
 20
1565.0423813049
 30
0.0
 11
1550.252706772
 21
1634.0423813049
 31
0.0
  0
LINE
  5
142
330
1F
100
AcDbEntity
  8
0
  6
HIDDEN
 62
     7
370
    18
100
AcDbLine
 10
1850.252706772
 20
1565.0423813049
 30
0.0
 11
1850.252706772
 21
1634.0423813049
 31
0.0
  0
LINE
  5
143
330
1F
100
AcDbEntity
  8
0
  6
HIDDEN
 62
     7
370
    18
100
AcDbLine
 10
1783.752706772
 20
1272.5423813049
 30
0.0
 11
1548.652706772
 21
1272.5423813049
 31
0.0
  0
LINE
  5
144
330
1F
100
AcDbEntity
  8
0
  6
HIDDEN
 62
     7
370
    18
100
AcDbLine
 10
1397.752706772
 20
1137.0423813049
 30
0.0
 11
1440.252706772
 21
1137.0423813049
 31
0.0
  0
LINE
  5
145
330
1F
100
AcDbEntity
  8
0
  6
HIDDEN
 62
     7
370
    18
100
AcDbLine
 10
1440.252706772
 20
1165.0423813049
 30
0.0
 11
1397.752706772
 21
1165.0423813049
 31
0.0
  0
LINE
  5
146
330
1F
100
AcDbEntity
  8
0
  6
HIDDEN
 62
     7
370
    18
100
AcDbLine
 10
1322.752706772
 20
1254.0423813049
 30
0.0
 11
1397.752706772
 21
1254.0423813049
 31
0.0
  0
LINE
  5
147
330
1F
100
AcDbEntity
  8
0
  6
HIDDEN
 62
     7
370
    18
100
AcDbLine
 10
1397.752706772
 20
1404.0423813049
 30
0.0
 11
1322.752706772
 21
1404.0423813049
 31
0.0
  0
LINE
  5
148
330
1F
100
AcDbEntity
  8
0
  6
HIDDEN
 62
     7
370
    18
100
AcDbLine
 10
1322.752706772
 20
1076.0423813049
 30
0.0
 11
1397.752706772
 21
1076.0423813049
 31
0.0
  0
LINE
  5
149
330
1F
100
AcDbEntity
  8
0
  6
HIDDEN
 62
     7
370
    18
100
AcDbLine
 10
1397.752706772
 20
1226.0423813049
 30
0.0
 11
1322.752706772
 21
1226.0423813049
 31
0.0
  0
LINE
  5
14A
330
1F
100
AcDbEntity
  8
0
  6
HIDDEN
 62
     7
370
    18
100
AcDbLine
 10
1880.252706772
 20
823.0423813049
 30
0.0
 11
1880.252706772
 21
826.2423813049
 31
0.0
  0
LINE
  5
14B
330
1F
100
AcDbEntity
  8
0
  6
HIDDEN
 62
     7
370
    18
100
AcDbLine
 10
1868.252706772
 20
826.2423813049
 30
0.0
 11
1868.252706772
 21
823.0423813049
 31
0.0
  0
LINE
  5
14C
330
1F
100
AcDbEntity
  8
0
  6
HIDDEN
 62
     7
370
    18
100
AcDbLine
 10
1456.252706772
 20
823.0423813049
 30
0.0
 11
1456.252706772
 21
826.2423813049
 31
0.0
  0
LINE
  5
14D
330
1F
100
AcDbEntity
  8
0
  6
HIDDEN
 62
     7
370
    18
100
AcDbLine
 10
1444.252706772
 20
826.2423813049
 30
0.0
 11
1444.252706772
 21
823.0423813049
 31
0.0
  0
LINE
  5
14E
330
1F
100
AcDbEntity
  8
0
  6
HIDDEN
 62
     7
370
    18
100
AcDbLine
 10
1903.252706772
 20
1388.6884760019
 30
0.0
 11
1900.952706772
 21
1388.6884760019
 31
0.0
  0
LINE
  5
14F
330
1F
100
AcDbEntity
  8
0
  6
HIDDEN
 62
     7
370
    18
100
AcDbLine
 10
1900.952706772
 20
1380.6884760019
 30
0.0
 11
1903.252706772
 21
1380.6884760019
 31
0.0
  0
LINE
  5
150
330
1F
100
AcDbEntity
  8
0
  6
HIDDEN
 62
     7
370
    18
100
AcDbLine
 10
1903.252706772
 20
1277.3962866078
 30
0.0
 11
1900.952706772
 21
1277.3962866078
 31
0.0
  0
LINE
  5
151
330
1F
100
AcDbEntity
  8
0
  6
HIDDEN
 62
     7
370
    18
100
AcDbLine
 10
1900.952706772
 20
1269.3962866078
 30
0.0
 11
1903.252706772
 21
1269.3962866078
 31
0.0
  0
LINE
  5
152
330
1F
100
AcDbEntity
  8
0
  6
HIDDEN
 62
     7
370
    18
100
AcDbLine
 10
1850.252706772
 20
1129.0423813049
 30
0.0
 11
1903.252706772
 21
1129.0423813049
 31
0.0
  0
LINE
  5
153
330
1F
100
AcDbEntity
  8
0
  6
HIDDEN
 62
     7
370
    18
100
AcDbLine
 10
1903.252706772
 20
1529.0423813049
 30
0.0
 11
1850.252706772
 21
1529.0423813049
 31
0.0
  0
LINE
  5
154
330
1F
100
AcDbEntity
  8
0
  6
HIDDEN
 62
     7
370
    18
100
AcDbLine
 10
1903.252706772
 20
1485.07033926
 30
0.0
 11
1900.952706772
 21
1485.07033926
 31
0.0
  0
LINE
  5
155
330
1F
100
AcDbEntity
  8
0
  6
HIDDEN
 62
     7
370
    18
100
AcDbLine
 10
1900.952706772
 20
1477.07033926
 30
0.0
 11
1903.252706772
 21
1477.07033926
 31
0.0
  0
LINE
  5
156
330
1F
100
AcDbEntity
  8
0
  6
HIDDEN
 62
     7
370
    18
100
AcDbLine
 10
1903.252706772
 20
1181.0144233497
 30
0.0
 11
1900.952706772
 21
1181.0144233497
 31
0.0
  0
LINE
  5
157
330
1F
100
AcDbEntity
  8
0
  6
HIDDEN
 62
     7
370
    18
100
AcDbLine
 10
1900.952706772
 20
1173.0144233497
 30
0.0
 11
1903.252706772
 21
1173.0144233497
 31
0.0
  0
LINE
  5
158
330
1F
100
AcDbEntity
  8
0
  6
HIDDEN
 62
     7
370
    18
100
AcDbLine
 10
1903.252706772
 20
1540.716433957
 30
0.0
 11
1900.952706772
 21
1540.716433957
 31
0.0
  0
LINE
  5
159
330
1F
100
AcDbEntity
  8
0
  6
HIDDEN
 62
     7
370
    18
100
AcDbLine
 10
1900.952706772
 20
1532.716433957
 30
0.0
 11
1903.252706772
 21
1532.716433957
 31
0.0
  0
LINE
  5
15A
330
1F
100
AcDbEntity
  8
0
  6
HIDDEN
 62
     7
370
    18
100
AcDbLine
 10
1903.252706772
 20
1125.3683286527
 30
0.0
 11
1900.952706772
 21
1125.3683286527
 31
0.0
  0
LINE
  5
15B
330
1F
100
AcDbEntity
  8
0
  6
HIDDEN
 62
     7
370
    18
100
AcDbLine
 10
1900.952706772
 20
1117.3683286527
 30
0.0
 11
1903.252706772
 21
1117.3683286527
 31
0.0
  0
LINE
  5
15C
330
1F
100
AcDbEntity
  8
0
  6
HIDDEN
 62
     7
370
    18
100
AcDbLine
 10
1863.252706772
 20
1634.0423813049
 30
0.0
 11
1863.252706772
 21
1631.0423813049
 31
0.0
  0
LINE
  5
15D
330
1F
100
AcDbEntity
  8
0
  6
HIDDEN
 62
     7
370
    18
100
AcDbLine
 10
1871.252706772
 20
1631.0423813049
 30
0.0
 11
1871.252706772
 21
1634.0423813049
 31
0.0
  0
LINE
  5
15E
330
1F
100
AcDbEntity
  8
0
  6
HIDDEN
 62
     7
370
    18
100
AcDbLine
 10
1796.252706772
 20
1634.0423813049
 30
0.0
 11
1796.252706772
 21
1631.0423813049
 31
0.0
  0
LINE
  5
15F
330
1F
100
AcDbEntity
  8
0
  6
HIDDEN
 62
     7
370
    18
100
AcDbLine
 10
1804.252706772
 20
1631.0423813049
 30
0.0
 11
1804.252706772
 21
1634.0423813049
 31
0.0
  0
LINE
  5
160
330
1F
100
AcDbEntity
  8
0
  6
HIDDEN
 62
     7
370
    18
100
AcDbLine
 10
1696.252706772
 20
1634.0423813049
 30
0.0
 11
1696.252706772
 21
1631.0423813049
 31
0.0
  0
LINE
  5
161
330
1F
100
AcDbEntity
  8
0
  6
HIDDEN
 62
     7
370
    18
100
AcDbLine
 10
1704.252706772
 20
1631.0423813049
 30
0.0
 11
1704.252706772
 21
1634.0423813049
 31
0.0
  0
LINE
  5
162
330
1F
100
AcDbEntity
  8
0
  6
HIDDEN
 62
     7
370
    18
100
AcDbLine
 10
1596.252706772
 20
1634.0423813049
 30
0.0
 11
1596.252706772
 21
1631.0423813049
 31
0.0
  0
LINE
  5
163
330
1F
100
AcDbEntity
  8
0
  6
HIDDEN
 62
     7
370
    18
100
AcDbLine
 10
1604.252706772
 20
1631.0423813049
 30
0.0
 11
1604.252706772
 21
1634.0423813049
 31
0.0
  0
LINE
  5
164
330
1F
100
AcDbEntity
  8
0
  6
HIDDEN
 62
     7
370
    18
100
AcDbLine
 10
1529.252706772
 20
1634.0423813049
 30
0.0
 11
1529.252706772
 21
1631.0423813049
 31
0.0
  0
LINE
  5
165
330
1F
100
AcDbEntity
  8
0
  6
HIDDEN
 62
     7
370
    18
100
AcDbLine
 10
1537.252706772
 20
1631.0423813049
 30
0.0
 11
1537.252706772
 21
1634.0423813049
 31
0.0
  0
LINE
  5
166
330
1F
100
AcDbEntity
  8
2
100
AcDbLine
 10
1304.3287928424
 20
1329.0423813049
 30
0.0
 11
1890.4907985678
 21
1329.0423813049
 31
0.0
  0
LINE
  5
167
330
1F
100
AcDbEntity
  8
2
100
AcDbLine
 10
1700.252706772
 20
950.1100423168
 30
0.0
 11
1700.252706772
 21
1616.0219807941
 31
0.0
  0
LINE
  5
168
330
1F
100
AcDbEntity
  8
1
100
AcDbLine
 10
416.9828008822
 20
2071.9332310402
 30
0.0
 11
416.9828008822
 21
2137.4332310402
 31
0.0
  0
LINE
  5
169
330
1F
100
AcDbEntity
  8
1
100
AcDbLine
 10
173.9828008822
 20
2397.9332310402
 30
0.0
 11
173.9828008822
 21
2071.9332310402
 31
0.0
  0
LINE
  5
16A
330
1F
100
AcDbEntity
  8
1
100
AcDbLine
 10
309.4828008822
 20
2054.4332310402
 30
0.0
 11
309.4828008822
 21
2071.9332310402
 31
0.0
  0
LINE
  5
16B
330
1F
100
AcDbEntity
  8
1
100
AcDbLine
 10
281.4828008822
 20
2071.9332310402
 30
0.0
 11
281.4828008822
 21
2054.4332310402
 31
0.0
  0
LINE
  5
16C
330
1F
100
AcDbEntity
  8
1
100
AcDbLine
 10
597.9828008821
 20
2517.4332310402
 30
0.0
 11
597.9828008821
 21
2515.1332310402
 31
0.0
  0
LINE
  5
16D
330
1F
100
AcDbEntity
  8
1
100
AcDbLine
 10
1047.9828008822
 20
2515.1332310402
 30
0.0
 11
1047.9828008822
 21
2517.4332310402
 31
0.0
  0
LINE
  5
16E
330
1F
100
AcDbEntity
  8
1
100
AcDbLine
 10
1047.9828008822
 20
2466.0332310402
 30
0.0
 11
1047.9828008822
 21
2467.4332310402
 31
0.0
  0
LINE
  5
16F
330
1F
100
AcDbEntity
  8
1
100
AcDbLine
 10
620.6828008822
 20
2515.1332310402
 30
0.0
 11
620.6828008822
 21
2491.4332310402
 31
0.0
  0
LINE
  5
170
330
1F
100
AcDbEntity
  8
1
100
AcDbLine
 10
1025.2828008822
 20
2467.4332310402
 30
0.0
 11
1025.2828008822
 21
2515.1332310402
 31
0.0
  0
LINE
  5
171
330
1F
100
AcDbEntity
  8
1
100
AcDbLine
 10
173.9828008822
 20
2071.9332310402
 30
0.0
 11
416.9828008822
 21
2071.9332310402
 31
0.0
  0
LINE
  5
172
330
1F
100
AcDbEntity
  8
1
100
AcDbLine
 10
371.9828008822
 20
2397.9332310402
 30
0.0
 11
173.9828008822
 21
2397.9332310402
 31
0.0
  0
LINE
  5
173
330
1F
100
AcDbEntity
  8
1
100
AcDbLine
 10
437.9828008822
 20
2081.9332310402
 30
0.0
 11
416.9828008822
 21
2081.9332310402
 31
0.0
  0
LINE
  5
174
330
1F
100
AcDbEntity
  8
1
100
AcDbLine
 10
173.9828008822
 20
2081.9332310402
 30
0.0
 11
152.9828008822
 21
2081.9332310402
 31
0.0
  0
LINE
  5
175
330
1F
100
AcDbEntity
  8
1
100
AcDbLine
 10
437.9828008822
 20
2137.4332310402
 30
0.0
 11
437.9828008822
 21
2081.9332310402
 31
0.0
  0
LINE
  5
176
330
1F
100
AcDbEntity
  8
1
100
AcDbLine
 10
152.9828008822
 20
2341.9332310402
 30
0.0
 11
173.9828008822
 21
2341.9332310402
 31
0.0
  0
LINE
  5
177
330
1F
100
AcDbEntity
  8
1
100
AcDbLine
 10
152.9828008822
 20
2081.9332310402
 30
0.0
 11
152.9828008822
 21
2341.9332310402
 31
0.0
  0
LINE
  5
178
330
1F
100
AcDbEntity
  8
1
100
AcDbLine
 10
990.4828008822
 20
1894.4332310402
 30
0.0
 11
120.4828008822
 21
1894.4332310402
 31
0.0
  0
LINE
  5
179
330
1F
100
AcDbEntity
  8
1
100
AcDbLine
 10
120.4828008822
 20
1894.4332310402
 30
0.0
 11
120.4828008822
 21
2054.4332310402
 31
0.0
  0
LINE
  5
17A
330
1F
100
AcDbEntity
  8
1
100
AcDbLine
 10
990.4828008822
 20
1894.4332310402
 30
0.0
 11
990.4828008822
 21
2054.4332310402
 31
0.0
  0
LINE
  5
17B
330
1F
100
AcDbEntity
  8
1
100
AcDbLine
 10
990.4828008822
 20
2054.4332310402
 30
0.0
 11
120.4828008822
 21
2054.4332310402
 31
0.0
  0
LINE
  5
17C
330
1F
100
AcDbEntity
  8
1
100
AcDbLine
 10
152.9828008821
 20
2054.4332310402
 30
0.0
 11
152.9828008821
 21
2076.4332310402
 31
0.0
  0
LINE
  5
17D
330
1F
100
AcDbEntity
  8
1
100
AcDbLine
 10
52.9828008822
 20
1946.4332310402
 30
0.0
 11
120.4828008822
 21
1946.4332310402
 31
0.0
  0
LINE
  5
17E
330
1F
100
AcDbEntity
  8
1
100
AcDbLine
 10
52.9828008822
 20
2076.4332310402
 30
0.0
 11
52.9828008822
 21
1946.4332310402
 31
0.0
  0
LINE
  5
17F
330
1F
100
AcDbEntity
  8
1
100
AcDbLine
 10
152.9828008821
 20
2076.4332310402
 30
0.0
 11
52.9828008822
 21
2076.4332310402
 31
0.0
  0
LINE
  5
180
330
1F
100
AcDbEntity
  8
1
100
AcDbLine
 10
990.4828008822
 20
1946.4332310402
 30
0.0
 11
1057.9828008822
 21
1946.4332310402
 31
0.0
  0
LINE
  5
181
330
1F
100
AcDbEntity
  8
1
100
AcDbLine
 10
1057.9828008822
 20
1946.4332310402
 30
0.0
 11
1057.9828008822
 21
2076.4332310402
 31
0.0
  0
LINE
  5
182
330
1F
100
AcDbEntity
  8
1
100
AcDbLine
 10
1057.9828008822
 20
2076.4332310402
 30
0.0
 11
957.9828008822
 21
2076.4332310402
 31
0.0
  0
LINE
  5
183
330
1F
100
AcDbEntity
  8
1
100
AcDbLine
 10
957.9828008822
 20
2076.4332310402
 30
0.0
 11
957.9828008822
 21
2054.4332310402
 31
0.0
  0
LINE
  5
184
330
1F
100
AcDbEntity
  8
1
100
AcDbLine
 10
1057.9828008822
 20
2046.4332310402
 30
0.0
 11
1072.9828008822
 21
2046.4332310402
 31
0.0
  0
LINE
  5
185
330
1F
100
AcDbEntity
  8
1
100
AcDbLine
 10
132.9828008821
 20
2086.4332310402
 30
0.0
 11
152.9828008822
 21
2086.4332310402
 31
0.0
  0
LINE
  5
186
330
1F
100
AcDbEntity
  8
1
100
AcDbLine
 10
437.9828008822
 20
2086.4332310402
 30
0.0
 11
1032.9828008821
 21
2086.4332310402
 31
0.0
  0
LINE
  5
187
330
1F
100
AcDbEntity
  8
1
100
AcDbLine
 10
371.9828008822
 20
2466.4332310402
 30
0.0
 11
132.9828008821
 21
2466.4332310402
 31
0.0
  0
LINE
  5
188
330
1F
100
AcDbEntity
  8
1
100
AcDbLine
 10
1032.9828008821
 20
2086.4332310402
 30
0.0
 11
1032.9828008821
 21
2162.8332310402
 31
0.0
  0
LINE
  5
189
330
1F
100
AcDbEntity
  8
1
100
AcDbLine
 10
132.9828008821
 20
2466.4332310402
 30
0.0
 11
132.9828008821
 21
2086.4332310402
 31
0.0
  0
LINE
  5
18A
330
1F
100
AcDbEntity
  8
1
100
AcDbLine
 10
92.9828008821
 20
2506.4332310402
 30
0.0
 11
92.9828008822
 21
2076.4332310402
 31
0.0
  0
LINE
  5
18B
330
1F
100
AcDbEntity
  8
1
100
AcDbLine
 10
1072.9828008821
 20
2506.4332310402
 30
0.0
 11
1025.2828008822
 21
2506.4332310402
 31
0.0
  0
LINE
  5
18C
330
1F
100
AcDbEntity
  8
1
100
AcDbLine
 10
620.6828008822
 20
2506.4332310402
 30
0.0
 11
92.9828008821
 21
2506.4332310402
 31
0.0
  0
LINE
  5
18D
330
1F
100
AcDbEntity
  8
1
100
AcDbLine
 10
1072.9828008822
 20
2046.4332310402
 30
0.0
 11
1072.9828008822
 21
2162.8332310402
 31
0.0
  0
LINE
  5
18E
330
1F
100
AcDbEntity
  8
1
100
AcDbLine
 10
1072.9828008821
 20
2466.0332310402
 30
0.0
 11
1072.9828008821
 21
2506.4332310402
 31
0.0
  0
CIRCLE
  5
18F
330
1F
100
AcDbEntity
  8
1
100
AcDbCircle
 10
381.9828008822
 20
2147.4332310402
 30
0.0
 40
4.000000000000455
  0
CIRCLE
  5
190
330
1F
100
AcDbEntity
  8
1
100
AcDbCircle
 10
454.9828008822
 20
2147.4332310402
 30
0.0
 40
4.000000000000455
  0
CIRCLE
  5
191
330
1F
100
AcDbEntity
  8
1
100
AcDbCircle
 10
554.9828008822
 20
2147.4332310402
 30
0.0
 40
4.000000000000455
  0
CIRCLE
  5
192
330
1F
100
AcDbEntity
  8
1
100
AcDbCircle
 10
381.9828008822
 20
2214.4332310402
 30
0.0
 40
4.0
  0
CIRCLE
  5
193
330
1F
100
AcDbEntity
  8
1
100
AcDbCircle
 10
381.9828008822
 20
2314.4332310402
 30
0.0
 40
4.0
  0
CIRCLE
  5
194
330
1F
100
AcDbEntity
  8
1
100
AcDbCircle
 10
381.9828008822
 20
2414.4332310402
 30
0.0
 40
4.0
  0
CIRCLE
  5
195
330
1F
100
AcDbEntity
  8
1
100
AcDbCircle
 10
554.9828008822
 20
2481.4332310402
 30
0.0
 40
3.999999999999545
  0
CIRCLE
  5
196
330
1F
100
AcDbEntity
  8
1
100
AcDbCircle
 10
454.9828008822
 20
2481.4332310402
 30
0.0
 40
3.999999999999545
  0
CIRCLE
  5
197
330
1F
100
AcDbEntity
  8
1
100
AcDbCircle
 10
381.9828008822
 20
2481.4332310402
 30
0.0
 40
3.999999999999545
  0
CIRCLE
  5
198
330
1F
100
AcDbEntity
  8
1
100
AcDbCircle
 10
827.9828008822
 20
2481.4332310402
 30
0.0
 40
3.999999999999545
  0
CIRCLE
  5
199
330
1F
100
AcDbEntity
  8
1
100
AcDbCircle
 10
754.9828008822
 20
2481.4332310402
 30
0.0
 40
3.999999999999545
  0
CIRCLE
  5
19A
330
1F
100
AcDbEntity
  8
1
100
AcDbCircle
 10
654.9828008822
 20
2481.4332310402
 30
0.0
 40
3.999999999999545
  0
CIRCLE
  5
19B
330
1F
100
AcDbEntity
  8
1
100
AcDbCircle
 10
827.9828008822
 20
2414.4332310402
 30
0.0
 40
4.0
  0
CIRCLE
  5
19C
330
1F
100
AcDbEntity
  8
1
100
AcDbCircle
 10
827.9828008822
 20
2314.4332310402
 30
0.0
 40
4.0
  0
CIRCLE
  5
19D
330
1F
100
AcDbEntity
  8
1
100
AcDbCircle
 10
827.9828008822
 20
2214.4332310402
 30
0.0
 40
4.0
  0
CIRCLE
  5
19E
330
1F
100
AcDbEntity
  8
1
100
AcDbCircle
 10
754.9828008822
 20
2147.4332310402
 30
0.0
 40
4.000000000000455
  0
CIRCLE
  5
19F
330
1F
100
AcDbEntity
  8
1
100
AcDbCircle
 10
827.9828008822
 20
2147.4332310402
 30
0.0
 40
4.000000000000455
  0
LINE
  5
1A0
330
1F
100
AcDbEntity
  8
1
100
AcDbLine
 10
371.9828008822
 20
2491.4332310402
 30
0.0
 11
371.9828008822
 21
2137.4332310402
 31
0.0
  0
LINE
  5
1A1
330
1F
100
AcDbEntity
  8
1
100
AcDbLine
 10
837.9828008822
 20
2491.4332310402
 30
0.0
 11
371.9828008822
 21
2491.4332310402
 31
0.0
  0
LINE
  5
1A2
330
1F
100
AcDbEntity
  8
1
100
AcDbLine
 10
837.9828008821
 20
2137.4332310402
 30
0.0
 11
837.9828008822
 21
2491.4332310402
 31
0.0
  0
LINE
  5
1A3
330
1F
100
AcDbEntity
  8
1
100
AcDbLine
 10
371.9828008822
 20
2137.4332310402
 30
0.0
 11
837.9828008821
 21
2137.4332310402
 31
0.0
  0
LINE
  5
1A4
330
1F
100
AcDbEntity
  8
1
100
AcDbLine
 10
398.9828008822
 20
2164.4332310402
 30
0.0
 11
398.9828008822
 21
2464.4332310402
 31
0.0
  0
LINE
  5
1A5
330
1F
100
AcDbEntity
  8
1
100
AcDbLine
 10
810.9828008822
 20
2164.4332310402
 30
0.0
 11
398.9828008822
 21
2164.4332310402
 31
0.0
  0
LINE
  5
1A6
330
1F
100
AcDbEntity
  8
1
100
AcDbLine
 10
810.9828008822
 20
2164.4332310402
 30
0.0
 11
810.9828008822
 21
2464.4332310402
 31
0.0
  0
LINE
  5
1A7
330
1F
100
AcDbEntity
  8
1
100
AcDbLine
 10
810.9828008822
 20
2464.4332310402
 30
0.0
 11
398.9828008822
 21
2464.4332310402
 31
0.0
  0
CIRCLE
  5
1A8
330
1F
100
AcDbEntity
  8
1
100
AcDbCircle
 10
654.9828008822
 20
2147.4332310402
 30
0.0
 40
4.000000000000455
  0
LINE
  5
1A9
330
1F
100
AcDbEntity
  8
1
100
AcDbLine
 10
845.9828008822
 20
2162.8332310402
 30
0.0
 11
837.9828008821
 21
2162.8332310402
 31
0.0
  0
LINE
  5
1AA
330
1F
100
AcDbEntity
  8
1
100
AcDbLine
 10
845.9828008822
 20
2466.0332310402
 30
0.0
 11
837.9828008822
 21
2466.0332310402
 31
0.0
  0
LINE
  5
1AB
330
1F
100
AcDbEntity
  8
1
100
AcDbLine
 10
1106.1828008822
 20
2162.8332310402
 30
0.0
 11
1106.1828008822
 21
2466.0332310402
 31
0.0
  0
LINE
  5
1AC
330
1F
100
AcDbEntity
  8
1
100
AcDbLine
 10
1106.1828008822
 20
2162.8332310402
 30
0.0
 11
845.9828008822
 21
2162.8332310402
 31
0.0
  0
LINE
  5
1AD
330
1F
100
AcDbEntity
  8
1
100
AcDbLine
 10
1106.1828008822
 20
2466.0332310402
 30
0.0
 11
845.9828008822
 21
2466.0332310402
 31
0.0
  0
LINE
  5
1AE
330
1F
100
AcDbEntity
  8
1
100
AcDbLine
 10
597.9828008821
 20
2515.1332310402
 30
0.0
 11
1047.9828008822
 21
2515.1332310402
 31
0.0
  0
LINE
  5
1AF
330
1F
100
AcDbEntity
  8
1
100
AcDbLine
 10
597.9828008821
 20
2517.4332310402
 30
0.0
 11
1047.9828008822
 21
2517.4332310402
 31
0.0
  0
LINE
  5
1B0
330
1F
100
AcDbEntity
  8
1
100
AcDbLine
 10
1047.9828008822
 20
2467.4332310402
 30
0.0
 11
837.9828008822
 21
2467.4332310402
 31
0.0
  0
LINE
  5
1B1
330
1F
100
AcDbEntity
  8
0
  6
HIDDEN
 62
     7
370
    18
100
AcDbLine
 10
227.6476330118
 20
2101.9332310402
 30
0.0
 11
236.8202915598
 21
2101.9332310402
 31
0.0
  0
LINE
  5
1B2
330
1F
100
AcDbEntity
  8
0
  6
HIDDEN
 62
     7
370
    18
100
AcDbLine
 10
227.6476330118
 20
2101.9332310402
 30
0.0
 11
227.6476330118
 21
2321.9332310402
 31
0.0
  0
LINE
  5
1B3
330
1F
100
AcDbEntity
  8
0
  6
HIDDEN
 62
     7
370
    18
100
AcDbLine
 10
227.6476330118
 20
2321.9332310402
 30
0.0
 11
236.8202915598
 21
2321.9332310402
 31
0.0
  0
LINE
  5
1B4
330
1F
100
AcDbEntity
  8
0
  6
HIDDEN
 62
     7
370
    18
100
AcDbLine
 10
236.8202915598
 20
2397.9332310402
 30
0.0
 11
236.8202915598
 21
2321.9332310402
 31
0.0
  0
LINE
  5
1B5
330
1F
100
AcDbEntity
  8
0
  6
HIDDEN
 62
     7
370
    18
100
AcDbLine
 10
354.1453102045
 20
2397.9332310402
 30
0.0
 11
354.1453102045
 21
2321.9332310402
 31
0.0
  0
LINE
  5
1B6
330
1F
100
AcDbEntity
  8
0
  6
HIDDEN
 62
     7
370
    18
100
AcDbLine
 10
354.1453102045
 20
2321.9332310402
 30
0.0
 11
363.3179687525
 21
2321.9332310402
 31
0.0
  0
LINE
  5
1B7
330
1F
100
AcDbEntity
  8
0
  6
HIDDEN
 62
     7
370
    18
100
AcDbLine
 10
363.3179687525
 20
2321.9332310402
 30
0.0
 11
363.3179687525
 21
2101.9332310402
 31
0.0
  0
LINE
  5
1B8
330
1F
100
AcDbEntity
  8
0
  6
HIDDEN
 62
     7
370
    18
100
AcDbLine
 10
354.1453102045
 20
2101.9332310402
 30
0.0
 11
363.3179687525
 21
2101.9332310402
 31
0.0
  0
LINE
  5
1B9
330
1F
100
AcDbEntity
  8
0
  6
HIDDEN
 62
     7
370
    18
100
AcDbLine
 10
354.1453102045
 20
2101.9332310402
 30
0.0
 11
354.1453102045
 21
2071.9332310402
 31
0.0
  0
LINE
  5
1BA
330
1F
100
AcDbEntity
  8
0
  6
HIDDEN
 62
     7
370
    18
100
AcDbLine
 10
236.8202915598
 20
2101.9332310402
 30
0.0
 11
236.8202915598
 21
2071.9332310402
 31
0.0
  0
LINE
  5
1BB
330
1F
100
AcDbEntity
  8
0
  6
HIDDEN
 62
     7
370
    18
100
AcDbLine
 10
416.9828008822
 20
2397.9332310402
 30
0.0
 11
371.9828008822
 21
2397.9332310402
 31
0.0
  0
LINE
  5
1BC
330
1F
100
AcDbEntity
  8
0
  6
HIDDEN
 62
     7
370
    18
100
AcDbLine
 10
211.4828008822
 20
2101.9332310402
 30
0.0
 11
211.4828008822
 21
2321.9332310402
 31
0.0
  0
LINE
  5
1BD
330
1F
100
AcDbEntity
  8
0
  6
HIDDEN
 62
     7
370
    18
100
AcDbLine
 10
227.6476330118
 20
2321.9332310402
 30
0.0
 11
211.4828008822
 21
2321.9332310402
 31
0.0
  0
LINE
  5
1BE
330
1F
100
AcDbEntity
  8
0
  6
HIDDEN
 62
     7
370
    18
100
AcDbLine
 10
227.6476330118
 20
2101.9332310402
 30
0.0
 11
211.4828008822
 21
2101.9332310402
 31
0.0
  0
LINE
  5
1BF
330
1F
100
AcDbEntity
  8
0
  6
HIDDEN
 62
     7
370
    18
100
AcDbLine
 10
379.4828008822
 20
2101.9332310402
 30
0.0
 11
379.4828008822
 21
2321.9332310402
 31
0.0
  0
LINE
  5
1C0
330
1F
100
AcDbEntity
  8
0
  6
HIDDEN
 62
     7
370
    18
100
AcDbLine
 10
379.4828008822
 20
2101.9332310402
 30
0.0
 11
363.3179687525
 21
2101.9332310402
 31
0.0
  0
LINE
  5
1C1
330
1F
100
AcDbEntity
  8
0
  6
HIDDEN
 62
     7
370
    18
100
AcDbLine
 10
379.4828008822
 20
2321.9332310402
 30
0.0
 11
363.3179687525
 21
2321.9332310402
 31
0.0
  0
LINE
  5
1C2
330
1F
100
AcDbEntity
  8
0
  6
HIDDEN
 62
     7
370
    18
100
AcDbLine
 10
236.8202915598
 20
2321.9332310402
 30
0.0
 11
354.1453102045
 21
2321.9332310402
 31
0.0
  0
LINE
  5
1C3
330
1F
100
AcDbEntity
  8
0
  6
HIDDEN
 62
     7
370
    18
100
AcDbLine
 10
236.8202915598
 20
2101.9332310402
 30
0.0
 11
354.1453102045
 21
2101.9332310402
 31
0.0
  0
LINE
  5
1C4
330
1F
100
AcDbEntity
  8
0
  6
HIDDEN
 62
     7
370
    18
100
AcDbLine
 10
416.9828008822
 20
2081.9332310402
 30
0.0
 11
173.9828008822
 21
2081.9332310402
 31
0.0
  0
LINE
  5
1C5
330
1F
100
AcDbEntity
  8
0
  6
HIDDEN
 62
     7
370
    18
100
AcDbLine
 10
437.9828008822
 20
2341.9332310402
 30
0.0
 11
437.9828008822
 21
2137.4332310402
 31
0.0
  0
LINE
  5
1C6
330
1F
100
AcDbEntity
  8
0
  6
HIDDEN
 62
     7
370
    18
100
AcDbLine
 10
173.9828008822
 20
2341.9332310402
 30
0.0
 11
437.9828008822
 21
2341.9332310402
 31
0.0
  0
LINE
  5
1C7
330
1F
100
AcDbEntity
  8
0
  6
HIDDEN
 62
     7
370
    18
100
AcDbLine
 10
831.8871844823
 20
1936.9332310402
 30
0.0
 11
897.9828008821
 21
1936.9332310402
 31
0.0
  0
LINE
  5
1C8
330
1F
100
AcDbEntity
  8
0
  6
HIDDEN
 62
     7
370
    18
100
AcDbLine
 10
747.9828008821
 20
1936.9332310402
 30
0.0
 11
831.8871844823
 21
1936.9332310402
 31
0.0
  0
LINE
  5
1C9
330
1F
100
AcDbEntity
  8
0
  6
HIDDEN
 62
     7
370
    18
100
AcDbLine
 10
831.8871844823
 20
2011.9332310402
 30
0.0
 11
897.9828008821
 21
2011.9332310402
 31
0.0
  0
LINE
  5
1CA
330
1F
100
AcDbEntity
  8
0
  6
HIDDEN
 62
     7
370
    18
100
AcDbLine
 10
747.9828008821
 20
2011.9332310402
 30
0.0
 11
831.8871844823
 21
2011.9332310402
 31
0.0
  0
LINE
  5
1CB
330
1F
100
AcDbEntity
  8
0
  6
HIDDEN
 62
     7
370
    18
100
AcDbLine
 10
220.4828008822
 20
1936.9332310402
 30
0.0
 11
370.4828008822
 21
1936.9332310402
 31
0.0
  0
LINE
  5
1CC
330
1F
100
AcDbEntity
  8
0
  6
HIDDEN
 62
     7
370
    18
100
AcDbLine
 10
220.4828008822
 20
2011.9332310402
 30
0.0
 11
370.4828008822
 21
2011.9332310402
 31
0.0
  0
LINE
  5
1CD
330
1F
100
AcDbEntity
  8
0
  6
HIDDEN
 62
     7
370
    18
100
AcDbLine
 10
129.7828008822
 20
2469.6332310402
 30
0.0
 11
129.7828008822
 21
2083.2332310402
 31
0.0
  0
LINE
  5
1CE
330
1F
100
AcDbEntity
  8
0
  6
HIDDEN
 62
     7
370
    18
100
AcDbLine
 10
1036.1828008822
 20
2469.6332310402
 30
0.0
 11
129.7828008822
 21
2469.6332310402
 31
0.0
  0
LINE
  5
1CF
330
1F
100
AcDbEntity
  8
0
  6
HIDDEN
 62
     7
370
    18
100
AcDbLine
 10
1036.1828008822
 20
2083.2332310402
 30
0.0
 11
1036.1828008822
 21
2469.6332310402
 31
0.0
  0
LINE
  5
1D0
330
1F
100
AcDbEntity
  8
0
  6
HIDDEN
 62
     7
370
    18
100
AcDbLine
 10
129.7828008822
 20
2083.2332310402
 30
0.0
 11
1036.1828008822
 21
2083.2332310402
 31
0.0
  0
CIRCLE
  5
1D1
330
1F
100
AcDbEntity
  8
0
  6
HIDDEN
 62
     7
370
    18
100
AcDbCircle
 10
142.9828008822
 20
2064.4332310402
 30
0.0
 40
6.0
  0
CIRCLE
  5
1D2
330
1F
100
AcDbEntity
  8
0
  6
HIDDEN
 62
     7
370
    18
100
AcDbCircle
 10
582.9828008822
 20
2064.4332310402
 30
0.0
 40
6.0
  0
CIRCLE
  5
1D3
330
1F
100
AcDbEntity
  8
0
  6
HIDDEN
 62
     7
370
    18
100
AcDbCircle
 10
1022.9828008821
 20
2064.4332310402
 30
0.0
 40
6.0
  0
CIRCLE
  5
1D4
330
1F
100
AcDbEntity
  8
0
  6
HIDDEN
 62
     7
370
    18
100
AcDbCircle
 10
582.9828008822
 20
2488.4332310402
 30
0.0
 40
6.000000000000455
  0
CIRCLE
  5
1D5
330
1F
100
AcDbEntity
  8
0
  6
HIDDEN
 62
     7
370
    18
100
AcDbCircle
 10
1022.9828008821
 20
2488.4332310402
 30
0.0
 40
6.000000000000455
  0
CIRCLE
  5
1D6
330
1F
100
AcDbEntity
  8
0
  6
HIDDEN
 62
     7
370
    18
100
AcDbCircle
 10
142.9828008822
 20
2488.4332310402
 30
0.0
 40
6.000000000000455
  0
LINE
  5
1D7
330
1F
100
AcDbEntity
  8
0
  6
HIDDEN
 62
     7
370
    18
100
AcDbLine
 10
152.9828008821
 20
1946.4332310402
 30
0.0
 11
152.9828008821
 21
2054.4332310402
 31
0.0
  0
LINE
  5
1D8
330
1F
100
AcDbEntity
  8
0
  6
HIDDEN
 62
     7
370
    18
100
AcDbLine
 10
120.4828008822
 20
1946.4332310402
 30
0.0
 11
152.9828008821
 21
1946.4332310402
 31
0.0
  0
LINE
  5
1D9
330
1F
100
AcDbEntity
  8
0
  6
HIDDEN
 62
     7
370
    18
100
AcDbLine
 10
957.9828008822
 20
1946.4332310402
 30
0.0
 11
990.4828008822
 21
1946.4332310402
 31
0.0
  0
LINE
  5
1DA
330
1F
100
AcDbEntity
  8
0
  6
HIDDEN
 62
     7
370
    18
100
AcDbLine
 10
957.9828008822
 20
2054.4332310402
 30
0.0
 11
957.9828008822
 21
1946.4332310402
 31
0.0
  0
LINE
  5
1DB
330
1F
100
AcDbEntity
  8
0
  6
HIDDEN
 62
     7
370
    18
100
AcDbLine
 10
152.9828008821
 20
2046.4332310402
 30
0.0
 11
957.9828008822
 21
2046.4332310402
 31
0.0
  0
LINE
  5
1DC
330
1F
100
AcDbEntity
  8
0
  6
HIDDEN
 62
     7
370
    18
100
AcDbLine
 10
152.9828008822
 20
2086.4332310402
 30
0.0
 11
437.9828008822
 21
2086.4332310402
 31
0.0
  0
LINE
  5
1DD
330
1F
100
AcDbEntity
  8
0
  6
HIDDEN
 62
     7
370
    18
100
AcDbLine
 10
1032.9828008822
 20
2466.4332310402
 30
0.0
 11
371.9828008822
 21
2466.4332310402
 31
0.0
  0
LINE
  5
1DE
330
1F
100
AcDbEntity
  8
0
  6
HIDDEN
 62
     7
370
    18
100
AcDbLine
 10
1032.9828008821
 20
2162.8332310402
 30
0.0
 11
1032.9828008822
 21
2466.4332310402
 31
0.0
  0
LINE
  5
1DF
330
1F
100
AcDbEntity
  8
0
  6
HIDDEN
 62
     7
370
    18
100
AcDbLine
 10
1025.2828008822
 20
2506.4332310402
 30
0.0
 11
620.6828008822
 21
2506.4332310402
 31
0.0
  0
LINE
  5
1E0
330
1F
100
AcDbEntity
  8
0
  6
HIDDEN
 62
     7
370
    18
100
AcDbLine
 10
1072.9828008822
 20
2162.8332310402
 30
0.0
 11
1072.9828008821
 21
2466.0332310402
 31
0.0
  0
LINE
  5
1E1
330
1F
100
AcDbEntity
  8
0
  6
HIDDEN
 62
     7
370
    18
100
AcDbLine
 10
92.9828008822
 20
2046.4332310402
 30
0.0
 11
152.9828008821
 21
2046.4332310402
 31
0.0
  0
LINE
  5
1E2
330
1F
100
AcDbEntity
  8
0
  6
HIDDEN
 62
     7
370
    18
100
AcDbLine
 10
92.9828008822
 20
2076.4332310402
 30
0.0
 11
92.9828008822
 21
2046.4332310402
 31
0.0
  0
LINE
  5
1E3
330
1F
100
AcDbEntity
  8
0
  6
HIDDEN
 62
     7
370
    18
100
AcDbLine
 10
957.9828008822
 20
2046.4332310402
 30
0.0
 11
1057.9828008822
 21
2046.4332310402
 31
0.0
  0
LINE
  5
1E4
330
1F
100
AcDbEntity
  8
0
  6
HIDDEN
 62
     7
370
    18
100
AcDbLine
 10
1037.9828008822
 20
2471.4332310402
 30
0.0
 11
127.9828008822
 21
2471.4332310402
 31
0.0
  0
LINE
  5
1E5
330
1F
100
AcDbEntity
  8
0
  6
HIDDEN
 62
     7
370
    18
100
AcDbLine
 10
127.9828008822
 20
2471.4332310402
 30
0.0
 11
127.9828008822
 21
2081.4332310402
 31
0.0
  0
LINE
  5
1E6
330
1F
100
AcDbEntity
  8
0
  6
HIDDEN
 62
     7
370
    18
100
AcDbLine
 10
1037.9828008821
 20
2081.4332310402
 30
0.0
 11
1037.9828008822
 21
2471.4332310402
 31
0.0
  0
LINE
  5
1E7
330
1F
100
AcDbEntity
  8
0
  6
HIDDEN
 62
     7
370
    18
100
AcDbLine
 10
127.9828008822
 20
2081.4332310402
 30
0.0
 11
1037.9828008821
 21
2081.4332310402
 31
0.0
  0
CIRCLE
  5
1E8
330
1F
100
AcDbEntity
  8
0
  6
HIDDEN
 62
     7
370
    18
100
AcDbCircle
 10
1032.9828008821
 20
2486.4332310402
 30
0.0
 40
17.5
  0
CIRCLE
  5
1E9
330
1F
100
AcDbEntity
  8
0
  6
HIDDEN
 62
     7
370
    18
100
AcDbCircle
 10
132.9828008821
 20
2486.4332310402
 30
0.0
 40
17.5
  0
CIRCLE
  5
1EA
330
1F
100
AcDbEntity
  8
0
  6
HIDDEN
 62
     7
370
    18
100
AcDbCircle
 10
132.9828008821
 20
2066.4332310402
 30
0.0
 40
17.49999999999955
  0
CIRCLE
  5
1EB
330
1F
100
AcDbEntity
  8
0
  6
HIDDEN
 62
     7
370
    18
100
AcDbCircle
 10
1032.9828008821
 20
2066.4332310402
 30
0.0
 40
17.49999999999955
  0
LINE
  5
1EC
330
1F
100
AcDbEntity
  8
0
  6
HIDDEN
 62
     7
370
    18
100
AcDbLine
 10
398.0076013367
 20
2466.0332310402
 30
0.0
 11
812.1828008822
 21
2466.0332310402
 31
0.0
  0
LINE
  5
1ED
330
1F
100
AcDbEntity
  8
0
  6
HIDDEN
 62
     7
370
    18
100
AcDbLine
 10
812.1828008822
 20
2162.8332310402
 30
0.0
 11
812.1828008822
 21
2466.0332310402
 31
0.0
  0
LINE
  5
1EE
330
1F
100
AcDbEntity
  8
0
  6
HIDDEN
 62
     7
370
    18
100
AcDbLine
 10
398.0076013367
 20
2466.0332310402
 30
0.0
 11
398.0076013367
 21
2162.8332310402
 31
0.0
  0
LINE
  5
1EF
330
1F
100
AcDbEntity
  8
0
  6
HIDDEN
 62
     7
370
    18
100
AcDbLine
 10
398.0076013367
 20
2162.8332310402
 30
0.0
 11
812.1828008822
 21
2162.8332310402
 31
0.0
  0
LINE
  5
1F0
330
1F
100
AcDbEntity
  8
0
  6
HIDDEN
 62
     7
370
    18
100
AcDbLine
 10
837.9828008821
 20
2162.8332310402
 30
0.0
 11
812.1828008822
 21
2162.8332310402
 31
0.0
  0
LINE
  5
1F1
330
1F
100
AcDbEntity
  8
0
  6
HIDDEN
 62
     7
370
    18
100
AcDbLine
 10
837.9828008822
 20
2466.0332310402
 30
0.0
 11
812.1828008822
 21
2466.0332310402
 31
0.0
  0
LINE
  5
1F2
330
1F
100
AcDbEntity
  8
0
  6
HIDDEN
 62
     7
370
    18
100
AcDbLine
 10
845.9828008822
 20
2164.4332310402
 30
0.0
 11
810.9828008822
 21
2164.4332310402
 31
0.0
  0
LINE
  5
1F3
330
1F
100
AcDbEntity
  8
0
  6
HIDDEN
 62
     7
370
    18
100
AcDbLine
 10
845.9828008822
 20
2464.4332310402
 30
0.0
 11
810.9828008822
 21
2464.4332310402
 31
0.0
  0
LINE
  5
1F4
330
1F
100
AcDbEntity
  8
0
  6
HIDDEN
 62
     7
370
    18
100
AcDbLine
 10
1104.9828008822
 20
2164.4332310402
 30
0.0
 11
1104.9828008822
 21
2464.4332310402
 31
0.0
  0
LINE
  5
1F5
330
1F
100
AcDbEntity
  8
0
  6
HIDDEN
 62
     7
370
    18
100
AcDbLine
 10
1104.9828008822
 20
2164.4332310402
 30
0.0
 11
845.9828008822
 21
2164.4332310402
 31
0.0
  0
LINE
  5
1F6
330
1F
100
AcDbEntity
  8
0
  6
HIDDEN
 62
     7
370
    18
100
AcDbLine
 10
1104.9828008822
 20
2464.4332310402
 30
0.0
 11
845.9828008822
 21
2464.4332310402
 31
0.0
  0
LINE
  5
1F7
330
1F
100
AcDbEntity
  8
0
  6
HIDDEN
 62
     7
370
    18
100
AcDbLine
 10
822.9828008822
 20
2467.4332310402
 30
0.0
 11
597.9828008822
 21
2467.4332310402
 31
0.0
  0
LINE
  5
1F8
330
1F
100
AcDbEntity
  8
0
  6
HIDDEN
 62
     7
370
    18
100
AcDbLine
 10
837.9828008822
 20
2467.4332310402
 30
0.0
 11
822.9828008822
 21
2467.4332310402
 31
0.0
  0
LINE
  5
1F9
330
1F
100
AcDbEntity
  8
0
  6
HIDDEN
 62
     7
370
    18
100
AcDbLine
 10
416.9828008822
 20
2137.4332310402
 30
0.0
 11
416.9828008822
 21
2397.9332310402
 31
0.0
  0
LINE
  5
1FA
330
1F
100
AcDbEntity
  8
0
  6
HIDDEN
 62
     7
370
    18
100
AcDbLine
 10
309.4828008822
 20
2011.9332310402
 30
0.0
 11
309.4828008822
 21
2054.4332310402
 31
0.0
  0
LINE
  5
1FB
330
1F
100
AcDbEntity
  8
0
  6
HIDDEN
 62
     7
370
    18
100
AcDbLine
 10
281.4828008822
 20
2054.4332310402
 30
0.0
 11
281.4828008822
 21
2011.9332310402
 31
0.0
  0
LINE
  5
1FC
330
1F
100
AcDbEntity
  8
0
  6
HIDDEN
 62
     7
370
    18
100
AcDbLine
 10
897.9828008821
 20
1936.9332310402
 30
0.0
 11
897.9828008821
 21
2011.9332310402
 31
0.0
  0
LINE
  5
1FD
330
1F
100
AcDbEntity
  8
0
  6
HIDDEN
 62
     7
370
    18
100
AcDbLine
 10
747.9828008821
 20
2011.9332310402
 30
0.0
 11
747.9828008821
 21
1936.9332310402
 31
0.0
  0
LINE
  5
1FE
330
1F
100
AcDbEntity
  8
0
  6
HIDDEN
 62
     7
370
    18
100
AcDbLine
 10
370.4828008822
 20
1936.9332310402
 30
0.0
 11
370.4828008822
 21
2011.9332310402
 31
0.0
  0
LINE
  5
1FF
330
1F
100
AcDbEntity
  8
0
  6
HIDDEN
 62
     7
370
    18
100
AcDbLine
 10
220.4828008822
 20
2011.9332310402
 30
0.0
 11
220.4828008822
 21
1936.9332310402
 31
0.0
  0
LINE
  5
200
330
1F
100
AcDbEntity
  8
0
  6
HIDDEN
 62
     7
370
    18
100
AcDbLine
 10
597.9828008821
 20
2467.4332310402
 30
0.0
 11
597.9828008821
 21
2466.0332310402
 31
0.0
  0
LINE
  5
201
330
1F
100
AcDbEntity
  8
0
  6
HIDDEN
 62
     7
370
    18
100
AcDbLine
 10
763.3367061851
 20
2517.4332310402
 30
0.0
 11
763.3367061851
 21
2515.1332310402
 31
0.0
  0
LINE
  5
202
330
1F
100
AcDbEntity
  8
0
  6
HIDDEN
 62
     7
370
    18
100
AcDbLine
 10
771.3367061851
 20
2515.1332310402
 30
0.0
 11
771.3367061851
 21
2517.4332310402
 31
0.0
  0
LINE
  5
203
330
1F
100
AcDbEntity
  8
0
  6
HIDDEN
 62
     7
370
    18
100
AcDbLine
 10
874.6288955792
 20
2517.4332310402
 30
0.0
 11
874.6288955792
 21
2515.1332310402
 31
0.0
  0
LINE
  5
204
330
1F
100
AcDbEntity
  8
0
  6
HIDDEN
 62
     7
370
    18
100
AcDbLine
 10
882.6288955792
 20
2515.1332310402
 30
0.0
 11
882.6288955792
 21
2517.4332310402
 31
0.0
  0
LINE
  5
205
330
1F
100
AcDbEntity
  8
0
  6
HIDDEN
 62
     7
370
    18
100
AcDbLine
 10
620.6828008822
 20
2491.4332310402
 30
0.0
 11
620.6828008822
 21
2467.4332310402
 31
0.0
  0
LINE
  5
206
330
1F
100
AcDbEntity
  8
0
  6
HIDDEN
 62
     7
370
    18
100
AcDbLine
 10
1022.9828008822
 20
2464.4332310402
 30
0.0
 11
1022.9828008822
 21
2517.4332310402
 31
0.0
  0
LINE
  5
207
330
1F
100
AcDbEntity
  8
0
  6
HIDDEN
 62
     7
370
    18
100
AcDbLine
 10
622.9828008822
 20
2517.4332310402
 30
0.0
 11
622.9828008822
 21
2464.4332310402
 31
0.0
  0
LINE
  5
208
330
1F
100
AcDbEntity
  8
0
  6
HIDDEN
 62
     7
370
    18
100
AcDbLine
 10
666.954842927
 20
2517.4332310402
 30
0.0
 11
666.954842927
 21
2515.1332310402
 31
0.0
  0
LINE
  5
209
330
1F
100
AcDbEntity
  8
0
  6
HIDDEN
 62
     7
370
    18
100
AcDbLine
 10
674.954842927
 20
2515.1332310402
 30
0.0
 11
674.954842927
 21
2517.4332310402
 31
0.0
  0
LINE
  5
20A
330
1F
100
AcDbEntity
  8
0
  6
HIDDEN
 62
     7
370
    18
100
AcDbLine
 10
971.0107588373
 20
2517.4332310402
 30
0.0
 11
971.0107588373
 21
2515.1332310402
 31
0.0
  0
LINE
  5
20B
330
1F
100
AcDbEntity
  8
0
  6
HIDDEN
 62
     7
370
    18
100
AcDbLine
 10
979.0107588373
 20
2515.1332310402
 30
0.0
 11
979.0107588373
 21
2517.4332310402
 31
0.0
  0
LINE
  5
20C
330
1F
100
AcDbEntity
  8
0
  6
HIDDEN
 62
     7
370
    18
100
AcDbLine
 10
611.30874823
 20
2517.4332310402
 30
0.0
 11
611.30874823
 21
2515.1332310402
 31
0.0
  0
LINE
  5
20D
330
1F
100
AcDbEntity
  8
0
  6
HIDDEN
 62
     7
370
    18
100
AcDbLine
 10
619.30874823
 20
2515.1332310402
 30
0.0
 11
619.30874823
 21
2517.4332310402
 31
0.0
  0
LINE
  5
20E
330
1F
100
AcDbEntity
  8
0
  6
HIDDEN
 62
     7
370
    18
100
AcDbLine
 10
1026.6568535343
 20
2517.4332310402
 30
0.0
 11
1026.6568535343
 21
2515.1332310402
 31
0.0
  0
LINE
  5
20F
330
1F
100
AcDbEntity
  8
0
  6
HIDDEN
 62
     7
370
    18
100
AcDbLine
 10
1034.6568535343
 20
2515.1332310402
 30
0.0
 11
1034.6568535343
 21
2517.4332310402
 31
0.0
  0
CIRCLE
  5
210
330
1F
100
AcDbEntity
  8
基礎穴
100
AcDbCircle
 10
142.9828008822
 20
2064.4332310402
 30
0.0
 40
6.000000000000077
  0
CIRCLE
  5
211
330
1F
100
AcDbEntity
  8
基礎穴
100
AcDbCircle
 10
582.9828008821
 20
2064.4332310402
 30
0.0
 40
6.000000000000023
  0
CIRCLE
  5
212
330
1F
100
AcDbEntity
  8
基礎穴
100
AcDbCircle
 10
1022.9828008821
 20
2064.4332310402
 30
0.0
 40
6.000000000000023
  0
CIRCLE
  5
213
330
1F
100
AcDbEntity
  8
基礎穴
100
AcDbCircle
 10
1022.9828008821
 20
2488.4332310402
 30
0.0
 40
6.000000000000023
  0
CIRCLE
  5
214
330
1F
100
AcDbEntity
  8
基礎穴
100
AcDbCircle
 10
582.9828008821
 20
2488.4332310402
 30
0.0
 40
6.000000000000023
  0
CIRCLE
  5
215
330
1F
100
AcDbEntity
  8
基礎穴
100
AcDbCircle
 10
142.9828008822
 20
2488.4332310402
 30
0.0
 40
6.000000000000077
  0
LINE
  5
216
330
1F
100
AcDbEntity
  8
2
100
AcDbLine
 10
604.9828008822
 20
2144.9811457734
 30
0.0
 11
604.9828008822
 21
2487.6800174908
 31
0.0
  0
LINE
  5
217
330
1F
100
AcDbEntity
  8
2
100
AcDbLine
 10
372.7815502081
 20
2314.4332310402
 30
0.0
 11
1089.7000531631
 21
2314.4332310402
 31
0.0
  0
LINE
  5
218
330
1F
100
AcDbEntity
  8
2
100
AcDbLine
 10
822.9828008822
 20
1905.6282056842
 30
0.0
 11
822.9828008822
 21
2509.9028431477
 31
0.0
  0
ENDSEC
  0
SECTION
  2
OBJECTS
  0
DICTIONARY
  5
C
330
0
100
AcDbDictionary
281
     1
  3
ACAD_GROUP
350
D
  3
ACAD_LAYOUT
350
1A
  3
ACAD_MLINESTYLE
350
17
  3
ACAD_PLOTSETTINGS
350
19
  3
ACAD_PLOTSTYLENAME
350
E
  3
ACAD_SCALELIST
350
47
  3
DWGPROPS
350
219
  0
DICTIONARY
  5
D
102
{ACAD_REACTORS
330
C
102
}
330
C
100
AcDbDictionary
281
     1
  0
DICTIONARY
  5
1A
102
{ACAD_REACTORS
330
C
102
}
330
C
100
AcDbDictionary
281
     1
  3
Layout1
350
1E
  3
Layout2
350
26
  3
Model
350
22
  0
DICTIONARY
  5
17
102
{ACAD_REACTORS
330
C
102
}
330
C
100
AcDbDictionary
281
     1
  3
Standard
350
18
  0
DICTIONARY
  5
19
102
{ACAD_REACTORS
330
C
102
}
330
C
100
AcDbDictionary
281
     1
  0
ACDBDICTIONARYWDFLT
  5
E
102
{ACAD_REACTORS
330
C
102
}
330
C
100
AcDbDictionary
281
     1
  3
Normal
350
F
100
AcDbDictionaryWithDefault
340
F
  0
DICTIONARY
  5
47
102
{ACAD_REACTORS
330
C
102
}
330
C
100
AcDbDictionary
281
     1
  3
A0
350
48
  3
A1
350
49
  3
A2
350
4A
  3
A3
350
4B
  3
A4
350
4C
  3
A5
350
4D
  3
A6
350
4E
  3
A7
350
4F
  3
A8
350
50
  3
A9
350
51
  3
B0
350
52
  3
B1
350
53
  3
B2
350
54
  3
B3
350
55
  3
B4
350
56
  3
B5
350
57
  3
B6
350
58
  0
XRECORD
  5
219
102
{ACAD_REACTORS
330
C
102
}
330
C
100
AcDbXrecord
280
     1
  1
DWGPROPS COOKIE
  2

  3

  4

  6

  7

  8
yuta.kunimatsu
  9

300
=
301
=
302
=
303
=
304
=
305
=
306
=
307
=
308
=
309
=
 40
0.0
 41
2460115.245824028
 42
2460115.245824456
  1

 90
        0
  0
LAYOUT
  5
1E
102
{ACAD_REACTORS
330
1A
102
}
330
1A
100
AcDbPlotSettings
  1

  2
none_device
  4

  6

 40
0.0
 41
0.0
 42
0.0
 43
0.0
 44
0.0
 45
0.0
 46
0.0
 47
0.0
 48
0.0
 49
0.0
140
0.0
141
0.0
142
1.0
143
1.0
 70
   688
 72
     1
 73
     0
 74
     5
  7

 75
    16
147
1.0
148
0.0
149
0.0
100
AcDbLayout
  1
Layout1
 70
     1
 71
     1
 10
0.0
 20
0.0
 11
420.0
 21
297.0
 12
0.0
 22
0.0
 32
0.0
 14
1.0000000000E+20
 24
1.0000000000E+20
 34
1.0000000000E+20
 15
-1.0000000000E+20
 25
-1.0000000000E+20
 35
-1.0000000000E+20
146
0.0
 13
0.0
 23
0.0
 33
0.0
 16
1.0
 26
0.0
 36
0.0
 17
0.0
 27
1.0
 37
0.0
 76
     0
330
1B
  0
LAYOUT
  5
26
102
{ACAD_REACTORS
330
1A
102
}
330
1A
100
AcDbPlotSettings
  1

  2
none_device
  4

  6

 40
0.0
 41
0.0
 42
0.0
 43
0.0
 44
0.0
 45
0.0
 46
0.0
 47
0.0
 48
0.0
 49
0.0
140
0.0
141
0.0
142
1.0
143
1.0
 70
   688
 72
     1
 73
     0
 74
     5
  7

 75
    16
147
1.0
148
0.0
149
0.0
100
AcDbLayout
  1
Layout2
 70
     1
 71
     2
 10
0.0
 20
0.0
 11
0.0
 21
0.0
 12
0.0
 22
0.0
 32
0.0
 14
0.0
 24
0.0
 34
0.0
 15
0.0
 25
0.0
 35
0.0
146
0.0
 13
0.0
 23
0.0
 33
0.0
 16
1.0
 26
0.0
 36
0.0
 17
0.0
 27
1.0
 37
0.0
 76
     0
330
23
  0
LAYOUT
  5
22
102
{ACAD_REACTORS
330
1A
102
}
330
1A
100
AcDbPlotSettings
  1

  2
none_device
  4
Letter_(8.50_x_11.00_Inches)
  6

 40
6.35
 41
6.35
 42
6.35000508
 43
6.35000508
 44
215.9
 45
279.4
 46
0.0
 47
0.0
 48
0.0
 49
0.0
140
0.0
141
0.0
142
1.0
143
1.0
 70
  1712
 72
     1
 73
     0
 74
     0
  7

 75
     0
147
1.0
148
0.0
149
0.0
100
AcDbLayout
  1
Model
 70
     1
 71
     0
 10
0.0
 20
0.0
 11
2100.0
 21
2970.0
 12
0.0
 22
0.0
 32
0.0
 14
0.0
 24
0.0
 34
0.0
 15
2100.0
 25
2970.0
 35
0.0
146
0.0
 13
0.0
 23
0.0
 33
0.0
 16
1.0
 26
0.0
 36
0.0
 17
0.0
 27
1.0
 37
0.0
 76
     0
330
1F
331
29
  0
MLINESTYLE
  5
18
102
{ACAD_REACTORS
330
17
102
}
330
17
100
AcDbMlineStyle
  2
Standard
 70
     0
  3

 62
   256
 51
90.0
 52
90.0
 71
     2
 49
0.5
 62
   256
  6
BYLAYER
 49
-0.5
 62
   256
  6
BYLAYER
  0
ACDBPLACEHOLDER
  5
F
102
{ACAD_REACTORS
330
E
102
}
330
E
  0
SCALE
  5
48
102
{ACAD_REACTORS
330
47
102
}
330
47
100
AcDbScale
 70
     0
300
1:1
140
1.0
141
1.0
290
     1
  0
SCALE
  5
49
102
{ACAD_REACTORS
330
47
102
}
330
47
100
AcDbScale
 70
     0
300
1:2
140
1.0
141
2.0
290
     0
  0
SCALE
  5
4A
102
{ACAD_REACTORS
330
47
102
}
330
47
100
AcDbScale
 70
     0
300
1:4
140
1.0
141
4.0
290
     0
  0
SCALE
  5
4B
102
{ACAD_REACTORS
330
47
102
}
330
47
100
AcDbScale
 70
     0
300
1:5
140
1.0
141
5.0
290
     0
  0
SCALE
  5
4C
102
{ACAD_REACTORS
330
47
102
}
330
47
100
AcDbScale
 70
     0
300
1:8
140
1.0
141
8.0
290
     0
  0
SCALE
  5
4D
102
{ACAD_REACTORS
330
47
102
}
330
47
100
AcDbScale
 70
     0
300
1:10
140
1.0
141
10.0
290
     0
  0
SCALE
  5
4E
102
{ACAD_REACTORS
330
47
102
}
330
47
100
AcDbScale
 70
     0
300
1:16
140
1.0
141
16.0
290
     0
  0
SCALE
  5
4F
102
{ACAD_REACTORS
330
47
102
}
330
47
100
AcDbScale
 70
     0
300
1:20
140
1.0
141
20.0
290
     0
  0
SCALE
  5
50
102
{ACAD_REACTORS
330
47
102
}
330
47
100
AcDbScale
 70
     0
300
1:30
140
1.0
141
30.0
290
     0
  0
SCALE
  5
51
102
{ACAD_REACTORS
330
47
102
}
330
47
100
AcDbScale
 70
     0
300
1:40
140
1.0
141
40.0
290
     0
  0
SCALE
  5
52
102
{ACAD_REACTORS
330
47
102
}
330
47
100
AcDbScale
 70
     0
300
1:50
140
1.0
141
50.0
290
     0
  0
SCALE
  5
53
102
{ACAD_REACTORS
330
47
102
}
330
47
100
AcDbScale
 70
     0
300
1:100
140
1.0
141
100.0
290
     0
  0
SCALE
  5
54
102
{ACAD_REACTORS
330
47
102
}
330
47
100
AcDbScale
 70
     0
300
2:1
140
2.0
141
1.0
290
     0
  0
SCALE
  5
55
102
{ACAD_REACTORS
330
47
102
}
330
47
100
AcDbScale
 70
     0
300
4:1
140
4.0
141
1.0
290
     0
  0
SCALE
  5
56
102
{ACAD_REACTORS
330
47
102
}
330
47
100
AcDbScale
 70
     0
300
8:1
140
8.0
141
1.0
290
     0
  0
SCALE
  5
57
102
{ACAD_REACTORS
330
47
102
}
330
47
100
AcDbScale
 70
     0
300
10:1
140
10.0
141
1.0
290
     0
  0
SCALE
  5
58
102
{ACAD_REACTORS
330
47
102
}
330
47
100
AcDbScale
 70
     0
300
100:1
140
100.0
141
1.0
290
     0
  0
ENDSEC
  0
EOF
