  0
SECTION
  2
HEADER
  9
$ACADVER
  1
AC1015
  9
$ACADMAINTVER
 70
     6
  9
$DWGCODEPAGE
  3
DOS932
  9
$INSBASE
 10
0.0
 20
0.0
 30
0.0
  9
$EXTMIN
 10
0.0
 20
0.0
 30
0.0
  9
$EXTMAX
 10
2100.0
 20
2970.0
 30
0.0
  9
$LIMMIN
 10
0.0
 20
0.0
  9
$LIMMAX
 10
2100.0
 20
2970.0
  9
$ORTHOMODE
 70
     0
  9
$REGENMODE
 70
     1
  9
$FILLMODE
 70
     1
  9
$QTEXTMODE
 70
     0
  9
$MIRRTEXT
 70
     1
  9
$LTSCALE
 40
10.0
  9
$ATTMODE
 70
     1
  9
$TEXTSIZE
 40
35.2777777778
  9
$TRACEWID
 40
1.0
  9
$TEXTSTYLE
  7
Standard
  9
$CLAYER
  8
0
  9
$CELTYPE
  6
ByLayer
  9
$CECOLOR
 62
   256
  9
$CELTSCALE
 40
1.0
  9
$DISPSILH
 70
     0
  9
$DIMSCALE
 40
1.0
  9
$DIMASZ
 40
15.0
  9
$DIMEXO
 40
10.0
  9
$DIMDLI
 40
3.75
  9
$DIMRND
 40
0.0
  9
$DIMDLE
 40
0.0
  9
$DIMEXE
 40
10.0
  9
$DIMTP
 40
0.0
  9
$DIMTM
 40
0.0
  9
$DIMTXT
 40
35.2777777778
  9
$DIMCEN
 40
2.5
  9
$DIMTSZ
 40
0.0
  9
$DIMTOL
 70
     0
  9
$DIMLIM
 70
     0
  9
$DIMTIH
 70
     1
  9
$DIMTOH
 70
     1
  9
$DIMSE1
 70
     0
  9
$DIMSE2
 70
     0
  9
$DIMTAD
 70
     1
  9
$DIMZIN
 70
     0
  9
$DIMBLK
  1

  9
$DIMASO
 70
     1
  9
$DIMSHO
 70
     1
  9
$DIMPOST
  1

  9
$DIMAPOST
  1

  9
$DIMALT
 70
     0
  9
$DIMALTD
 70
     3
  9
$DIMALTF
 40
0.0393700787
  9
$DIMLFAC
 40
1.0
  9
$DIMTOFL
 70
     1
  9
$DIMTVP
 40
0.0
  9
$DIMTIX
 70
     0
  9
$DIMSOXD
 70
     0
  9
$DIMSAH
 70
     0
  9
$DIMBLK1
  1

  9
$DIMBLK2
  1

  9
$DIMSTYLE
  2
ISO-25
  9
$DIMCLRD
 70
     0
  9
$DIMCLRE
 70
     0
  9
$DIMCLRT
 70
     0
  9
$DIMTFAC
 40
1.0
  9
$DIMGAP
 40
15.24
  9
$DIMJUST
 70
     0
  9
$DIMSD1
 70
     0
  9
$DIMSD2
 70
     0
  9
$DIMTOLJ
 70
     0
  9
$DIMTZIN
 70
     0
  9
$DIMALTZ
 70
     0
  9
$DIMALTTZ
 70
     0
  9
$DIMUPT
 70
     0
  9
$DIMDEC
 70
     0
  9
$DIMTDEC
 70
     0
  9
$DIMALTU
 70
     2
  9
$DIMALTTD
 70
     3
  9
$DIMTXSTY
  7
Standard
  9
$DIMAUNIT
 70
     0
  9
$DIMADEC
 70
     2
  9
$DIMALTRND
 40
0.0
  9
$DIMAZIN
 70
     0
  9
$DIMDSEP
 70
    44
  9
$DIMATFIT
 70
     3
  9
$DIMFRAC
 70
     0
  9
$DIMLDRBLK
  1

  9
$DIMLUNIT
 70
     2
  9
$DIMLWD
 70
    -2
  9
$DIMLWE
 70
    -2
  9
$DIMTMOVE
 70
     0
  9
$LUNITS
 70
     2
  9
$LUPREC
 70
     2
  9
$SKETCHINC
 40
1.0
  9
$FILLETRAD
 40
0.0
  9
$AUNITS
 70
     0
  9
$AUPREC
 70
     2
  9
$MENU
  1
.
  9
$ELEVATION
 40
0.0
  9
$PELEVATION
 40
0.0
  9
$THICKNESS
 40
0.0
  9
$LIMCHECK
 70
     0
  9
$CHAMFERA
 40
0.0
  9
$CHAMFERB
 40
0.0
  9
$CHAMFERC
 40
0.0
  9
$CHAMFERD
 40
0.0
  9
$SKPOLY
 70
     0
  9
$TDCREATE
 40
2460105.775272176
  9
$TDUCREATE
 40
2460105.400272176
  9
$TDUPDATE
 40
2460105.775272535
  9
$TDUUPDATE
 40
2460105.400272535
  9
$TDINDWG
 40
0.0000000116
  9
$TDUSRTIMER
 40
0.0000000116
  9
$USRTIMER
 70
     1
  9
$ANGBASE
 50
0.0
  9
$ANGDIR
 70
     0
  9
$PDMODE
 70
     0
  9
$PDSIZE
 40
-1.0
  9
$PLINEWID
 40
0.0
  9
$SPLFRAME
 70
     0
  9
$SPLINETYPE
 70
     6
  9
$SPLINESEGS
 70
     8
  9
$HANDSEED
  5
1E4
  9
$SURFTAB1
 70
     6
  9
$SURFTAB2
 70
     6
  9
$SURFTYPE
 70
     6
  9
$SURFU
 70
     6
  9
$SURFV
 70
     6
  9
$UCSBASE
  2

  9
$UCSNAME
  2

  9
$UCSORG
 10
0.0
 20
0.0
 30
0.0
  9
$UCSXDIR
 10
1.0
 20
0.0
 30
0.0
  9
$UCSYDIR
 10
0.0
 20
1.0
 30
0.0
  9
$UCSORTHOREF
  2

  9
$UCSORTHOVIEW
 70
     0
  9
$UCSORGTOP
 10
0.0
 20
0.0
 30
0.0
  9
$UCSORGBOTTOM
 10
0.0
 20
0.0
 30
0.0
  9
$UCSORGLEFT
 10
0.0
 20
0.0
 30
0.0
  9
$UCSORGRIGHT
 10
0.0
 20
0.0
 30
0.0
  9
$UCSORGFRONT
 10
0.0
 20
0.0
 30
0.0
  9
$UCSORGBACK
 10
0.0
 20
0.0
 30
0.0
  9
$PUCSBASE
  2

  9
$PUCSNAME
  2

  9
$PUCSORG
 10
0.0
 20
0.0
 30
0.0
  9
$PUCSXDIR
 10
1.0
 20
0.0
 30
0.0
  9
$PUCSYDIR
 10
0.0
 20
1.0
 30
0.0
  9
$PUCSORTHOREF
  2

  9
$PUCSORTHOVIEW
 70
     0
  9
$PUCSORGTOP
 10
0.0
 20
0.0
 30
0.0
  9
$PUCSORGBOTTOM
 10
0.0
 20
0.0
 30
0.0
  9
$PUCSORGLEFT
 10
0.0
 20
0.0
 30
0.0
  9
$PUCSORGRIGHT
 10
0.0
 20
0.0
 30
0.0
  9
$PUCSORGFRONT
 10
0.0
 20
0.0
 30
0.0
  9
$PUCSORGBACK
 10
0.0
 20
0.0
 30
0.0
  9
$USERI1
 70
     0
  9
$USERI2
 70
     0
  9
$USERI3
 70
     0
  9
$USERI4
 70
     0
  9
$USERI5
 70
     0
  9
$USERR1
 40
0.0
  9
$USERR2
 40
0.0
  9
$USERR3
 40
0.0
  9
$USERR4
 40
0.0
  9
$USERR5
 40
0.0
  9
$WORLDVIEW
 70
     1
  9
$SHADEDGE
 70
     3
  9
$SHADEDIF
 70
    70
  9
$TILEMODE
 70
     1
  9
$MAXACTVP
 70
    64
  9
$PINSBASE
 10
0.0
 20
0.0
 30
0.0
  9
$PLIMCHECK
 70
     0
  9
$PEXTMIN
 10
1.0000000000E+20
 20
1.0000000000E+20
 30
1.0000000000E+20
  9
$PEXTMAX
 10
-1.0000000000E+20
 20
-1.0000000000E+20
 30
-1.0000000000E+20
  9
$PLIMMIN
 10
0.0
 20
0.0
  9
$PLIMMAX
 10
420.0
 20
297.0
  9
$UNITMODE
 70
     0
  9
$VISRETAIN
 70
     1
  9
$PLINEGEN
 70
     0
  9
$PSLTSCALE
 70
     1
  9
$TREEDEPTH
 70
  3020
  9
$CMLSTYLE
  2
Standard
  9
$CMLJUST
 70
     0
  9
$CMLSCALE
 40
20.0
  9
$PROXYGRAPHICS
 70
     1
  9
$MEASUREMENT
 70
     1
  9
$CELWEIGHT
370
    -1
  9
$ENDCAPS
280
     0
  9
$JOINSTYLE
280
     0
  9
$LWDISPLAY
290
     1
  9
$INSUNITS
 70
     4
  9
$HYPERLINKBASE
  1

  9
$STYLESHEET
  1

  9
$XEDIT
290
     1
  9
$CEPSNTYPE
380
     0
  9
$PSTYLEMODE
290
     1
  9
$FINGERPRINTGUID
  2
{63b60284-8e50-487f-8ecd-e111bc5ae94c}
  9
$VERSIONGUID
  2
{FAEB1C32-E019-11D5-929B-00C0DF256EC4}
  9
$EXTNAMES
290
     1
  9
$PSVPSCALE
 40
0.0
  9
$OLESTARTUP
290
     0
  0
ENDSEC
  0
SECTION
  2
CLASSES
  0
CLASS
  1
ACDBDICTIONARYWDFLT
  2
AcDbDictionaryWithDefault
  3
ObjectDBX Classes
 90
        0
280
     0
281
     0
  0
CLASS
  1
VISUALSTYLE
  2
AcDbVisualStyle
  3
ObjectDBX Classes
 90
     4095
280
     0
281
     0
  0
CLASS
  1
MATERIAL
  2
AcDbMaterial
  3
ObjectDBX Classes
 90
     1153
280
     0
281
     0
  0
CLASS
  1
SCALE
  2
AcDbScale
  3
ObjectDBX Classes
 90
     1153
280
     0
281
     0
  0
CLASS
  1
TABLESTYLE
  2
AcDbTableStyle
  3
ObjectDBX Classes
 90
     4095
280
     0
281
     0
  0
CLASS
  1
MLEADERSTYLE
  2
AcDbMLeaderStyle
  3
ACDB_MLEADERSTYLE_CLASS
 90
     4095
280
     0
281
     0
  0
CLASS
  1
SUN
  2
AcDbSun
  3
SCENEOE
 90
     1153
280
     0
281
     0
  0
CLASS
  1
ACDBPLACEHOLDER
  2
AcDbPlaceHolder
  3
ObjectDBX Classes
 90
        0
280
     0
281
     0
  0
CLASS
  1
LAYOUT
  2
AcDbLayout
  3
ObjectDBX Classes
 90
        0
280
     0
281
     0
  0
ENDSEC
  0
SECTION
  2
TABLES
  0
TABLE
  2
VPORT
  5
8
330
0
100
AcDbSymbolTable
 70
     1
  0
VPORT
  5
29
330
8
100
AcDbSymbolTableRecord
100
AcDbViewportTableRecord
  2
*Active
 70
     0
 10
0.0
 20
0.0
 11
1.0
 21
1.0
 12
1050.0
 22
1485.0
 13
0.0
 23
0.0
 14
10.0
 24
10.0
 15
10.0
 25
10.0
 16
0.0
 26
0.0
 36
1.0
 17
0.0
 27
0.0
 37
0.0
 40
2970.0
 41
0.7070707071
 42
50.0
 43
0.0
 44
0.0
 50
0.0
 51
0.0
 71
     0
 72
  2000
 73
     1
 74
     3
 75
     0
 76
     0
 77
     0
 78
     0
281
     0
 65
     1
110
0.0
120
0.0
130
0.0
111
1.0
121
0.0
131
0.0
112
0.0
122
1.0
132
0.0
 79
     0
146
0.0
  0
ENDTAB
  0
TABLE
  2
LTYPE
  5
5
330
0
100
AcDbSymbolTable
 70
     6
  0
LTYPE
  5
14
330
5
100
AcDbSymbolTableRecord
100
AcDbLinetypeTableRecord
  2
ByBlock
 70
     0
  3

 72
    65
 73
     0
 40
0.0
  0
LTYPE
  5
15
330
5
100
AcDbSymbolTableRecord
100
AcDbLinetypeTableRecord
  2
ByLayer
 70
     0
  3

 72
    65
 73
     0
 40
0.0
  0
LTYPE
  5
16
330
5
100
AcDbSymbolTableRecord
100
AcDbLinetypeTableRecord
  2
Continuous
 70
     0
  3
Solid line
 72
    65
 73
     0
 40
0.0
  0
LTYPE
  5
5E
330
5
100
AcDbSymbolTableRecord
100
AcDbLinetypeTableRecord
  2
HIDDEN
 70
     0
  3
Hidden __ __ __ __ __ __ __ __ __ __ __ __ __ __
 72
    65
 73
     2
 40
1.905
 49
1.27
 74
     0
 49
-0.635
 74
     0
  0
LTYPE
  5
5F
330
5
100
AcDbSymbolTableRecord
100
AcDbLinetypeTableRecord
  2
PHANTOM
 70
     0
  3
Phantom ______  __  __  ______  __  __  ______
 72
    65
 73
     6
 40
12.7
 49
6.35
 74
     0
 49
-1.27
 74
     0
 49
1.27
 74
     0
 49
-1.27
 74
     0
 49
1.27
 74
     0
 49
-1.27
 74
     0
  0
LTYPE
  5
60
330
5
100
AcDbSymbolTableRecord
100
AcDbLinetypeTableRecord
  2
CENTER
 70
     0
  3
Center ____ _ ____ _ ____ _ ____ _ ____ _ ____
 72
    65
 73
     4
 40
10.16
 49
6.35
 74
     0
 49
-1.27
 74
     0
 49
1.27
 74
     0
 49
-1.27
 74
     0
  0
LTYPE
  5
61
330
5
100
AcDbSymbolTableRecord
100
AcDbLinetypeTableRecord
  2
CENTERX2
 70
     0
  3
Center (2x) ________  __  ________  __  _____
 72
    65
 73
     4
 40
20.32
 49
12.7
 74
     0
 49
-2.54
 74
     0
 49
2.54
 74
     0
 49
-2.54
 74
     0
  0
LTYPE
  5
62
330
5
100
AcDbSymbolTableRecord
100
AcDbLinetypeTableRecord
  2
DOT2
 70
     0
  3
Dot (.5x) ........................................
 72
    65
 73
     2
 40
0.635
 49
0.0
 74
     0
 49
-0.635
 74
     0
  0
ENDTAB
  0
TABLE
  2
LAYER
  5
2
330
0
100
AcDbSymbolTable
 70
     6
  0
LAYER
  5
10
330
2
100
AcDbSymbolTableRecord
100
AcDbLayerTableRecord
  2
0
 70
     0
 62
     7
  6
Continuous
370
    -3
390
F
  0
LAYER
  5
63
330
2
100
AcDbSymbolTableRecord
100
AcDbLayerTableRecord
  2
1
 70
     0
 62
     4
  6
Continuous
370
    25
390
F
  0
LAYER
  5
64
330
2
100
AcDbSymbolTableRecord
100
AcDbLayerTableRecord
  2
2
 70
     0
 62
     3
  6
CENTERX2
370
    -3
390
F
  0
LAYER
  5
65
330
2
100
AcDbSymbolTableRecord
100
AcDbLayerTableRecord
  2
3
 70
     0
 62
     2
  6
Continuous
370
    -3
390
F
  0
LAYER
  5
66
330
2
100
AcDbSymbolTableRecord
100
AcDbLayerTableRecord
  2
4
 70
     0
 62
     7
  6
Continuous
370
    -3
390
F
  0
LAYER
  5
67
330
2
100
AcDbSymbolTableRecord
100
AcDbLayerTableRecord
  2
基礎穴
 70
     0
 62
     1
  6
PHANTOM
370
    35
390
F
  0
ENDTAB
  0
TABLE
  2
STYLE
  5
3
330
0
100
AcDbSymbolTable
 70
     2
  0
STYLE
  5
11
330
3
100
AcDbSymbolTableRecord
100
AcDbTextStyleTableRecord
  2
Standard
 70
     0
 40
0.0
 41
1.0
 50
0.0
 71
     0
 42
35.2777777778
  3
txt
  4
bigfont
  0
STYLE
  5
68
330
3
100
AcDbSymbolTableRecord
100
AcDbTextStyleTableRecord
  2
SLDTEXTSTYLE0
 70
     0
 40
0.0
 41
0.7
 50
0.0
 71
     0
 42
35.2777777778
  3
TXT
  4
bigfont
  0
ENDTAB
  0
TABLE
  2
VIEW
  5
6
330
0
100
AcDbSymbolTable
 70
     0
  0
ENDTAB
  0
TABLE
  2
UCS
  5
7
330
0
100
AcDbSymbolTable
 70
     0
  0
ENDTAB
  0
TABLE
  2
APPID
  5
9
330
0
100
AcDbSymbolTable
 70
     1
  0
APPID
  5
12
330
9
100
AcDbSymbolTableRecord
100
AcDbRegAppTableRecord
  2
ACAD
 70
     0
  0
ENDTAB
  0
TABLE
  2
DIMSTYLE
  5
A
330
0
100
AcDbSymbolTable
 70
     1
100
AcDbDimStyleTable
  0
DIMSTYLE
105
27
330
A
100
AcDbSymbolTableRecord
100
AcDbDimStyleTableRecord
  2
ISO-25
 70
     0
 41
2.5
 42
0.625
 43
3.75
 44
1.25
 73
     0
 74
     0
 77
     1
 78
     8
140
2.5
141
2.5
143
0.0393700787
147
0.625
171
     3
172
     1
178
     0
271
     2
272
     2
274
     3
278
    44
283
     0
284
     8
340
11
  0
ENDTAB
  0
TABLE
  2
BLOCK_RECORD
  5
1
330
0
100
AcDbSymbolTable
 70
     2
  0
BLOCK_RECORD
  5
1F
330
1
100
AcDbSymbolTableRecord
100
AcDbBlockTableRecord
  2
*Model_Space
340
22
  0
BLOCK_RECORD
  5
1B
330
1
100
AcDbSymbolTableRecord
100
AcDbBlockTableRecord
  2
*Paper_Space
340
1E
  0
BLOCK_RECORD
  5
23
330
1
100
AcDbSymbolTableRecord
100
AcDbBlockTableRecord
  2
*Paper_Space0
340
26
  0
BLOCK_RECORD
  5
C9
330
1
100
AcDbSymbolTableRecord
100
AcDbBlockTableRecord
  2
SW_CENTERMARKSYMBOL_0
340
0
102
{BLKREFS
331
D4
102
}
  0
ENDTAB
  0
ENDSEC
  0
SECTION
  2
BLOCKS
  0
BLOCK
  5
20
330
1F
100
AcDbEntity
  8
0
100
AcDbBlockBegin
  2
*Model_Space
 70
     0
 10
0.0
 20
0.0
 30
0.0
  3
*Model_Space
  1

  0
ENDBLK
  5
21
330
1F
100
AcDbEntity
  8
0
100
AcDbBlockEnd
  0
BLOCK
  5
1C
330
1B
100
AcDbEntity
 67
     1
  8
0
100
AcDbBlockBegin
  2
*Paper_Space
 70
     0
 10
0.0
 20
0.0
 30
0.0
  3
*Paper_Space
  1

  0
ENDBLK
  5
1D
330
1B
100
AcDbEntity
 67
     1
  8
0
100
AcDbBlockEnd
  0
BLOCK
  5
24
330
23
100
AcDbEntity
  8
0
100
AcDbBlockBegin
  2
*Paper_Space0
 70
     0
 10
0.0
 20
0.0
 30
0.0
  3
*Paper_Space0
  1

  0
ENDBLK
  5
25
330
23
100
AcDbEntity
  8
0
100
AcDbBlockEnd
  0
BLOCK
  5
CA
330
C9
100
AcDbEntity
  8
0
100
AcDbBlockBegin
  2
SW_CENTERMARKSYMBOL_0
 70
     0
 10
0.0
 20
0.0
 30
0.0
  3
SW_CENTERMARKSYMBOL_0
  1

  0
LINE
  5
CC
330
C9
100
AcDbEntity
  8
2
 62
     0
100
AcDbLine
 10
0.0
 20
0.0
 30
0.0
 11
0.0
 21
2.5
 31
0.0
  0
LINE
  5
CD
330
C9
100
AcDbEntity
  8
2
 62
     0
100
AcDbLine
 10
0.0
 20
0.0
 30
0.0
 11
-2.5
 21
0.0
 31
0.0
  0
LINE
  5
CE
330
C9
100
AcDbEntity
  8
2
 62
     0
100
AcDbLine
 10
0.0
 20
0.0
 30
0.0
 11
0.0
 21
-2.5
 31
0.0
  0
LINE
  5
CF
330
C9
100
AcDbEntity
  8
2
 62
     0
100
AcDbLine
 10
0.0
 20
0.0
 30
0.0
 11
2.5
 21
0.0
 31
0.0
  0
LINE
  5
D0
330
C9
100
AcDbEntity
  8
2
 62
     0
100
AcDbLine
 10
0.0
 20
5.0
 30
0.0
 11
0.0
 21
227.5
 31
0.0
  0
LINE
  5
D1
330
C9
100
AcDbEntity
  8
2
 62
     0
100
AcDbLine
 10
-5.0
 20
0.0
 30
0.0
 11
-227.5
 21
0.0
 31
0.0
  0
LINE
  5
D2
330
C9
100
AcDbEntity
  8
2
 62
     0
100
AcDbLine
 10
0.0
 20
-5.0
 30
0.0
 11
0.0
 21
-227.5
 31
0.0
  0
LINE
  5
D3
330
C9
100
AcDbEntity
  8
2
 62
     0
100
AcDbLine
 10
5.0
 20
0.0
 30
0.0
 11
227.5
 21
0.0
 31
0.0
  0
ENDBLK
  5
CB
330
C9
100
AcDbEntity
  8
0
100
AcDbBlockEnd
  0
ENDSEC
  0
SECTION
  2
ENTITIES
  0
MTEXT
  5
69
330
1F
100
AcDbEntity
  8
0
  6
Continuous
 62
     7
370
     0
100
AcDbMText
 10
1338.5349220224
 20
566.3075934784
 30
0.0
 40
26.4583333333
 41
0.0
 71
     1
 72
     1
  1
LL02540Y101K-L1
  7
SLDTEXTSTYLE0
 73
     1
 44
1.0
  0
LINE
  5
6A
330
1F
100
AcDbEntity
  8
1
100
AcDbLine
 10
755.4595215374
 20
959.5246106153
 30
0.0
 11
755.4595215374
 21
964.0246106153
 31
0.0
  0
LINE
  5
6B
330
1F
100
AcDbEntity
  8
1
100
AcDbLine
 10
235.4595215374
 20
1479.0246106153
 30
0.0
 11
1105.4595215374
 21
1479.0246106153
 31
0.0
  0
LINE
  5
6C
330
1F
100
AcDbEntity
  8
1
100
AcDbLine
 10
235.4595215374
 20
964.0246106153
 30
0.0
 11
235.4595215374
 21
1479.0246106153
 31
0.0
  0
LINE
  5
6D
330
1F
100
AcDbEntity
  8
1
100
AcDbLine
 10
1105.4595215374
 20
964.0246106153
 30
0.0
 11
235.4595215374
 21
964.0246106153
 31
0.0
  0
LINE
  5
6E
330
1F
100
AcDbEntity
  8
1
100
AcDbLine
 10
1105.4595215374
 20
1479.0246106153
 30
0.0
 11
1105.4595215374
 21
964.0246106153
 31
0.0
  0
LINE
  5
6F
330
1F
100
AcDbEntity
  8
1
100
AcDbLine
 10
1072.9595215374
 20
964.0246106153
 30
0.0
 11
1072.9595215374
 21
959.5246106153
 31
0.0
  0
LINE
  5
70
330
1F
100
AcDbEntity
  8
1
100
AcDbLine
 10
1172.9595215374
 20
964.0246106153
 30
0.0
 11
1172.9595215374
 21
959.5246106153
 31
0.0
  0
LINE
  5
71
330
1F
100
AcDbEntity
  8
1
100
AcDbLine
 10
1172.9595215374
 20
959.5246106153
 30
0.0
 11
1072.9595215374
 21
959.5246106153
 31
0.0
  0
LINE
  5
72
330
1F
100
AcDbEntity
  8
1
100
AcDbLine
 10
1172.9595215374
 20
964.0246106153
 30
0.0
 11
1105.4595215374
 21
964.0246106153
 31
0.0
  0
LINE
  5
73
330
1F
100
AcDbEntity
  8
1
100
AcDbLine
 10
235.4595215374
 20
964.0246106153
 30
0.0
 11
167.9595215374
 21
964.0246106153
 31
0.0
  0
LINE
  5
74
330
1F
100
AcDbEntity
  8
1
100
AcDbLine
 10
267.9595215374
 20
964.0246106153
 30
0.0
 11
267.9595215374
 21
959.5246106153
 31
0.0
  0
LINE
  5
75
330
1F
100
AcDbEntity
  8
1
100
AcDbLine
 10
167.9595215374
 20
964.0246106153
 30
0.0
 11
167.9595215374
 21
959.5246106153
 31
0.0
  0
LINE
  5
76
330
1F
100
AcDbEntity
  8
1
100
AcDbLine
 10
267.9595215374
 20
959.5246106153
 30
0.0
 11
167.9595215374
 21
959.5246106153
 31
0.0
  0
LINE
  5
77
330
1F
100
AcDbEntity
  8
1
100
AcDbLine
 10
1132.9595215374
 20
889.5246106153
 30
0.0
 11
1132.9595215374
 21
884.5246106153
 31
0.0
  0
LINE
  5
78
330
1F
100
AcDbEntity
  8
1
100
AcDbLine
 10
1132.9595215374
 20
884.5246106153
 30
0.0
 11
152.9595215374
 21
884.5246106153
 31
0.0
  0
LINE
  5
79
330
1F
100
AcDbEntity
  8
1
100
AcDbLine
 10
152.9595215374
 20
889.5246106153
 30
0.0
 11
152.9595215374
 21
884.5246106153
 31
0.0
  0
LINE
  5
7A
330
1F
100
AcDbEntity
  8
1
100
AcDbLine
 10
1132.9595215374
 20
889.5246106153
 30
0.0
 11
152.9595215374
 21
889.5246106153
 31
0.0
  0
LINE
  5
7B
330
1F
100
AcDbEntity
  8
1
100
AcDbLine
 10
152.9595215374
 20
959.5246106153
 30
0.0
 11
152.9595215374
 21
954.5246106153
 31
0.0
  0
LINE
  5
7C
330
1F
100
AcDbEntity
  8
1
100
AcDbLine
 10
1132.9595215374
 20
954.5246106153
 30
0.0
 11
152.9595215374
 21
954.5246106153
 31
0.0
  0
LINE
  5
7D
330
1F
100
AcDbEntity
  8
1
100
AcDbLine
 10
1132.9595215374
 20
959.5246106153
 30
0.0
 11
1132.9595215374
 21
954.5246106153
 31
0.0
  0
LINE
  5
7E
330
1F
100
AcDbEntity
  8
1
100
AcDbLine
 10
167.9595215374
 20
959.5246106153
 30
0.0
 11
152.9595215374
 21
959.5246106153
 31
0.0
  0
LINE
  5
7F
330
1F
100
AcDbEntity
  8
1
100
AcDbLine
 10
1072.9595215374
 20
959.5246106153
 30
0.0
 11
267.9595215374
 21
959.5246106153
 31
0.0
  0
LINE
  5
80
330
1F
100
AcDbEntity
  8
1
100
AcDbLine
 10
187.9595215374
 20
954.5246106153
 30
0.0
 11
187.9595215374
 21
889.5246106153
 31
0.0
  0
LINE
  5
81
330
1F
100
AcDbEntity
  8
1
100
AcDbLine
 10
1097.9595215374
 20
954.5246106153
 30
0.0
 11
1097.9595215374
 21
889.5246106153
 31
0.0
  0
LINE
  5
82
330
1F
100
AcDbEntity
  8
1
100
AcDbLine
 10
100.9595215374
 20
1675.5246106153
 30
0.0
 11
97.9595215374
 21
1675.5246106153
 31
0.0
  0
LINE
  5
83
330
1F
100
AcDbEntity
  8
1
100
AcDbLine
 10
100.9595215374
 20
1675.5246106153
 30
0.0
 11
100.9595215374
 21
1209.5246106153
 31
0.0
  0
LINE
  5
84
330
1F
100
AcDbEntity
  8
1
100
AcDbLine
 10
100.9595215374
 20
1209.5246106153
 30
0.0
 11
97.9595215374
 21
1209.5246106153
 31
0.0
  0
LINE
  5
85
330
1F
100
AcDbEntity
  8
1
100
AcDbLine
 10
97.9595215374
 20
1675.5246106153
 30
0.0
 11
97.9595215374
 21
1209.5246106153
 31
0.0
  0
LINE
  5
86
330
1F
100
AcDbEntity
  8
1
100
AcDbLine
 10
100.9595215374
 20
1649.4998101608
 30
0.0
 11
401.2743655999
 21
1626.6489307097
 31
0.0
  0
ARC
  5
87
330
1F
100
AcDbEntity
  8
1
100
AcDbCircle
 10
372.9595215374
 20
1254.5246106153
 30
0.0
 40
373.2
100
AcDbArc
 50
36.9812850303
 51
85.648763286
  0
LWPOLYLINE
  5
88
330
1F
100
AcDbEntity
  8
1
100
AcDbPolyline
 90
        3
 70
   128
 43
0.0
 10
550.023563839
 20
964.0246106153
 10
547.8582628696
 20
963.1614021619
 10
538.1699772916
 20
959.5246106153
  0
LWPOLYLINE
  5
89
330
1F
100
AcDbEntity
  8
1
100
AcDbPolyline
 90
        3
 70
   128
 43
0.0
 10
330.3559651182
 20
959.5246106153
 10
321.9076168094
 20
963.0351116379
 10
319.6684588839
 20
964.0246106153
  0
ARC
  5
8A
330
1F
100
AcDbEntity
  8
1
100
AcDbCircle
 10
425.9595215374
 20
1201.5246106153
 30
0.0
 40
260.2
100
AcDbArc
 50
180.0
 51
222.9348151157
  0
LINE
  5
8B
330
1F
100
AcDbEntity
  8
1
100
AcDbLine
 10
165.7595215374
 20
1201.5246106153
 30
0.0
 11
165.7595215374
 21
1235.3246106153
 31
0.0
  0
LINE
  5
8C
330
1F
100
AcDbEntity
  8
1
100
AcDbLine
 10
165.7595215374
 20
1235.3246106153
 30
0.0
 11
100.9595215374
 21
1235.3246106153
 31
0.0
  0
CIRCLE
  5
8D
330
1F
100
AcDbEntity
  8
0
  6
HIDDEN
 62
     7
370
    18
100
AcDbCircle
 10
930.4595215374
 20
1136.5246106153
 30
0.0
 40
19.0
  0
ARC
  5
8E
330
1F
100
AcDbEntity
  8
0
  6
HIDDEN
 62
     7
370
    18
100
AcDbCircle
 10
930.4595215374
 20
1136.5246106153
 30
0.0
 40
142.5
100
AcDbArc
 50
298.3576365763
 51
241.6423634237
  0
LINE
  5
8F
330
1F
100
AcDbEntity
  8
0
  6
HIDDEN
 62
     7
370
    18
100
AcDbLine
 10
998.1432714335
 20
1011.1246106153
 30
0.0
 11
862.7757716413
 21
1011.1246106153
 31
0.0
  0
LINE
  5
90
330
1F
100
AcDbEntity
  8
0
  6
HIDDEN
 62
     7
370
    18
100
AcDbLine
 10
755.4595215374
 20
964.0246106153
 30
0.0
 11
755.4595215374
 21
1004.5246106153
 31
0.0
  0
LINE
  5
91
330
1F
100
AcDbEntity
  8
0
  6
HIDDEN
 62
     7
370
    18
100
AcDbLine
 10
1105.4595215374
 20
1004.5246106153
 30
0.0
 11
755.4595215374
 21
1004.5246106153
 31
0.0
  0
LINE
  5
92
330
1F
100
AcDbEntity
  8
0
  6
HIDDEN
 62
     7
370
    18
100
AcDbLine
 10
1105.4595215374
 20
959.5246106153
 30
0.0
 11
1105.4595215374
 21
964.0246106153
 31
0.0
  0
LINE
  5
93
330
1F
100
AcDbEntity
  8
0
  6
HIDDEN
 62
     7
370
    18
100
AcDbLine
 10
1017.9595215374
 20
1017.7246106153
 30
0.0
 11
1009.1539304874
 21
1017.7246106153
 31
0.0
  0
LINE
  5
94
330
1F
100
AcDbEntity
  8
0
  6
HIDDEN
 62
     7
370
    18
100
AcDbLine
 10
1017.9595215374
 20
1004.5246106153
 30
0.0
 11
1017.9595215374
 21
1017.7246106153
 31
0.0
  0
LINE
  5
95
330
1F
100
AcDbEntity
  8
0
  6
HIDDEN
 62
     7
370
    18
100
AcDbLine
 10
842.9595215374
 20
1017.7246106153
 30
0.0
 11
842.9595215374
 21
1004.5246106153
 31
0.0
  0
LINE
  5
96
330
1F
100
AcDbEntity
  8
0
  6
HIDDEN
 62
     7
370
    18
100
AcDbLine
 10
851.7651125873
 20
1017.7246106153
 30
0.0
 11
842.9595215374
 21
1017.7246106153
 31
0.0
  0
CIRCLE
  5
97
330
1F
100
AcDbEntity
  8
0
  6
HIDDEN
 62
     7
370
    18
100
AcDbCircle
 10
402.9595215374
 20
1224.5246106153
 30
0.0
 40
74.99999999999997
  0
CIRCLE
  5
98
330
1F
100
AcDbEntity
  8
0
  6
HIDDEN
 62
     7
370
    18
100
AcDbCircle
 10
930.4595215374
 20
1136.5246106153
 30
0.0
 40
75.00000000000001
  0
LINE
  5
99
330
1F
100
AcDbEntity
  8
0
  6
HIDDEN
 62
     7
370
    18
100
AcDbLine
 10
192.9595215374
 20
959.5246106153
 30
0.0
 11
192.9595215374
 21
884.5246106153
 31
0.0
  0
LINE
  5
9A
330
1F
100
AcDbEntity
  8
0
  6
HIDDEN
 62
     7
370
    18
100
AcDbLine
 10
1092.9595215374
 20
959.5246106153
 30
0.0
 11
1092.9595215374
 21
884.5246106153
 31
0.0
  0
ARC
  5
9B
330
1F
100
AcDbEntity
  8
0
  6
HIDDEN
 62
     7
370
    18
100
AcDbCircle
 10
372.9595215374
 20
1254.5246106153
 30
0.0
 40
373.2
100
AcDbArc
 50
0.0
 51
36.9812850303
  0
ARC
  5
9C
330
1F
100
AcDbEntity
  8
0
  6
HIDDEN
 62
     7
370
    18
100
AcDbCircle
 10
432.9595215374
 20
1254.5246106153
 30
0.0
 40
313.2
100
AcDbArc
 50
291.9481693719
 51
0.0
  0
ARC
  5
9D
330
1F
100
AcDbEntity
  8
0
  6
HIDDEN
 62
     7
370
    18
100
AcDbCircle
 10
432.9595215374
 20
1254.5246106153
 30
0.0
 40
313.2
100
AcDbArc
 50
270.0
 51
289.6285529245
  0
LINE
  5
9E
330
1F
100
AcDbEntity
  8
0
  6
HIDDEN
 62
     7
370
    18
100
AcDbLine
 10
432.9595215374
 20
941.3246106153
 30
0.0
 11
425.9595215374
 21
941.3246106153
 31
0.0
  0
ARC
  5
9F
330
1F
100
AcDbEntity
  8
0
  6
HIDDEN
 62
     7
370
    18
100
AcDbCircle
 10
425.9595215374
 20
1201.5246106153
 30
0.0
 40
260.2
100
AcDbArc
 50
248.4432037135
 51
270.0
  0
ARC
  5
A0
330
1F
100
AcDbEntity
  8
0
  6
HIDDEN
 62
     7
370
    18
100
AcDbCircle
 10
425.9595215374
 20
1201.5246106153
 30
0.0
 40
260.1999999999999
100
AcDbArc
 50
222.9348151157
 51
245.8895118371
  0
ARC
  5
A1
330
1F
100
AcDbEntity
  8
0
  6
HIDDEN
 62
     7
370
    18
100
AcDbCircle
 10
425.9595215374
 20
1201.5246106153
 30
0.0
 40
259.0
100
AcDbArc
 50
180.0
 51
270.0
  0
LINE
  5
A2
330
1F
100
AcDbEntity
  8
0
  6
HIDDEN
 62
     7
370
    18
100
AcDbLine
 10
432.9595215374
 20
942.5246106153
 30
0.0
 11
425.9595215374
 21
942.5246106153
 31
0.0
  0
ARC
  5
A3
330
1F
100
AcDbEntity
  8
0
  6
HIDDEN
 62
     7
370
    18
100
AcDbCircle
 10
432.9595215374
 20
1254.5246106153
 30
0.0
 40
312.0
100
AcDbArc
 50
270.0
 51
0.0
  0
LINE
  5
A4
330
1F
100
AcDbEntity
  8
0
  6
HIDDEN
 62
     7
370
    18
100
AcDbLine
 10
166.9595215374
 20
1236.5246106153
 30
0.0
 11
97.9595215374
 21
1236.5246106153
 31
0.0
  0
LINE
  5
A5
330
1F
100
AcDbEntity
  8
0
  6
HIDDEN
 62
     7
370
    18
100
AcDbLine
 10
166.9595215374
 20
1201.5246106153
 30
0.0
 11
166.9595215374
 21
1236.5246106153
 31
0.0
  0
ARC
  5
A6
330
1F
100
AcDbEntity
  8
0
  6
HIDDEN
 62
     7
370
    18
100
AcDbCircle
 10
372.9595215374
 20
1254.5246106153
 30
0.0
 40
372.0
100
AcDbArc
 50
0.0
 51
85.648763286
  0
LINE
  5
A7
330
1F
100
AcDbEntity
  8
0
  6
HIDDEN
 62
     7
370
    18
100
AcDbLine
 10
97.9595215374
 20
1648.5246106153
 30
0.0
 11
401.1833210852
 21
1625.4523894875
 31
0.0
  0
CIRCLE
  5
A8
330
1F
100
AcDbEntity
  8
0
  6
HIDDEN
 62
     7
370
    18
100
AcDbCircle
 10
402.9595215374
 20
1224.5246106153
 30
0.0
 40
200.0
  0
CIRCLE
  5
A9
330
1F
100
AcDbEntity
  8
0
  6
HIDDEN
 62
     7
370
    18
100
AcDbCircle
 10
402.9595215374
 20
1224.5246106153
 30
0.0
 40
225.0000000000001
  0
CIRCLE
  5
AA
330
1F
100
AcDbEntity
  8
0
  6
HIDDEN
 62
     7
370
    18
100
AcDbCircle
 10
402.9595215374
 20
1224.5246106153
 30
0.0
 40
202.3
  0
CIRCLE
  5
AB
330
1F
100
AcDbEntity
  8
0
  6
HIDDEN
 62
     7
370
    18
100
AcDbCircle
 10
250.9315635823
 20
1376.5525685704
 30
0.0
 40
3.999999999999972
  0
CIRCLE
  5
AC
330
1F
100
AcDbEntity
  8
0
  6
HIDDEN
 62
     7
370
    18
100
AcDbCircle
 10
195.2854688852
 20
1280.1707053123
 30
0.0
 40
4.0
  0
CIRCLE
  5
AD
330
1F
100
AcDbEntity
  8
0
  6
HIDDEN
 62
     7
370
    18
100
AcDbCircle
 10
195.2854688852
 20
1168.8785159183
 30
0.0
 40
3.999999999999972
  0
CIRCLE
  5
AE
330
1F
100
AcDbEntity
  8
0
  6
HIDDEN
 62
     7
370
    18
100
AcDbCircle
 10
250.9315635823
 20
1072.4966526602
 30
0.0
 40
3.999999999999972
  0
CIRCLE
  5
AF
330
1F
100
AcDbEntity
  8
0
  6
HIDDEN
 62
     7
370
    18
100
AcDbCircle
 10
347.3134268403
 20
1016.8505579631
 30
0.0
 40
3.999999999999886
  0
CIRCLE
  5
B0
330
1F
100
AcDbEntity
  8
0
  6
HIDDEN
 62
     7
370
    18
100
AcDbCircle
 10
458.6056162344
 20
1016.8505579631
 30
0.0
 40
3.999999999999943
  0
CIRCLE
  5
B1
330
1F
100
AcDbEntity
  8
0
  6
HIDDEN
 62
     7
370
    18
100
AcDbCircle
 10
554.9874794925
 20
1072.4966526602
 30
0.0
 40
4.0
  0
CIRCLE
  5
B2
330
1F
100
AcDbEntity
  8
0
  6
HIDDEN
 62
     7
370
    18
100
AcDbCircle
 10
610.6335741895
 20
1168.8785159183
 30
0.0
 40
4.000000000000114
  0
CIRCLE
  5
B3
330
1F
100
AcDbEntity
  8
0
  6
HIDDEN
 62
     7
370
    18
100
AcDbCircle
 10
610.6335741895
 20
1280.1707053123
 30
0.0
 40
4.0
  0
CIRCLE
  5
B4
330
1F
100
AcDbEntity
  8
0
  6
HIDDEN
 62
     7
370
    18
100
AcDbCircle
 10
554.9874794925
 20
1376.5525685704
 30
0.0
 40
3.999999999999886
  0
CIRCLE
  5
B5
330
1F
100
AcDbEntity
  8
0
  6
HIDDEN
 62
     7
370
    18
100
AcDbCircle
 10
458.6056162344
 20
1432.1986632674
 30
0.0
 40
4.0
  0
CIRCLE
  5
B6
330
1F
100
AcDbEntity
  8
0
  6
HIDDEN
 62
     7
370
    18
100
AcDbCircle
 10
347.3134268403
 20
1432.1986632674
 30
0.0
 40
4.000000000000057
  0
LINE
  5
B7
330
1F
100
AcDbEntity
  8
0
  6
HIDDEN
 62
     7
370
    18
100
AcDbLine
 10
208.9595215374
 20
884.5246106153
 30
0.0
 11
208.9595215374
 21
889.5246106153
 31
0.0
  0
LINE
  5
B8
330
1F
100
AcDbEntity
  8
0
  6
HIDDEN
 62
     7
370
    18
100
AcDbLine
 10
196.9595215374
 20
889.5246106153
 30
0.0
 11
196.9595215374
 21
884.5246106153
 31
0.0
  0
LINE
  5
B9
330
1F
100
AcDbEntity
  8
0
  6
HIDDEN
 62
     7
370
    18
100
AcDbLine
 10
648.9595215374
 20
884.5246106153
 30
0.0
 11
648.9595215374
 21
889.5246106153
 31
0.0
  0
LINE
  5
BA
330
1F
100
AcDbEntity
  8
0
  6
HIDDEN
 62
     7
370
    18
100
AcDbLine
 10
636.9595215374
 20
889.5246106153
 30
0.0
 11
636.9595215374
 21
884.5246106153
 31
0.0
  0
LINE
  5
BB
330
1F
100
AcDbEntity
  8
0
  6
HIDDEN
 62
     7
370
    18
100
AcDbLine
 10
1088.9595215374
 20
884.5246106153
 30
0.0
 11
1088.9595215374
 21
889.5246106153
 31
0.0
  0
LINE
  5
BC
330
1F
100
AcDbEntity
  8
0
  6
HIDDEN
 62
     7
370
    18
100
AcDbLine
 10
1076.9595215374
 20
889.5246106153
 30
0.0
 11
1076.9595215374
 21
884.5246106153
 31
0.0
  0
LINE
  5
BD
330
1F
100
AcDbEntity
  8
0
  6
HIDDEN
 62
     7
370
    18
100
AcDbLine
 10
97.9595215374
 20
1215.5246106153
 30
0.0
 11
100.9595215374
 21
1215.5246106153
 31
0.0
  0
LINE
  5
BE
330
1F
100
AcDbEntity
  8
0
  6
HIDDEN
 62
     7
370
    18
100
AcDbLine
 10
100.9595215374
 20
1223.5246106153
 30
0.0
 11
97.9595215374
 21
1223.5246106153
 31
0.0
  0
LINE
  5
BF
330
1F
100
AcDbEntity
  8
0
  6
HIDDEN
 62
     7
370
    18
100
AcDbLine
 10
97.9595215374
 20
1288.5246106153
 30
0.0
 11
100.9595215374
 21
1288.5246106153
 31
0.0
  0
LINE
  5
C0
330
1F
100
AcDbEntity
  8
0
  6
HIDDEN
 62
     7
370
    18
100
AcDbLine
 10
100.9595215374
 20
1296.5246106153
 30
0.0
 11
97.9595215374
 21
1296.5246106153
 31
0.0
  0
LINE
  5
C1
330
1F
100
AcDbEntity
  8
0
  6
HIDDEN
 62
     7
370
    18
100
AcDbLine
 10
97.9595215374
 20
1388.5246106153
 30
0.0
 11
100.9595215374
 21
1388.5246106153
 31
0.0
  0
LINE
  5
C2
330
1F
100
AcDbEntity
  8
0
  6
HIDDEN
 62
     7
370
    18
100
AcDbLine
 10
100.9595215374
 20
1396.5246106153
 30
0.0
 11
97.9595215374
 21
1396.5246106153
 31
0.0
  0
LINE
  5
C3
330
1F
100
AcDbEntity
  8
0
  6
HIDDEN
 62
     7
370
    18
100
AcDbLine
 10
97.9595215374
 20
1488.5246106153
 30
0.0
 11
100.9595215374
 21
1488.5246106153
 31
0.0
  0
LINE
  5
C4
330
1F
100
AcDbEntity
  8
0
  6
HIDDEN
 62
     7
370
    18
100
AcDbLine
 10
100.9595215374
 20
1496.5246106153
 30
0.0
 11
97.9595215374
 21
1496.5246106153
 31
0.0
  0
LINE
  5
C5
330
1F
100
AcDbEntity
  8
0
  6
HIDDEN
 62
     7
370
    18
100
AcDbLine
 10
97.9595215374
 20
1661.5246106153
 30
0.0
 11
100.9595215374
 21
1661.5246106153
 31
0.0
  0
LINE
  5
C6
330
1F
100
AcDbEntity
  8
0
  6
HIDDEN
 62
     7
370
    18
100
AcDbLine
 10
100.9595215374
 20
1669.5246106153
 30
0.0
 11
97.9595215374
 21
1669.5246106153
 31
0.0
  0
LINE
  5
C7
330
1F
100
AcDbEntity
  8
0
  6
HIDDEN
 62
     7
370
    18
100
AcDbLine
 10
97.9595215374
 20
1588.5246106153
 30
0.0
 11
100.9595215374
 21
1588.5246106153
 31
0.0
  0
LINE
  5
C8
330
1F
100
AcDbEntity
  8
0
  6
HIDDEN
 62
     7
370
    18
100
AcDbLine
 10
100.9595215374
 20
1596.5246106153
 30
0.0
 11
97.9595215374
 21
1596.5246106153
 31
0.0
  0
INSERT
  5
D4
330
1F
100
AcDbEntity
  8
2
100
AcDbBlockReference
  2
SW_CENTERMARKSYMBOL_0
 10
402.9595215374
 20
1224.5246106153
 30
0.0
  0
LINE
  5
D5
330
1F
100
AcDbEntity
  8
1
100
AcDbLine
 10
1855.2945830539
 20
1279.0246106153
 30
0.0
 11
1485.7945830539
 21
1279.0246106153
 31
0.0
  0
LINE
  5
D6
330
1F
100
AcDbEntity
  8
1
100
AcDbLine
 10
1448.2945830539
 20
1117.5246106153
 30
0.0
 11
1485.7945830539
 21
1117.5246106153
 31
0.0
  0
LINE
  5
D7
330
1F
100
AcDbEntity
  8
1
100
AcDbLine
 10
1485.7945830539
 20
1155.5246106153
 30
0.0
 11
1448.2945830539
 21
1155.5246106153
 31
0.0
  0
LINE
  5
D8
330
1F
100
AcDbEntity
  8
1
100
AcDbLine
 10
1911.2945830539
 20
1449.5246106153
 30
0.0
 11
1908.9945830539
 21
1449.5246106153
 31
0.0
  0
LINE
  5
D9
330
1F
100
AcDbEntity
  8
1
100
AcDbLine
 10
1908.9945830539
 20
999.5246106153
 30
0.0
 11
1911.2945830539
 21
999.5246106153
 31
0.0
  0
LINE
  5
DA
330
1F
100
AcDbEntity
  8
1
100
AcDbLine
 10
1859.8945830539
 20
999.5246106153
 30
0.0
 11
1861.2945830539
 21
999.5246106153
 31
0.0
  0
LINE
  5
DB
330
1F
100
AcDbEntity
  8
1
100
AcDbLine
 10
1861.2945830539
 20
1449.5246106153
 30
0.0
 11
1859.8945830539
 21
1449.5246106153
 31
0.0
  0
LINE
  5
DC
330
1F
100
AcDbEntity
  8
1
100
AcDbLine
 10
1908.9945830539
 20
1426.8246106153
 30
0.0
 11
1861.2945830539
 21
1426.8246106153
 31
0.0
  0
LINE
  5
DD
330
1F
100
AcDbEntity
  8
1
100
AcDbLine
 10
1861.2945830539
 20
1022.2246106153
 30
0.0
 11
1908.9945830539
 21
1022.2246106153
 31
0.0
  0
LINE
  5
DE
330
1F
100
AcDbEntity
  8
1
100
AcDbLine
 10
1504.7945830539
 20
959.5246106153
 30
0.0
 11
1504.7945830539
 21
1004.5246106153
 31
0.0
  0
LINE
  5
DF
330
1F
100
AcDbEntity
  8
1
100
AcDbLine
 10
1784.7945830539
 20
959.5246106153
 30
0.0
 11
1784.7945830539
 21
1004.5246106153
 31
0.0
  0
LINE
  5
E0
330
1F
100
AcDbEntity
  8
1
100
AcDbLine
 10
1784.7945830539
 20
1004.5246106153
 30
0.0
 11
1504.7945830539
 21
1004.5246106153
 31
0.0
  0
LINE
  5
E1
330
1F
100
AcDbEntity
  8
1
100
AcDbLine
 10
1855.2945830539
 20
1011.1246106153
 30
0.0
 11
1855.2945830539
 21
1279.0246106153
 31
0.0
  0
LINE
  5
E2
330
1F
100
AcDbEntity
  8
1
100
AcDbLine
 10
1855.2945830539
 20
1011.1246106153
 30
0.0
 11
1774.7945830539
 21
1011.1246106153
 31
0.0
  0
LINE
  5
E3
330
1F
100
AcDbEntity
  8
1
100
AcDbLine
 10
1514.7945830539
 20
1011.1246106153
 30
0.0
 11
1485.7945830539
 21
1011.1246106153
 31
0.0
  0
LINE
  5
E4
330
1F
100
AcDbEntity
  8
1
100
AcDbLine
 10
1485.7945830539
 20
1279.0246106153
 30
0.0
 11
1485.7945830539
 21
1011.1246106153
 31
0.0
  0
LINE
  5
E5
330
1F
100
AcDbEntity
  8
1
100
AcDbLine
 10
1514.7945830539
 20
1004.5246106153
 30
0.0
 11
1514.7945830539
 21
1017.7246106153
 31
0.0
  0
LINE
  5
E6
330
1F
100
AcDbEntity
  8
1
100
AcDbLine
 10
1514.7945830539
 20
1017.7246106153
 30
0.0
 11
1774.7945830539
 21
1017.7246106153
 31
0.0
  0
LINE
  5
E7
330
1F
100
AcDbEntity
  8
1
100
AcDbLine
 10
1774.7945830539
 20
1004.5246106153
 30
0.0
 11
1774.7945830539
 21
1017.7246106153
 31
0.0
  0
LINE
  5
E8
330
1F
100
AcDbEntity
  8
1
100
AcDbLine
 10
1448.2945830539
 20
1479.0246106153
 30
0.0
 11
1288.2945830539
 21
1479.0246106153
 31
0.0
  0
LINE
  5
E9
330
1F
100
AcDbEntity
  8
1
100
AcDbLine
 10
1448.2945830539
 20
1479.0246106153
 30
0.0
 11
1448.2945830539
 21
964.0246106153
 31
0.0
  0
LINE
  5
EA
330
1F
100
AcDbEntity
  8
1
100
AcDbLine
 10
1340.2945830539
 20
964.0246106153
 30
0.0
 11
1288.2945830539
 21
964.0246106153
 31
0.0
  0
LINE
  5
EB
330
1F
100
AcDbEntity
  8
1
100
AcDbLine
 10
1288.2945830539
 20
1479.0246106153
 30
0.0
 11
1288.2945830539
 21
964.0246106153
 31
0.0
  0
LINE
  5
EC
330
1F
100
AcDbEntity
  8
1
100
AcDbLine
 10
1340.2945830539
 20
964.0246106153
 30
0.0
 11
1340.2945830539
 21
959.5246106153
 31
0.0
  0
LINE
  5
ED
330
1F
100
AcDbEntity
  8
1
100
AcDbLine
 10
1470.2945830539
 20
964.0246106153
 30
0.0
 11
1470.2945830539
 21
959.5246106153
 31
0.0
  0
LINE
  5
EE
330
1F
100
AcDbEntity
  8
1
100
AcDbLine
 10
1470.2945830539
 20
959.5246106153
 30
0.0
 11
1340.2945830539
 21
959.5246106153
 31
0.0
  0
LINE
  5
EF
330
1F
100
AcDbEntity
  8
1
100
AcDbLine
 10
1470.2945830539
 20
964.0246106153
 30
0.0
 11
1340.2945830539
 21
964.0246106153
 31
0.0
  0
LINE
  5
F0
330
1F
100
AcDbEntity
  8
1
100
AcDbLine
 10
1900.2945830539
 20
884.5246106153
 30
0.0
 11
1440.2945830539
 21
884.5246106153
 31
0.0
  0
LINE
  5
F1
330
1F
100
AcDbEntity
  8
1
100
AcDbLine
 10
1440.2945830539
 20
889.5246106153
 30
0.0
 11
1440.2945830539
 21
884.5246106153
 31
0.0
  0
LINE
  5
F2
330
1F
100
AcDbEntity
  8
1
100
AcDbLine
 10
1900.2945830539
 20
889.5246106153
 30
0.0
 11
1440.2945830539
 21
889.5246106153
 31
0.0
  0
LINE
  5
F3
330
1F
100
AcDbEntity
  8
1
100
AcDbLine
 10
1900.2945830539
 20
889.5246106153
 30
0.0
 11
1900.2945830539
 21
884.5246106153
 31
0.0
  0
LINE
  5
F4
330
1F
100
AcDbEntity
  8
1
100
AcDbLine
 10
1440.2945830539
 20
959.5246106153
 30
0.0
 11
1440.2945830539
 21
954.5246106153
 31
0.0
  0
LINE
  5
F5
330
1F
100
AcDbEntity
  8
1
100
AcDbLine
 10
1900.2945830539
 20
959.5246106153
 30
0.0
 11
1470.2945830539
 21
959.5246106153
 31
0.0
  0
LINE
  5
F6
330
1F
100
AcDbEntity
  8
1
100
AcDbLine
 10
1900.2945830539
 20
959.5246106153
 30
0.0
 11
1900.2945830539
 21
954.5246106153
 31
0.0
  0
LINE
  5
F7
330
1F
100
AcDbEntity
  8
1
100
AcDbLine
 10
1900.2945830539
 20
954.5246106153
 30
0.0
 11
1440.2945830539
 21
954.5246106153
 31
0.0
  0
LINE
  5
F8
330
1F
100
AcDbEntity
  8
1
100
AcDbLine
 10
1475.2945830539
 20
954.5246106153
 30
0.0
 11
1475.2945830539
 21
889.5246106153
 31
0.0
  0
LINE
  5
F9
330
1F
100
AcDbEntity
  8
1
100
AcDbLine
 10
1865.2945830539
 20
954.5246106153
 30
0.0
 11
1865.2945830539
 21
889.5246106153
 31
0.0
  0
LINE
  5
FA
330
1F
100
AcDbEntity
  8
1
100
AcDbLine
 10
1556.6945830539
 20
1626.6489307097
 30
0.0
 11
1556.6945830539
 21
1279.0246106153
 31
0.0
  0
LINE
  5
FB
330
1F
100
AcDbEntity
  8
1
100
AcDbLine
 10
1859.8945830539
 20
1626.6489307097
 30
0.0
 11
1859.8945830539
 21
1254.5246106153
 31
0.0
  0
LINE
  5
FC
330
1F
100
AcDbEntity
  8
1
100
AcDbLine
 10
1859.8945830539
 20
1254.5246106153
 30
0.0
 11
1859.8945830539
 21
959.5246106153
 31
0.0
  0
LINE
  5
FD
330
1F
100
AcDbEntity
  8
1
100
AcDbLine
 10
1908.9945830539
 20
1224.5246106153
 30
0.0
 11
1908.9945830539
 21
1449.5246106153
 31
0.0
  0
LINE
  5
FE
330
1F
100
AcDbEntity
  8
1
100
AcDbLine
 10
1908.9945830539
 20
999.5246106153
 30
0.0
 11
1908.9945830539
 21
1224.5246106153
 31
0.0
  0
LINE
  5
FF
330
1F
100
AcDbEntity
  8
1
100
AcDbLine
 10
1911.2945830539
 20
1224.5246106153
 30
0.0
 11
1911.2945830539
 21
1449.5246106153
 31
0.0
  0
LINE
  5
100
330
1F
100
AcDbEntity
  8
1
100
AcDbLine
 10
1911.2945830539
 20
999.5246106153
 30
0.0
 11
1911.2945830539
 21
1224.5246106153
 31
0.0
  0
LINE
  5
101
330
1F
100
AcDbEntity
  8
1
100
AcDbLine
 10
1861.2945830539
 20
1449.5246106153
 30
0.0
 11
1861.2945830539
 21
999.5246106153
 31
0.0
  0
LINE
  5
102
330
1F
100
AcDbEntity
  8
1
100
AcDbLine
 10
1859.8945830539
 20
1649.4998101608
 30
0.0
 11
1556.6945830539
 21
1649.4998101608
 31
0.0
  0
LINE
  5
103
330
1F
100
AcDbEntity
  8
1
100
AcDbLine
 10
1556.6945830539
 20
1649.4998101608
 30
0.0
 11
1556.6945830539
 21
1626.6489307097
 31
0.0
  0
LINE
  5
104
330
1F
100
AcDbEntity
  8
1
100
AcDbLine
 10
1859.8945830539
 20
1649.4998101608
 30
0.0
 11
1859.8945830539
 21
1626.6489307097
 31
0.0
  0
LINE
  5
105
330
1F
100
AcDbEntity
  8
1
100
AcDbLine
 10
1531.2945830539
 20
1675.5246106153
 30
0.0
 11
1531.2945830539
 21
1279.0246106153
 31
0.0
  0
CIRCLE
  5
106
330
1F
100
AcDbEntity
  8
1
100
AcDbCircle
 10
1541.2945830539
 20
1292.5246106153
 30
0.0
 40
4.0
  0
CIRCLE
  5
107
330
1F
100
AcDbEntity
  8
1
100
AcDbCircle
 10
1541.2945830539
 20
1392.5246106153
 30
0.0
 40
4.0
  0
CIRCLE
  5
108
330
1F
100
AcDbEntity
  8
1
100
AcDbCircle
 10
1875.2945830539
 20
1592.5246106153
 30
0.0
 40
4.0
  0
CIRCLE
  5
109
330
1F
100
AcDbEntity
  8
1
100
AcDbCircle
 10
1875.2945830539
 20
1492.5246106153
 30
0.0
 40
4.0
  0
CIRCLE
  5
10A
330
1F
100
AcDbEntity
  8
1
100
AcDbCircle
 10
1808.2945830539
 20
1665.5246106153
 30
0.0
 40
4.0
  0
CIRCLE
  5
10B
330
1F
100
AcDbEntity
  8
1
100
AcDbCircle
 10
1708.2945830539
 20
1665.5246106153
 30
0.0
 40
4.000000000000227
  0
CIRCLE
  5
10C
330
1F
100
AcDbEntity
  8
1
100
AcDbCircle
 10
1608.2945830539
 20
1665.5246106153
 30
0.0
 40
3.999999999999773
  0
CIRCLE
  5
10D
330
1F
100
AcDbEntity
  8
1
100
AcDbCircle
 10
1541.2945830539
 20
1492.5246106153
 30
0.0
 40
4.0
  0
CIRCLE
  5
10E
330
1F
100
AcDbEntity
  8
1
100
AcDbCircle
 10
1541.2945830539
 20
1592.5246106153
 30
0.0
 40
4.000000000000227
  0
CIRCLE
  5
10F
330
1F
100
AcDbEntity
  8
1
100
AcDbCircle
 10
1541.2945830539
 20
1665.5246106153
 30
0.0
 40
4.000000000000227
  0
CIRCLE
  5
110
330
1F
100
AcDbEntity
  8
1
100
AcDbCircle
 10
1875.2945830539
 20
1665.5246106153
 30
0.0
 40
4.000000000000227
  0
LINE
  5
111
330
1F
100
AcDbEntity
  8
1
100
AcDbLine
 10
1885.2945830539
 20
1675.5246106153
 30
0.0
 11
1531.2945830539
 21
1675.5246106153
 31
0.0
  0
LINE
  5
112
330
1F
100
AcDbEntity
  8
1
100
AcDbLine
 10
1885.2945830539
 20
1426.8246106153
 30
0.0
 11
1885.2945830539
 21
1675.5246106153
 31
0.0
  0
LINE
  5
113
330
1F
100
AcDbEntity
  8
0
  6
HIDDEN
 62
     7
370
    18
100
AcDbLine
 10
1330.7945830539
 20
1299.5246106153
 30
0.0
 11
1330.7945830539
 21
1211.5246106153
 31
0.0
  0
LINE
  5
114
330
1F
100
AcDbEntity
  8
0
  6
HIDDEN
 62
     7
370
    18
100
AcDbLine
 10
1405.7945830539
 20
1299.5246106153
 30
0.0
 11
1405.7945830539
 21
1211.5246106153
 31
0.0
  0
LINE
  5
115
330
1F
100
AcDbEntity
  8
0
  6
HIDDEN
 62
     7
370
    18
100
AcDbLine
 10
1330.7945830539
 20
1194.4295146728
 30
0.0
 11
1330.7945830539
 21
1061.5246106153
 31
0.0
  0
LINE
  5
116
330
1F
100
AcDbEntity
  8
0
  6
HIDDEN
 62
     7
370
    18
100
AcDbLine
 10
1330.7945830539
 20
1211.5246106153
 30
0.0
 11
1330.7945830539
 21
1194.4295146728
 31
0.0
  0
LINE
  5
117
330
1F
100
AcDbEntity
  8
0
  6
HIDDEN
 62
     7
370
    18
100
AcDbLine
 10
1405.7945830539
 20
1194.4295146728
 30
0.0
 11
1405.7945830539
 21
1061.5246106153
 31
0.0
  0
LINE
  5
118
330
1F
100
AcDbEntity
  8
0
  6
HIDDEN
 62
     7
370
    18
100
AcDbLine
 10
1405.7945830539
 20
1211.5246106153
 30
0.0
 11
1405.7945830539
 21
1194.4295146728
 31
0.0
  0
LINE
  5
119
330
1F
100
AcDbEntity
  8
0
  6
HIDDEN
 62
     7
370
    18
100
AcDbLine
 10
1860.2945830539
 20
959.5246106153
 30
0.0
 11
1860.2945830539
 21
884.5246106153
 31
0.0
  0
LINE
  5
11A
330
1F
100
AcDbEntity
  8
0
  6
HIDDEN
 62
     7
370
    18
100
AcDbLine
 10
1480.2945830539
 20
959.5246106153
 30
0.0
 11
1480.2945830539
 21
884.5246106153
 31
0.0
  0
LINE
  5
11B
330
1F
100
AcDbEntity
  8
0
  6
HIDDEN
 62
     7
370
    18
100
AcDbLine
 10
1556.6945830539
 20
1279.0246106153
 30
0.0
 11
1556.6945830539
 21
1254.5246106153
 31
0.0
  0
LINE
  5
11C
330
1F
100
AcDbEntity
  8
0
  6
HIDDEN
 62
     7
370
    18
100
AcDbLine
 10
1556.6945830539
 20
941.3246106153
 30
0.0
 11
1859.8945830539
 21
941.3246106153
 31
0.0
  0
LINE
  5
11D
330
1F
100
AcDbEntity
  8
0
  6
HIDDEN
 62
     7
370
    18
100
AcDbLine
 10
1556.6945830539
 20
1254.5246106153
 30
0.0
 11
1556.6945830539
 21
941.3246106153
 31
0.0
  0
LINE
  5
11E
330
1F
100
AcDbEntity
  8
0
  6
HIDDEN
 62
     7
370
    18
100
AcDbLine
 10
1859.8945830539
 20
959.5246106153
 30
0.0
 11
1859.8945830539
 21
941.3246106153
 31
0.0
  0
LINE
  5
11F
330
1F
100
AcDbEntity
  8
0
  6
HIDDEN
 62
     7
370
    18
100
AcDbLine
 10
1558.2945830539
 20
1254.5246106153
 30
0.0
 11
1558.2945830539
 21
942.5246106153
 31
0.0
  0
LINE
  5
120
330
1F
100
AcDbEntity
  8
0
  6
HIDDEN
 62
     7
370
    18
100
AcDbLine
 10
1558.2945830539
 20
942.5246106153
 30
0.0
 11
1858.2945830539
 21
942.5246106153
 31
0.0
  0
LINE
  5
121
330
1F
100
AcDbEntity
  8
0
  6
HIDDEN
 62
     7
370
    18
100
AcDbLine
 10
1858.2945830539
 20
1254.5246106153
 30
0.0
 11
1858.2945830539
 21
942.5246106153
 31
0.0
  0
LINE
  5
122
330
1F
100
AcDbEntity
  8
0
  6
HIDDEN
 62
     7
370
    18
100
AcDbLine
 10
1858.2945830539
 20
1625.4523894875
 30
0.0
 11
1858.2945830539
 21
1254.5246106153
 31
0.0
  0
LINE
  5
123
330
1F
100
AcDbEntity
  8
0
  6
HIDDEN
 62
     7
370
    18
100
AcDbLine
 10
1558.2945830539
 20
1625.4523894875
 30
0.0
 11
1558.2945830539
 21
1254.5246106153
 31
0.0
  0
LINE
  5
124
330
1F
100
AcDbEntity
  8
0
  6
HIDDEN
 62
     7
370
    18
100
AcDbLine
 10
1558.2945830539
 20
1648.5246106153
 30
0.0
 11
1558.2945830539
 21
1625.4523894875
 31
0.0
  0
LINE
  5
125
330
1F
100
AcDbEntity
  8
0
  6
HIDDEN
 62
     7
370
    18
100
AcDbLine
 10
1858.2945830539
 20
1648.5246106153
 30
0.0
 11
1858.2945830539
 21
1625.4523894875
 31
0.0
  0
LINE
  5
126
330
1F
100
AcDbEntity
  8
0
  6
HIDDEN
 62
     7
370
    18
100
AcDbLine
 10
1558.2945830539
 20
1236.5246106153
 30
0.0
 11
1858.2945830539
 21
1236.5246106153
 31
0.0
  0
LINE
  5
127
330
1F
100
AcDbEntity
  8
0
  6
HIDDEN
 62
     7
370
    18
100
AcDbLine
 10
1556.6945830539
 20
1235.3246106153
 30
0.0
 11
1859.8945830539
 21
1235.3246106153
 31
0.0
  0
LINE
  5
128
330
1F
100
AcDbEntity
  8
0
  6
HIDDEN
 62
     7
370
    18
100
AcDbLine
 10
1531.2945830539
 20
1209.5246106153
 30
0.0
 11
1885.2945830539
 21
1209.5246106153
 31
0.0
  0
LINE
  5
129
330
1F
100
AcDbEntity
  8
0
  6
HIDDEN
 62
     7
370
    18
100
AcDbLine
 10
1531.2945830539
 20
1279.0246106153
 30
0.0
 11
1531.2945830539
 21
1209.5246106153
 31
0.0
  0
CIRCLE
  5
12A
330
1F
100
AcDbEntity
  8
0
  6
HIDDEN
 62
     7
370
    18
100
AcDbCircle
 10
1541.2945830539
 20
1219.5246106153
 30
0.0
 40
4.000000000000227
  0
CIRCLE
  5
12B
330
1F
100
AcDbEntity
  8
0
  6
HIDDEN
 62
     7
370
    18
100
AcDbCircle
 10
1608.2945830539
 20
1219.5246106153
 30
0.0
 40
3.999999999999773
  0
CIRCLE
  5
12C
330
1F
100
AcDbEntity
  8
0
  6
HIDDEN
 62
     7
370
    18
100
AcDbCircle
 10
1708.2945830539
 20
1219.5246106153
 30
0.0
 40
3.999999999999773
  0
CIRCLE
  5
12D
330
1F
100
AcDbEntity
  8
0
  6
HIDDEN
 62
     7
370
    18
100
AcDbCircle
 10
1808.2945830539
 20
1219.5246106153
 30
0.0
 40
4.000000000000227
  0
CIRCLE
  5
12E
330
1F
100
AcDbEntity
  8
0
  6
HIDDEN
 62
     7
370
    18
100
AcDbCircle
 10
1875.2945830539
 20
1292.5246106153
 30
0.0
 40
4.000000000000227
  0
LINE
  5
12F
330
1F
100
AcDbEntity
  8
0
  6
HIDDEN
 62
     7
370
    18
100
AcDbLine
 10
1885.2945830539
 20
1209.5246106153
 30
0.0
 11
1885.2945830539
 21
1426.8246106153
 31
0.0
  0
CIRCLE
  5
130
330
1F
100
AcDbEntity
  8
0
  6
HIDDEN
 62
     7
370
    18
100
AcDbCircle
 10
1875.2945830539
 20
1392.5246106153
 30
0.0
 40
4.000000000000227
  0
CIRCLE
  5
131
330
1F
100
AcDbEntity
  8
0
  6
HIDDEN
 62
     7
370
    18
100
AcDbCircle
 10
1875.2945830539
 20
1219.5246106153
 30
0.0
 40
4.000000000000227
  0
LINE
  5
132
330
1F
100
AcDbEntity
  8
0
  6
HIDDEN
 62
     7
370
    18
100
AcDbLine
 10
1558.2945830539
 20
1648.5246106153
 30
0.0
 11
1858.2945830539
 21
1648.5246106153
 31
0.0
  0
LINE
  5
133
330
1F
100
AcDbEntity
  8
0
  6
HIDDEN
 62
     7
370
    18
100
AcDbLine
 10
1405.7945830539
 20
1117.5246106153
 30
0.0
 11
1448.2945830539
 21
1117.5246106153
 31
0.0
  0
LINE
  5
134
330
1F
100
AcDbEntity
  8
0
  6
HIDDEN
 62
     7
370
    18
100
AcDbLine
 10
1448.2945830539
 20
1155.5246106153
 30
0.0
 11
1405.7945830539
 21
1155.5246106153
 31
0.0
  0
LINE
  5
135
330
1F
100
AcDbEntity
  8
0
  6
HIDDEN
 62
     7
370
    18
100
AcDbLine
 10
1330.7945830539
 20
1149.5246106153
 30
0.0
 11
1405.7945830539
 21
1149.5246106153
 31
0.0
  0
LINE
  5
136
330
1F
100
AcDbEntity
  8
0
  6
HIDDEN
 62
     7
370
    18
100
AcDbLine
 10
1405.7945830539
 20
1299.5246106153
 30
0.0
 11
1330.7945830539
 21
1299.5246106153
 31
0.0
  0
LINE
  5
137
330
1F
100
AcDbEntity
  8
0
  6
HIDDEN
 62
     7
370
    18
100
AcDbLine
 10
1330.7945830539
 20
1061.5246106153
 30
0.0
 11
1405.7945830539
 21
1061.5246106153
 31
0.0
  0
LINE
  5
138
330
1F
100
AcDbEntity
  8
0
  6
HIDDEN
 62
     7
370
    18
100
AcDbLine
 10
1405.7945830539
 20
1211.5246106153
 30
0.0
 11
1330.7945830539
 21
1211.5246106153
 31
0.0
  0
LINE
  5
139
330
1F
100
AcDbEntity
  8
0
  6
HIDDEN
 62
     7
370
    18
100
AcDbLine
 10
1888.2945830539
 20
884.5246106153
 30
0.0
 11
1888.2945830539
 21
889.5246106153
 31
0.0
  0
LINE
  5
13A
330
1F
100
AcDbEntity
  8
0
  6
HIDDEN
 62
     7
370
    18
100
AcDbLine
 10
1876.2945830539
 20
889.5246106153
 30
0.0
 11
1876.2945830539
 21
884.5246106153
 31
0.0
  0
LINE
  5
13B
330
1F
100
AcDbEntity
  8
0
  6
HIDDEN
 62
     7
370
    18
100
AcDbLine
 10
1464.2945830539
 20
884.5246106153
 30
0.0
 11
1464.2945830539
 21
889.5246106153
 31
0.0
  0
LINE
  5
13C
330
1F
100
AcDbEntity
  8
0
  6
HIDDEN
 62
     7
370
    18
100
AcDbLine
 10
1452.2945830539
 20
889.5246106153
 30
0.0
 11
1452.2945830539
 21
884.5246106153
 31
0.0
  0
LINE
  5
13D
330
1F
100
AcDbEntity
  8
0
  6
HIDDEN
 62
     7
370
    18
100
AcDbLine
 10
1911.2945830539
 20
1172.8785159183
 30
0.0
 11
1908.9945830539
 21
1172.8785159183
 31
0.0
  0
LINE
  5
13E
330
1F
100
AcDbEntity
  8
0
  6
HIDDEN
 62
     7
370
    18
100
AcDbLine
 10
1908.9945830539
 20
1164.8785159183
 30
0.0
 11
1911.2945830539
 21
1164.8785159183
 31
0.0
  0
LINE
  5
13F
330
1F
100
AcDbEntity
  8
0
  6
HIDDEN
 62
     7
370
    18
100
AcDbLine
 10
1911.2945830539
 20
1284.1707053123
 30
0.0
 11
1908.9945830539
 21
1284.1707053123
 31
0.0
  0
LINE
  5
140
330
1F
100
AcDbEntity
  8
0
  6
HIDDEN
 62
     7
370
    18
100
AcDbLine
 10
1908.9945830539
 20
1276.1707053123
 30
0.0
 11
1911.2945830539
 21
1276.1707053123
 31
0.0
  0
LINE
  5
141
330
1F
100
AcDbEntity
  8
0
  6
HIDDEN
 62
     7
370
    18
100
AcDbLine
 10
1858.2945830539
 20
1024.5246106153
 30
0.0
 11
1911.2945830539
 21
1024.5246106153
 31
0.0
  0
LINE
  5
142
330
1F
100
AcDbEntity
  8
0
  6
HIDDEN
 62
     7
370
    18
100
AcDbLine
 10
1911.2945830539
 20
1424.5246106153
 30
0.0
 11
1858.2945830539
 21
1424.5246106153
 31
0.0
  0
LINE
  5
143
330
1F
100
AcDbEntity
  8
0
  6
HIDDEN
 62
     7
370
    18
100
AcDbLine
 10
1911.2945830539
 20
1076.4966526602
 30
0.0
 11
1908.9945830539
 21
1076.4966526602
 31
0.0
  0
LINE
  5
144
330
1F
100
AcDbEntity
  8
0
  6
HIDDEN
 62
     7
370
    18
100
AcDbLine
 10
1908.9945830539
 20
1068.4966526602
 30
0.0
 11
1911.2945830539
 21
1068.4966526602
 31
0.0
  0
LINE
  5
145
330
1F
100
AcDbEntity
  8
0
  6
HIDDEN
 62
     7
370
    18
100
AcDbLine
 10
1911.2945830539
 20
1380.5525685704
 30
0.0
 11
1908.9945830539
 21
1380.5525685704
 31
0.0
  0
LINE
  5
146
330
1F
100
AcDbEntity
  8
0
  6
HIDDEN
 62
     7
370
    18
100
AcDbLine
 10
1908.9945830539
 20
1372.5525685704
 30
0.0
 11
1911.2945830539
 21
1372.5525685704
 31
0.0
  0
LINE
  5
147
330
1F
100
AcDbEntity
  8
0
  6
HIDDEN
 62
     7
370
    18
100
AcDbLine
 10
1911.2945830539
 20
1020.8505579632
 30
0.0
 11
1908.9945830539
 21
1020.8505579632
 31
0.0
  0
LINE
  5
148
330
1F
100
AcDbEntity
  8
0
  6
HIDDEN
 62
     7
370
    18
100
AcDbLine
 10
1908.9945830539
 20
1012.8505579631
 30
0.0
 11
1911.2945830539
 21
1012.8505579631
 31
0.0
  0
LINE
  5
149
330
1F
100
AcDbEntity
  8
0
  6
HIDDEN
 62
     7
370
    18
100
AcDbLine
 10
1911.2945830539
 20
1436.1986632674
 30
0.0
 11
1908.9945830539
 21
1436.1986632674
 31
0.0
  0
LINE
  5
14A
330
1F
100
AcDbEntity
  8
0
  6
HIDDEN
 62
     7
370
    18
100
AcDbLine
 10
1908.9945830539
 20
1428.1986632674
 30
0.0
 11
1911.2945830539
 21
1428.1986632674
 31
0.0
  0
LINE
  5
14B
330
1F
100
AcDbEntity
  8
2
100
AcDbLine
 10
1708.2945830539
 20
931.086070489
 30
0.0
 11
1708.2945830539
 21
1667.3163375385
 31
0.0
  0
LINE
  5
14C
330
1F
100
AcDbEntity
  8
2
100
AcDbLine
 10
1551.6547692297
 20
1442.5246106153
 30
0.0
 11
1869.2442961922
 21
1442.5246106153
 31
0.0
  0
LINE
  5
14D
330
1F
100
AcDbEntity
  8
2
100
AcDbLine
 10
1899.7200588805
 20
1224.5246106153
 30
0.0
 11
1307.8486677231
 21
1224.5246106153
 31
0.0
  0
LINE
  5
14E
330
1F
100
AcDbEntity
  8
1
100
AcDbLine
 10
1072.9595215374
 20
2094.4889351928
 30
0.0
 11
1072.9595215374
 21
2463.9889351928
 31
0.0
  0
LINE
  5
14F
330
1F
100
AcDbEntity
  8
1
100
AcDbLine
 10
787.9595215374
 20
2463.9889351928
 30
0.0
 11
787.9595215374
 21
2094.4889351928
 31
0.0
  0
LINE
  5
150
330
1F
100
AcDbEntity
  8
1
100
AcDbLine
 10
949.4595215374
 20
2056.9889351928
 30
0.0
 11
949.4595215374
 21
2094.4889351928
 31
0.0
  0
LINE
  5
151
330
1F
100
AcDbEntity
  8
1
100
AcDbLine
 10
911.4595215374
 20
2094.4889351928
 30
0.0
 11
911.4595215374
 21
2056.9889351928
 31
0.0
  0
LINE
  5
152
330
1F
100
AcDbEntity
  8
1
100
AcDbLine
 10
177.9595215374
 20
2519.9889351928
 30
0.0
 11
177.9595215374
 21
2517.6889351928
 31
0.0
  0
LINE
  5
153
330
1F
100
AcDbEntity
  8
1
100
AcDbLine
 10
627.9595215374
 20
2517.6889351928
 30
0.0
 11
627.9595215374
 21
2519.9889351928
 31
0.0
  0
LINE
  5
154
330
1F
100
AcDbEntity
  8
1
100
AcDbLine
 10
627.9595215374
 20
2468.5889351928
 30
0.0
 11
627.9595215374
 21
2469.9889351928
 31
0.0
  0
LINE
  5
155
330
1F
100
AcDbEntity
  8
1
100
AcDbLine
 10
177.9595215374
 20
2469.9889351928
 30
0.0
 11
177.9595215374
 21
2468.5889351928
 31
0.0
  0
LINE
  5
156
330
1F
100
AcDbEntity
  8
1
100
AcDbLine
 10
200.6595215374
 20
2517.6889351928
 30
0.0
 11
200.6595215374
 21
2469.9889351928
 31
0.0
  0
LINE
  5
157
330
1F
100
AcDbEntity
  8
1
100
AcDbLine
 10
605.2595215374
 20
2469.9889351928
 30
0.0
 11
605.2595215374
 21
2517.6889351928
 31
0.0
  0
LINE
  5
158
330
1F
100
AcDbEntity
  8
1
100
AcDbLine
 10
787.9595215374
 20
2094.4889351928
 30
0.0
 11
1072.9595215374
 21
2094.4889351928
 31
0.0
  0
LINE
  5
159
330
1F
100
AcDbEntity
  8
1
100
AcDbLine
 10
1072.9595215374
 20
2463.9889351928
 30
0.0
 11
787.9595215374
 21
2463.9889351928
 31
0.0
  0
LINE
  5
15A
330
1F
100
AcDbEntity
  8
1
100
AcDbLine
 10
755.4595215374
 20
2393.4889351928
 30
0.0
 11
787.9595215374
 21
2393.4889351928
 31
0.0
  0
LINE
  5
15B
330
1F
100
AcDbEntity
  8
1
100
AcDbLine
 10
1072.9595215374
 20
2393.4889351928
 30
0.0
 11
1105.4595215374
 21
2393.4889351928
 31
0.0
  0
LINE
  5
15C
330
1F
100
AcDbEntity
  8
1
100
AcDbLine
 10
1105.4595215374
 20
2393.4889351928
 30
0.0
 11
1105.4595215374
 21
2113.4889351928
 31
0.0
  0
LINE
  5
15D
330
1F
100
AcDbEntity
  8
1
100
AcDbLine
 10
1105.4595215374
 20
2113.4889351928
 30
0.0
 11
1072.9595215374
 21
2113.4889351928
 31
0.0
  0
LINE
  5
15E
330
1F
100
AcDbEntity
  8
1
100
AcDbLine
 10
787.9595215374
 20
2113.4889351928
 30
0.0
 11
755.4595215374
 21
2113.4889351928
 31
0.0
  0
LINE
  5
15F
330
1F
100
AcDbEntity
  8
1
100
AcDbLine
 10
755.4595215374
 20
2113.4889351928
 30
0.0
 11
755.4595215374
 21
2393.4889351928
 31
0.0
  0
LINE
  5
160
330
1F
100
AcDbEntity
  8
1
100
AcDbLine
 10
235.4595215374
 20
2056.9889351928
 30
0.0
 11
1105.4595215374
 21
2056.9889351928
 31
0.0
  0
LINE
  5
161
330
1F
100
AcDbEntity
  8
1
100
AcDbLine
 10
235.4595215374
 20
1896.9889351928
 30
0.0
 11
1105.4595215374
 21
1896.9889351928
 31
0.0
  0
LINE
  5
162
330
1F
100
AcDbEntity
  8
1
100
AcDbLine
 10
1105.4595215374
 20
2056.9889351928
 30
0.0
 11
1105.4595215374
 21
1896.9889351928
 31
0.0
  0
LINE
  5
163
330
1F
100
AcDbEntity
  8
1
100
AcDbLine
 10
235.4595215374
 20
2056.9889351928
 30
0.0
 11
235.4595215374
 21
1896.9889351928
 31
0.0
  0
LINE
  5
164
330
1F
100
AcDbEntity
  8
1
100
AcDbLine
 10
1172.9595215374
 20
1948.9889351928
 30
0.0
 11
1105.4595215374
 21
1948.9889351928
 31
0.0
  0
LINE
  5
165
330
1F
100
AcDbEntity
  8
1
100
AcDbLine
 10
1072.9595215374
 20
2056.9889351928
 30
0.0
 11
1072.9595215374
 21
2078.9889351928
 31
0.0
  0
LINE
  5
166
330
1F
100
AcDbEntity
  8
1
100
AcDbLine
 10
1072.9595215374
 20
2078.9889351928
 30
0.0
 11
1172.9595215374
 21
2078.9889351928
 31
0.0
  0
LINE
  5
167
330
1F
100
AcDbEntity
  8
1
100
AcDbLine
 10
1172.9595215374
 20
2078.9889351928
 30
0.0
 11
1172.9595215374
 21
1948.9889351928
 31
0.0
  0
LINE
  5
168
330
1F
100
AcDbEntity
  8
1
100
AcDbLine
 10
235.4595215374
 20
1948.9889351928
 30
0.0
 11
167.9595215374
 21
1948.9889351928
 31
0.0
  0
LINE
  5
169
330
1F
100
AcDbEntity
  8
1
100
AcDbLine
 10
167.9595215374
 20
1948.9889351928
 30
0.0
 11
167.9595215374
 21
2078.9889351928
 31
0.0
  0
LINE
  5
16A
330
1F
100
AcDbEntity
  8
1
100
AcDbLine
 10
267.9595215374
 20
2078.9889351928
 30
0.0
 11
267.9595215374
 21
2056.9889351928
 31
0.0
  0
LINE
  5
16B
330
1F
100
AcDbEntity
  8
1
100
AcDbLine
 10
167.9595215374
 20
2078.9889351928
 30
0.0
 11
267.9595215374
 21
2078.9889351928
 31
0.0
  0
LINE
  5
16C
330
1F
100
AcDbEntity
  8
1
100
AcDbLine
 10
167.9595215374
 20
2048.9889351928
 30
0.0
 11
152.9595215374
 21
2048.9889351928
 31
0.0
  0
LINE
  5
16D
330
1F
100
AcDbEntity
  8
1
100
AcDbLine
 10
152.9595215374
 20
2508.9889351928
 30
0.0
 11
200.6595215374
 21
2508.9889351928
 31
0.0
  0
LINE
  5
16E
330
1F
100
AcDbEntity
  8
1
100
AcDbLine
 10
605.2595215374
 20
2508.9889351928
 30
0.0
 11
1132.9595215374
 21
2508.9889351928
 31
0.0
  0
LINE
  5
16F
330
1F
100
AcDbEntity
  8
1
100
AcDbLine
 10
1132.9595215374
 20
2508.9889351928
 30
0.0
 11
1132.9595215374
 21
2078.9889351928
 31
0.0
  0
LINE
  5
170
330
1F
100
AcDbEntity
  8
1
100
AcDbLine
 10
627.9595215374
 20
2468.9889351928
 30
0.0
 11
1092.9595215374
 21
2468.9889351928
 31
0.0
  0
LINE
  5
171
330
1F
100
AcDbEntity
  8
1
100
AcDbLine
 10
192.9595215374
 20
2088.9889351928
 30
0.0
 11
192.9595215374
 21
2165.3889351928
 31
0.0
  0
LINE
  5
172
330
1F
100
AcDbEntity
  8
1
100
AcDbLine
 10
1092.9595215374
 20
2088.9889351928
 30
0.0
 11
949.4595215374
 21
2088.9889351928
 31
0.0
  0
LINE
  5
173
330
1F
100
AcDbEntity
  8
1
100
AcDbLine
 10
911.4595215374
 20
2088.9889351928
 30
0.0
 11
192.9595215374
 21
2088.9889351928
 31
0.0
  0
LINE
  5
174
330
1F
100
AcDbEntity
  8
1
100
AcDbLine
 10
1092.9595215374
 20
2468.9889351928
 30
0.0
 11
1092.9595215374
 21
2393.4889351928
 31
0.0
  0
LINE
  5
175
330
1F
100
AcDbEntity
  8
1
100
AcDbLine
 10
1092.9595215374
 20
2113.4889351928
 30
0.0
 11
1092.9595215374
 21
2088.9889351928
 31
0.0
  0
LINE
  5
176
330
1F
100
AcDbEntity
  8
1
100
AcDbLine
 10
152.9595215374
 20
2048.9889351928
 30
0.0
 11
152.9595215374
 21
2165.3889351928
 31
0.0
  0
LINE
  5
177
330
1F
100
AcDbEntity
  8
1
100
AcDbLine
 10
152.9595215374
 20
2468.5889351928
 30
0.0
 11
152.9595215374
 21
2508.9889351928
 31
0.0
  0
LINE
  5
178
330
1F
100
AcDbEntity
  8
1
100
AcDbLine
 10
100.9595215374
 20
2493.9889351928
 30
0.0
 11
97.9595215374
 21
2493.9889351928
 31
0.0
  0
LINE
  5
179
330
1F
100
AcDbEntity
  8
1
100
AcDbLine
 10
100.9595215374
 20
2493.9889351928
 30
0.0
 11
100.9595215374
 21
2139.9889351928
 31
0.0
  0
LINE
  5
17A
330
1F
100
AcDbEntity
  8
1
100
AcDbLine
 10
100.9595215374
 20
2139.9889351928
 30
0.0
 11
97.9595215374
 21
2139.9889351928
 31
0.0
  0
LINE
  5
17B
330
1F
100
AcDbEntity
  8
1
100
AcDbLine
 10
97.9595215374
 20
2493.9889351928
 30
0.0
 11
97.9595215374
 21
2139.9889351928
 31
0.0
  0
LINE
  5
17C
330
1F
100
AcDbEntity
  8
1
100
AcDbLine
 10
100.9595215374
 20
2165.3889351928
 30
0.0
 11
401.2743655999
 21
2165.3889351928
 31
0.0
  0
LINE
  5
17D
330
1F
100
AcDbEntity
  8
1
100
AcDbLine
 10
100.9595215374
 20
2468.5889351928
 30
0.0
 11
401.2743655999
 21
2468.5889351928
 31
0.0
  0
LINE
  5
17E
330
1F
100
AcDbEntity
  8
1
100
AcDbLine
 10
746.1595215374
 20
2165.3889351928
 30
0.0
 11
746.1595215374
 21
2468.5889351928
 31
0.0
  0
LINE
  5
17F
330
1F
100
AcDbEntity
  8
1
100
AcDbLine
 10
401.2743655999
 20
2165.3889351928
 30
0.0
 11
746.1595215374
 21
2165.3889351928
 31
0.0
  0
LINE
  5
180
330
1F
100
AcDbEntity
  8
1
100
AcDbLine
 10
401.2743655999
 20
2468.5889351928
 30
0.0
 11
746.1595215374
 21
2468.5889351928
 31
0.0
  0
LINE
  5
181
330
1F
100
AcDbEntity
  8
1
100
AcDbLine
 10
627.9595215374
 20
2517.6889351928
 30
0.0
 11
177.9595215374
 21
2517.6889351928
 31
0.0
  0
LINE
  5
182
330
1F
100
AcDbEntity
  8
1
100
AcDbLine
 10
627.9595215374
 20
2519.9889351928
 30
0.0
 11
177.9595215374
 21
2519.9889351928
 31
0.0
  0
LINE
  5
183
330
1F
100
AcDbEntity
  8
1
100
AcDbLine
 10
177.9595215374
 20
2469.9889351928
 30
0.0
 11
627.9595215374
 21
2469.9889351928
 31
0.0
  0
LINE
  5
184
330
1F
100
AcDbEntity
  8
0
  6
HIDDEN
 62
     7
370
    18
100
AcDbLine
 10
851.7651125873
 20
2123.4889351928
 30
0.0
 11
862.7757716413
 21
2123.4889351928
 31
0.0
  0
LINE
  5
185
330
1F
100
AcDbEntity
  8
0
  6
HIDDEN
 62
     7
370
    18
100
AcDbLine
 10
851.7651125873
 20
2123.4889351928
 30
0.0
 11
851.7651125873
 21
2383.4889351928
 31
0.0
  0
LINE
  5
186
330
1F
100
AcDbEntity
  8
0
  6
HIDDEN
 62
     7
370
    18
100
AcDbLine
 10
851.7651125873
 20
2383.4889351928
 30
0.0
 11
862.7757716413
 21
2383.4889351928
 31
0.0
  0
LINE
  5
187
330
1F
100
AcDbEntity
  8
0
  6
HIDDEN
 62
     7
370
    18
100
AcDbLine
 10
862.7757716413
 20
2463.9889351928
 30
0.0
 11
862.7757716413
 21
2383.4889351928
 31
0.0
  0
LINE
  5
188
330
1F
100
AcDbEntity
  8
0
  6
HIDDEN
 62
     7
370
    18
100
AcDbLine
 10
998.1432714335
 20
2463.9889351928
 30
0.0
 11
998.1432714335
 21
2383.4889351928
 31
0.0
  0
LINE
  5
189
330
1F
100
AcDbEntity
  8
0
  6
HIDDEN
 62
     7
370
    18
100
AcDbLine
 10
998.1432714335
 20
2383.4889351928
 30
0.0
 11
1009.1539304874
 21
2383.4889351928
 31
0.0
  0
LINE
  5
18A
330
1F
100
AcDbEntity
  8
0
  6
HIDDEN
 62
     7
370
    18
100
AcDbLine
 10
1009.1539304874
 20
2383.4889351928
 30
0.0
 11
1009.1539304874
 21
2123.4889351928
 31
0.0
  0
LINE
  5
18B
330
1F
100
AcDbEntity
  8
0
  6
HIDDEN
 62
     7
370
    18
100
AcDbLine
 10
998.1432714335
 20
2123.4889351928
 30
0.0
 11
1009.1539304874
 21
2123.4889351928
 31
0.0
  0
LINE
  5
18C
330
1F
100
AcDbEntity
  8
0
  6
HIDDEN
 62
     7
370
    18
100
AcDbLine
 10
998.1432714335
 20
2123.4889351928
 30
0.0
 11
998.1432714335
 21
2094.4889351928
 31
0.0
  0
LINE
  5
18D
330
1F
100
AcDbEntity
  8
0
  6
HIDDEN
 62
     7
370
    18
100
AcDbLine
 10
862.7757716413
 20
2123.4889351928
 30
0.0
 11
862.7757716413
 21
2094.4889351928
 31
0.0
  0
LINE
  5
18E
330
1F
100
AcDbEntity
  8
0
  6
HIDDEN
 62
     7
370
    18
100
AcDbLine
 10
1017.9595215374
 20
2123.4889351928
 30
0.0
 11
1017.9595215374
 21
2383.4889351928
 31
0.0
  0
LINE
  5
18F
330
1F
100
AcDbEntity
  8
0
  6
HIDDEN
 62
     7
370
    18
100
AcDbLine
 10
1017.9595215374
 20
2123.4889351928
 30
0.0
 11
1009.1539304874
 21
2123.4889351928
 31
0.0
  0
LINE
  5
190
330
1F
100
AcDbEntity
  8
0
  6
HIDDEN
 62
     7
370
    18
100
AcDbLine
 10
1017.9595215374
 20
2383.4889351928
 30
0.0
 11
1009.1539304874
 21
2383.4889351928
 31
0.0
  0
LINE
  5
191
330
1F
100
AcDbEntity
  8
0
  6
HIDDEN
 62
     7
370
    18
100
AcDbLine
 10
842.9595215374
 20
2123.4889351928
 30
0.0
 11
842.9595215374
 21
2383.4889351928
 31
0.0
  0
LINE
  5
192
330
1F
100
AcDbEntity
  8
0
  6
HIDDEN
 62
     7
370
    18
100
AcDbLine
 10
851.7651125873
 20
2383.4889351928
 30
0.0
 11
842.9595215374
 21
2383.4889351928
 31
0.0
  0
LINE
  5
193
330
1F
100
AcDbEntity
  8
0
  6
HIDDEN
 62
     7
370
    18
100
AcDbLine
 10
851.7651125873
 20
2123.4889351928
 30
0.0
 11
842.9595215374
 21
2123.4889351928
 31
0.0
  0
LINE
  5
194
330
1F
100
AcDbEntity
  8
0
  6
HIDDEN
 62
     7
370
    18
100
AcDbLine
 10
862.7757716413
 20
2383.4889351928
 30
0.0
 11
998.1432714335
 21
2383.4889351928
 31
0.0
  0
LINE
  5
195
330
1F
100
AcDbEntity
  8
0
  6
HIDDEN
 62
     7
370
    18
100
AcDbLine
 10
862.7757716413
 20
2123.4889351928
 30
0.0
 11
998.1432714335
 21
2123.4889351928
 31
0.0
  0
LINE
  5
196
330
1F
100
AcDbEntity
  8
0
  6
HIDDEN
 62
     7
370
    18
100
AcDbLine
 10
787.9595215374
 20
2393.4889351928
 30
0.0
 11
1072.9595215374
 21
2393.4889351928
 31
0.0
  0
LINE
  5
197
330
1F
100
AcDbEntity
  8
0
  6
HIDDEN
 62
     7
370
    18
100
AcDbLine
 10
1072.9595215374
 20
2113.4889351928
 30
0.0
 11
787.9595215374
 21
2113.4889351928
 31
0.0
  0
LINE
  5
198
330
1F
100
AcDbEntity
  8
0
  6
HIDDEN
 62
     7
370
    18
100
AcDbLine
 10
327.9595215374
 20
1939.4889351928
 30
0.0
 11
477.9595215374
 21
1939.4889351928
 31
0.0
  0
LINE
  5
199
330
1F
100
AcDbEntity
  8
0
  6
HIDDEN
 62
     7
370
    18
100
AcDbLine
 10
327.9595215374
 20
2014.4889351928
 30
0.0
 11
477.9595215374
 21
2014.4889351928
 31
0.0
  0
LINE
  5
19A
330
1F
100
AcDbEntity
  8
0
  6
HIDDEN
 62
     7
370
    18
100
AcDbLine
 10
978.125254366
 20
1939.4889351928
 30
0.0
 11
1005.4595215374
 21
1939.4889351928
 31
0.0
  0
LINE
  5
19B
330
1F
100
AcDbEntity
  8
0
  6
HIDDEN
 62
     7
370
    18
100
AcDbLine
 10
855.4595215374
 20
1939.4889351928
 30
0.0
 11
978.125254366
 21
1939.4889351928
 31
0.0
  0
LINE
  5
19C
330
1F
100
AcDbEntity
  8
0
  6
HIDDEN
 62
     7
370
    18
100
AcDbLine
 10
978.125254366
 20
2014.4889351928
 30
0.0
 11
1005.4595215374
 21
2014.4889351928
 31
0.0
  0
LINE
  5
19D
330
1F
100
AcDbEntity
  8
0
  6
HIDDEN
 62
     7
370
    18
100
AcDbLine
 10
855.4595215374
 20
2014.4889351928
 30
0.0
 11
978.125254366
 21
2014.4889351928
 31
0.0
  0
LINE
  5
19E
330
1F
100
AcDbEntity
  8
0
  6
HIDDEN
 62
     7
370
    18
100
AcDbLine
 10
1105.4595215374
 20
1948.9889351928
 30
0.0
 11
1072.9595215374
 21
1948.9889351928
 31
0.0
  0
LINE
  5
19F
330
1F
100
AcDbEntity
  8
0
  6
HIDDEN
 62
     7
370
    18
100
AcDbLine
 10
1072.9595215374
 20
1948.9889351928
 30
0.0
 11
1072.9595215374
 21
2056.9889351928
 31
0.0
  0
LINE
  5
1A0
330
1F
100
AcDbEntity
  8
0
  6
HIDDEN
 62
     7
370
    18
100
AcDbLine
 10
267.9595215374
 20
1948.9889351928
 30
0.0
 11
235.4595215374
 21
1948.9889351928
 31
0.0
  0
LINE
  5
1A1
330
1F
100
AcDbEntity
  8
0
  6
HIDDEN
 62
     7
370
    18
100
AcDbLine
 10
267.9595215374
 20
2056.9889351928
 30
0.0
 11
267.9595215374
 21
1948.9889351928
 31
0.0
  0
LINE
  5
1A2
330
1F
100
AcDbEntity
  8
0
  6
HIDDEN
 62
     7
370
    18
100
AcDbLine
 10
200.6595215374
 20
2508.9889351928
 30
0.0
 11
605.2595215374
 21
2508.9889351928
 31
0.0
  0
LINE
  5
1A3
330
1F
100
AcDbEntity
  8
0
  6
HIDDEN
 62
     7
370
    18
100
AcDbLine
 10
1072.9595215374
 20
2048.9889351928
 30
0.0
 11
267.9595215374
 21
2048.9889351928
 31
0.0
  0
LINE
  5
1A4
330
1F
100
AcDbEntity
  8
0
  6
HIDDEN
 62
     7
370
    18
100
AcDbLine
 10
192.9595215374
 20
2468.9889351928
 30
0.0
 11
627.9595215374
 21
2468.9889351928
 31
0.0
  0
LINE
  5
1A5
330
1F
100
AcDbEntity
  8
0
  6
HIDDEN
 62
     7
370
    18
100
AcDbLine
 10
192.9595215374
 20
2165.3889351928
 30
0.0
 11
192.9595215374
 21
2468.9889351928
 31
0.0
  0
LINE
  5
1A6
330
1F
100
AcDbEntity
  8
0
  6
HIDDEN
 62
     7
370
    18
100
AcDbLine
 10
949.4595215374
 20
2088.9889351928
 30
0.0
 11
911.4595215374
 21
2088.9889351928
 31
0.0
  0
LINE
  5
1A7
330
1F
100
AcDbEntity
  8
0
  6
HIDDEN
 62
     7
370
    18
100
AcDbLine
 10
1092.9595215374
 20
2393.4889351928
 30
0.0
 11
1092.9595215374
 21
2113.4889351928
 31
0.0
  0
LINE
  5
1A8
330
1F
100
AcDbEntity
  8
0
  6
HIDDEN
 62
     7
370
    18
100
AcDbLine
 10
152.9595215374
 20
2165.3889351928
 30
0.0
 11
152.9595215374
 21
2468.5889351928
 31
0.0
  0
LINE
  5
1A9
330
1F
100
AcDbEntity
  8
0
  6
HIDDEN
 62
     7
370
    18
100
AcDbLine
 10
1132.9595215374
 20
2078.9889351928
 30
0.0
 11
1132.9595215374
 21
2048.9889351928
 31
0.0
  0
LINE
  5
1AA
330
1F
100
AcDbEntity
  8
0
  6
HIDDEN
 62
     7
370
    18
100
AcDbLine
 10
1132.9595215374
 20
2048.9889351928
 30
0.0
 11
1072.9595215374
 21
2048.9889351928
 31
0.0
  0
LINE
  5
1AB
330
1F
100
AcDbEntity
  8
0
  6
HIDDEN
 62
     7
370
    18
100
AcDbLine
 10
267.9595215374
 20
2048.9889351928
 30
0.0
 11
167.9595215374
 21
2048.9889351928
 31
0.0
  0
LINE
  5
1AC
330
1F
100
AcDbEntity
  8
0
  6
HIDDEN
 62
     7
370
    18
100
AcDbLine
 10
1097.9595215374
 20
2473.9889351928
 30
0.0
 11
1097.9595215374
 21
2083.9889351928
 31
0.0
  0
LINE
  5
1AD
330
1F
100
AcDbEntity
  8
0
  6
HIDDEN
 62
     7
370
    18
100
AcDbLine
 10
187.9595215374
 20
2473.9889351928
 30
0.0
 11
1097.9595215374
 21
2473.9889351928
 31
0.0
  0
LINE
  5
1AE
330
1F
100
AcDbEntity
  8
0
  6
HIDDEN
 62
     7
370
    18
100
AcDbLine
 10
187.9595215374
 20
2083.9889351928
 30
0.0
 11
187.9595215374
 21
2473.9889351928
 31
0.0
  0
LINE
  5
1AF
330
1F
100
AcDbEntity
  8
0
  6
HIDDEN
 62
     7
370
    18
100
AcDbLine
 10
1097.9595215374
 20
2083.9889351928
 30
0.0
 11
187.9595215374
 21
2083.9889351928
 31
0.0
  0
CIRCLE
  5
1B0
330
1F
100
AcDbEntity
  8
0
  6
HIDDEN
 62
     7
370
    18
100
AcDbCircle
 10
1082.9595215374
 20
2066.9889351928
 30
0.0
 40
6.000000000000455
  0
CIRCLE
  5
1B1
330
1F
100
AcDbEntity
  8
0
  6
HIDDEN
 62
     7
370
    18
100
AcDbCircle
 10
1082.9595215374
 20
2490.9889351928
 30
0.0
 40
6.0
  0
CIRCLE
  5
1B2
330
1F
100
AcDbEntity
  8
0
  6
HIDDEN
 62
     7
370
    18
100
AcDbCircle
 10
642.9595215374
 20
2490.9889351928
 30
0.0
 40
6.0
  0
CIRCLE
  5
1B3
330
1F
100
AcDbEntity
  8
0
  6
HIDDEN
 62
     7
370
    18
100
AcDbCircle
 10
642.9595215374
 20
2066.9889351928
 30
0.0
 40
6.000000000000455
  0
CIRCLE
  5
1B4
330
1F
100
AcDbEntity
  8
0
  6
HIDDEN
 62
     7
370
    18
100
AcDbCircle
 10
202.9595215374
 20
2066.9889351928
 30
0.0
 40
6.000000000000455
  0
CIRCLE
  5
1B5
330
1F
100
AcDbEntity
  8
0
  6
HIDDEN
 62
     7
370
    18
100
AcDbCircle
 10
202.9595215374
 20
2490.9889351928
 30
0.0
 40
6.0
  0
LINE
  5
1B6
330
1F
100
AcDbEntity
  8
0
  6
HIDDEN
 62
     7
370
    18
100
AcDbLine
 10
97.9595215374
 20
2466.9889351928
 30
0.0
 11
401.1833210852
 21
2466.9889351928
 31
0.0
  0
LINE
  5
1B7
330
1F
100
AcDbEntity
  8
0
  6
HIDDEN
 62
     7
370
    18
100
AcDbLine
 10
97.9595215374
 20
2166.9889351928
 30
0.0
 11
401.1833210852
 21
2166.9889351928
 31
0.0
  0
LINE
  5
1B8
330
1F
100
AcDbEntity
  8
0
  6
HIDDEN
 62
     7
370
    18
100
AcDbLine
 10
744.9595215374
 20
2166.9889351928
 30
0.0
 11
744.9595215374
 21
2466.9889351928
 31
0.0
  0
LINE
  5
1B9
330
1F
100
AcDbEntity
  8
0
  6
HIDDEN
 62
     7
370
    18
100
AcDbLine
 10
401.1833210852
 20
2166.9889351928
 30
0.0
 11
744.9595215374
 21
2166.9889351928
 31
0.0
  0
LINE
  5
1BA
330
1F
100
AcDbEntity
  8
0
  6
HIDDEN
 62
     7
370
    18
100
AcDbLine
 10
401.1833210852
 20
2466.9889351928
 30
0.0
 11
744.9595215374
 21
2466.9889351928
 31
0.0
  0
LINE
  5
1BB
330
1F
100
AcDbEntity
  8
0
  6
HIDDEN
 62
     7
370
    18
100
AcDbLine
 10
166.9595215374
 20
2166.9889351928
 30
0.0
 11
166.9595215374
 21
2466.9889351928
 31
0.0
  0
LINE
  5
1BC
330
1F
100
AcDbEntity
  8
0
  6
HIDDEN
 62
     7
370
    18
100
AcDbLine
 10
165.7595215374
 20
2165.3889351928
 30
0.0
 11
165.7595215374
 21
2468.5889351928
 31
0.0
  0
LINE
  5
1BD
330
1F
100
AcDbEntity
  8
0
  6
HIDDEN
 62
     7
370
    18
100
AcDbLine
 10
949.4595215374
 20
2014.4889351928
 30
0.0
 11
949.4595215374
 21
2056.9889351928
 31
0.0
  0
LINE
  5
1BE
330
1F
100
AcDbEntity
  8
0
  6
HIDDEN
 62
     7
370
    18
100
AcDbLine
 10
911.4595215374
 20
2056.9889351928
 30
0.0
 11
911.4595215374
 21
2014.4889351928
 31
0.0
  0
LINE
  5
1BF
330
1F
100
AcDbEntity
  8
0
  6
HIDDEN
 62
     7
370
    18
100
AcDbLine
 10
477.9595215374
 20
1939.4889351928
 30
0.0
 11
477.9595215374
 21
2014.4889351928
 31
0.0
  0
LINE
  5
1C0
330
1F
100
AcDbEntity
  8
0
  6
HIDDEN
 62
     7
370
    18
100
AcDbLine
 10
327.9595215374
 20
2014.4889351928
 30
0.0
 11
327.9595215374
 21
1939.4889351928
 31
0.0
  0
LINE
  5
1C1
330
1F
100
AcDbEntity
  8
0
  6
HIDDEN
 62
     7
370
    18
100
AcDbLine
 10
1005.4595215374
 20
1939.4889351928
 30
0.0
 11
1005.4595215374
 21
2014.4889351928
 31
0.0
  0
LINE
  5
1C2
330
1F
100
AcDbEntity
  8
0
  6
HIDDEN
 62
     7
370
    18
100
AcDbLine
 10
855.4595215374
 20
2014.4889351928
 30
0.0
 11
855.4595215374
 21
1939.4889351928
 31
0.0
  0
LINE
  5
1C3
330
1F
100
AcDbEntity
  8
0
  6
HIDDEN
 62
     7
370
    18
100
AcDbLine
 10
97.9595215374
 20
2479.9889351928
 30
0.0
 11
100.9595215374
 21
2479.9889351928
 31
0.0
  0
LINE
  5
1C4
330
1F
100
AcDbEntity
  8
0
  6
HIDDEN
 62
     7
370
    18
100
AcDbLine
 10
100.9595215374
 20
2487.9889351928
 30
0.0
 11
97.9595215374
 21
2487.9889351928
 31
0.0
  0
LINE
  5
1C5
330
1F
100
AcDbEntity
  8
0
  6
HIDDEN
 62
     7
370
    18
100
AcDbLine
 10
97.9595215374
 20
2412.9889351928
 30
0.0
 11
100.9595215374
 21
2412.9889351928
 31
0.0
  0
LINE
  5
1C6
330
1F
100
AcDbEntity
  8
0
  6
HIDDEN
 62
     7
370
    18
100
AcDbLine
 10
100.9595215374
 20
2420.9889351928
 30
0.0
 11
97.9595215374
 21
2420.9889351928
 31
0.0
  0
LINE
  5
1C7
330
1F
100
AcDbEntity
  8
0
  6
HIDDEN
 62
     7
370
    18
100
AcDbLine
 10
97.9595215374
 20
2312.9889351928
 30
0.0
 11
100.9595215374
 21
2312.9889351928
 31
0.0
  0
LINE
  5
1C8
330
1F
100
AcDbEntity
  8
0
  6
HIDDEN
 62
     7
370
    18
100
AcDbLine
 10
100.9595215374
 20
2320.9889351928
 30
0.0
 11
97.9595215374
 21
2320.9889351928
 31
0.0
  0
LINE
  5
1C9
330
1F
100
AcDbEntity
  8
0
  6
HIDDEN
 62
     7
370
    18
100
AcDbLine
 10
97.9595215374
 20
2212.9889351928
 30
0.0
 11
100.9595215374
 21
2212.9889351928
 31
0.0
  0
LINE
  5
1CA
330
1F
100
AcDbEntity
  8
0
  6
HIDDEN
 62
     7
370
    18
100
AcDbLine
 10
100.9595215374
 20
2220.9889351928
 30
0.0
 11
97.9595215374
 21
2220.9889351928
 31
0.0
  0
LINE
  5
1CB
330
1F
100
AcDbEntity
  8
0
  6
HIDDEN
 62
     7
370
    18
100
AcDbLine
 10
97.9595215374
 20
2145.9889351928
 30
0.0
 11
100.9595215374
 21
2145.9889351928
 31
0.0
  0
LINE
  5
1CC
330
1F
100
AcDbEntity
  8
0
  6
HIDDEN
 62
     7
370
    18
100
AcDbLine
 10
100.9595215374
 20
2153.9889351928
 30
0.0
 11
97.9595215374
 21
2153.9889351928
 31
0.0
  0
LINE
  5
1CD
330
1F
100
AcDbEntity
  8
0
  6
HIDDEN
 62
     7
370
    18
100
AcDbLine
 10
454.6056162344
 20
2519.9889351928
 30
0.0
 11
454.6056162344
 21
2517.6889351928
 31
0.0
  0
LINE
  5
1CE
330
1F
100
AcDbEntity
  8
0
  6
HIDDEN
 62
     7
370
    18
100
AcDbLine
 10
462.6056162344
 20
2517.6889351928
 30
0.0
 11
462.6056162344
 21
2519.9889351928
 31
0.0
  0
LINE
  5
1CF
330
1F
100
AcDbEntity
  8
0
  6
HIDDEN
 62
     7
370
    18
100
AcDbLine
 10
343.3134268403
 20
2519.9889351928
 30
0.0
 11
343.3134268403
 21
2517.6889351928
 31
0.0
  0
LINE
  5
1D0
330
1F
100
AcDbEntity
  8
0
  6
HIDDEN
 62
     7
370
    18
100
AcDbLine
 10
351.3134268403
 20
2517.6889351928
 30
0.0
 11
351.3134268403
 21
2519.9889351928
 31
0.0
  0
LINE
  5
1D1
330
1F
100
AcDbEntity
  8
0
  6
HIDDEN
 62
     7
370
    18
100
AcDbLine
 10
602.9595215374
 20
2466.9889351928
 30
0.0
 11
602.9595215374
 21
2519.9889351928
 31
0.0
  0
LINE
  5
1D2
330
1F
100
AcDbEntity
  8
0
  6
HIDDEN
 62
     7
370
    18
100
AcDbLine
 10
202.9595215374
 20
2519.9889351928
 30
0.0
 11
202.9595215374
 21
2466.9889351928
 31
0.0
  0
LINE
  5
1D3
330
1F
100
AcDbEntity
  8
0
  6
HIDDEN
 62
     7
370
    18
100
AcDbLine
 10
246.9315635823
 20
2519.9889351928
 30
0.0
 11
246.9315635823
 21
2517.6889351928
 31
0.0
  0
LINE
  5
1D4
330
1F
100
AcDbEntity
  8
0
  6
HIDDEN
 62
     7
370
    18
100
AcDbLine
 10
254.9315635823
 20
2517.6889351928
 30
0.0
 11
254.9315635823
 21
2519.9889351928
 31
0.0
  0
LINE
  5
1D5
330
1F
100
AcDbEntity
  8
0
  6
HIDDEN
 62
     7
370
    18
100
AcDbLine
 10
550.9874794925
 20
2519.9889351928
 30
0.0
 11
550.9874794925
 21
2517.6889351928
 31
0.0
  0
LINE
  5
1D6
330
1F
100
AcDbEntity
  8
0
  6
HIDDEN
 62
     7
370
    18
100
AcDbLine
 10
558.9874794925
 20
2517.6889351928
 30
0.0
 11
558.9874794925
 21
2519.9889351928
 31
0.0
  0
LINE
  5
1D7
330
1F
100
AcDbEntity
  8
0
  6
HIDDEN
 62
     7
370
    18
100
AcDbLine
 10
606.6335741895
 20
2519.9889351928
 30
0.0
 11
606.6335741895
 21
2517.6889351928
 31
0.0
  0
LINE
  5
1D8
330
1F
100
AcDbEntity
  8
0
  6
HIDDEN
 62
     7
370
    18
100
AcDbLine
 10
614.6335741895
 20
2517.6889351928
 30
0.0
 11
614.6335741895
 21
2519.9889351928
 31
0.0
  0
LINE
  5
1D9
330
1F
100
AcDbEntity
  8
0
  6
HIDDEN
 62
     7
370
    18
100
AcDbLine
 10
191.2854688852
 20
2519.9889351928
 30
0.0
 11
191.2854688852
 21
2517.6889351928
 31
0.0
  0
LINE
  5
1DA
330
1F
100
AcDbEntity
  8
0
  6
HIDDEN
 62
     7
370
    18
100
AcDbLine
 10
199.2854688852
 20
2517.6889351928
 30
0.0
 11
199.2854688852
 21
2519.9889351928
 31
0.0
  0
CIRCLE
  5
1DB
330
1F
100
AcDbEntity
  8
基礎穴
100
AcDbCircle
 10
202.9595215374
 20
2066.9889351928
 30
0.0
 40
5.999999999999969
  0
CIRCLE
  5
1DC
330
1F
100
AcDbEntity
  8
基礎穴
100
AcDbCircle
 10
642.9595215374
 20
2066.9889351928
 30
0.0
 40
6.000000000000023
  0
CIRCLE
  5
1DD
330
1F
100
AcDbEntity
  8
基礎穴
100
AcDbCircle
 10
1082.9595215374
 20
2066.9889351928
 30
0.0
 40
6.000000000000132
  0
CIRCLE
  5
1DE
330
1F
100
AcDbEntity
  8
基礎穴
100
AcDbCircle
 10
1082.9595215374
 20
2490.9889351928
 30
0.0
 40
6.000000000000266
  0
CIRCLE
  5
1DF
330
1F
100
AcDbEntity
  8
基礎穴
100
AcDbCircle
 10
642.9595215374
 20
2490.9889351928
 30
0.0
 40
6.000000000000156
  0
CIRCLE
  5
1E0
330
1F
100
AcDbEntity
  8
基礎穴
100
AcDbCircle
 10
202.9595215374
 20
2490.9889351928
 30
0.0
 40
6.000000000000102
  0
LINE
  5
1E1
330
1F
100
AcDbEntity
  8
2
100
AcDbLine
 10
402.9595215374
 20
1918.1429426704
 30
0.0
 11
402.9595215374
 21
2506.9261937246
 31
0.0
  0
LINE
  5
1E2
330
1F
100
AcDbEntity
  8
2
100
AcDbLine
 10
849.2900816994
 20
2316.9889351928
 30
0.0
 11
122.3489088706
 21
2316.9889351928
 31
0.0
  0
ENDSEC
  0
SECTION
  2
OBJECTS
  0
DICTIONARY
  5
C
330
0
100
AcDbDictionary
281
     1
  3
ACAD_GROUP
350
D
  3
ACAD_LAYOUT
350
1A
  3
ACAD_MLINESTYLE
350
17
  3
ACAD_PLOTSETTINGS
350
19
  3
ACAD_PLOTSTYLENAME
350
E
  3
ACAD_SCALELIST
350
47
  3
DWGPROPS
350
1E3
  0
DICTIONARY
  5
D
102
{ACAD_REACTORS
330
C
102
}
330
C
100
AcDbDictionary
281
     1
  0
DICTIONARY
  5
1A
102
{ACAD_REACTORS
330
C
102
}
330
C
100
AcDbDictionary
281
     1
  3
Layout1
350
1E
  3
Layout2
350
26
  3
Model
350
22
  0
DICTIONARY
  5
17
102
{ACAD_REACTORS
330
C
102
}
330
C
100
AcDbDictionary
281
     1
  3
Standard
350
18
  0
DICTIONARY
  5
19
102
{ACAD_REACTORS
330
C
102
}
330
C
100
AcDbDictionary
281
     1
  0
ACDBDICTIONARYWDFLT
  5
E
102
{ACAD_REACTORS
330
C
102
}
330
C
100
AcDbDictionary
281
     1
  3
Normal
350
F
100
AcDbDictionaryWithDefault
340
F
  0
DICTIONARY
  5
47
102
{ACAD_REACTORS
330
C
102
}
330
C
100
AcDbDictionary
281
     1
  3
A0
350
48
  3
A1
350
49
  3
A2
350
4A
  3
A3
350
4B
  3
A4
350
4C
  3
A5
350
4D
  3
A6
350
4E
  3
A7
350
4F
  3
A8
350
50
  3
A9
350
51
  3
B0
350
52
  3
B1
350
53
  3
B2
350
54
  3
B3
350
55
  3
B4
350
56
  3
B5
350
57
  3
B6
350
58
  0
XRECORD
  5
1E3
102
{ACAD_REACTORS
330
C
102
}
330
C
100
AcDbXrecord
280
     1
  1
DWGPROPS COOKIE
  2

  3

  4

  6

  7

  8
yuta.kunimatsu
  9

300
=
301
=
302
=
303
=
304
=
305
=
306
=
307
=
308
=
309
=
 40
0.0
 41
2460105.400272176
 42
2460105.400272535
  1

 90
        0
  0
LAYOUT
  5
1E
102
{ACAD_REACTORS
330
1A
102
}
330
1A
100
AcDbPlotSettings
  1

  2
none_device
  4

  6

 40
0.0
 41
0.0
 42
0.0
 43
0.0
 44
0.0
 45
0.0
 46
0.0
 47
0.0
 48
0.0
 49
0.0
140
0.0
141
0.0
142
1.0
143
1.0
 70
   688
 72
     1
 73
     0
 74
     5
  7

 75
    16
147
1.0
148
0.0
149
0.0
100
AcDbLayout
  1
Layout1
 70
     1
 71
     1
 10
0.0
 20
0.0
 11
420.0
 21
297.0
 12
0.0
 22
0.0
 32
0.0
 14
1.0000000000E+20
 24
1.0000000000E+20
 34
1.0000000000E+20
 15
-1.0000000000E+20
 25
-1.0000000000E+20
 35
-1.0000000000E+20
146
0.0
 13
0.0
 23
0.0
 33
0.0
 16
1.0
 26
0.0
 36
0.0
 17
0.0
 27
1.0
 37
0.0
 76
     0
330
1B
  0
LAYOUT
  5
26
102
{ACAD_REACTORS
330
1A
102
}
330
1A
100
AcDbPlotSettings
  1

  2
none_device
  4

  6

 40
0.0
 41
0.0
 42
0.0
 43
0.0
 44
0.0
 45
0.0
 46
0.0
 47
0.0
 48
0.0
 49
0.0
140
0.0
141
0.0
142
1.0
143
1.0
 70
   688
 72
     1
 73
     0
 74
     5
  7

 75
    16
147
1.0
148
0.0
149
0.0
100
AcDbLayout
  1
Layout2
 70
     1
 71
     2
 10
0.0
 20
0.0
 11
0.0
 21
0.0
 12
0.0
 22
0.0
 32
0.0
 14
0.0
 24
0.0
 34
0.0
 15
0.0
 25
0.0
 35
0.0
146
0.0
 13
0.0
 23
0.0
 33
0.0
 16
1.0
 26
0.0
 36
0.0
 17
0.0
 27
1.0
 37
0.0
 76
     0
330
23
  0
LAYOUT
  5
22
102
{ACAD_REACTORS
330
1A
102
}
330
1A
100
AcDbPlotSettings
  1

  2
none_device
  4
Letter_(8.50_x_11.00_Inches)
  6

 40
6.35
 41
6.35
 42
6.35000508
 43
6.35000508
 44
215.9
 45
279.4
 46
0.0
 47
0.0
 48
0.0
 49
0.0
140
0.0
141
0.0
142
1.0
143
1.0
 70
  1712
 72
     1
 73
     0
 74
     0
  7

 75
     0
147
1.0
148
0.0
149
0.0
100
AcDbLayout
  1
Model
 70
     1
 71
     0
 10
0.0
 20
0.0
 11
2100.0
 21
2970.0
 12
0.0
 22
0.0
 32
0.0
 14
0.0
 24
0.0
 34
0.0
 15
2100.0
 25
2970.0
 35
0.0
146
0.0
 13
0.0
 23
0.0
 33
0.0
 16
1.0
 26
0.0
 36
0.0
 17
0.0
 27
1.0
 37
0.0
 76
     0
330
1F
331
29
  0
MLINESTYLE
  5
18
102
{ACAD_REACTORS
330
17
102
}
330
17
100
AcDbMlineStyle
  2
Standard
 70
     0
  3

 62
   256
 51
90.0
 52
90.0
 71
     2
 49
0.5
 62
   256
  6
BYLAYER
 49
-0.5
 62
   256
  6
BYLAYER
  0
ACDBPLACEHOLDER
  5
F
102
{ACAD_REACTORS
330
E
102
}
330
E
  0
SCALE
  5
48
102
{ACAD_REACTORS
330
47
102
}
330
47
100
AcDbScale
 70
     0
300
1:1
140
1.0
141
1.0
290
     1
  0
SCALE
  5
49
102
{ACAD_REACTORS
330
47
102
}
330
47
100
AcDbScale
 70
     0
300
1:2
140
1.0
141
2.0
290
     0
  0
SCALE
  5
4A
102
{ACAD_REACTORS
330
47
102
}
330
47
100
AcDbScale
 70
     0
300
1:4
140
1.0
141
4.0
290
     0
  0
SCALE
  5
4B
102
{ACAD_REACTORS
330
47
102
}
330
47
100
AcDbScale
 70
     0
300
1:5
140
1.0
141
5.0
290
     0
  0
SCALE
  5
4C
102
{ACAD_REACTORS
330
47
102
}
330
47
100
AcDbScale
 70
     0
300
1:8
140
1.0
141
8.0
290
     0
  0
SCALE
  5
4D
102
{ACAD_REACTORS
330
47
102
}
330
47
100
AcDbScale
 70
     0
300
1:10
140
1.0
141
10.0
290
     0
  0
SCALE
  5
4E
102
{ACAD_REACTORS
330
47
102
}
330
47
100
AcDbScale
 70
     0
300
1:16
140
1.0
141
16.0
290
     0
  0
SCALE
  5
4F
102
{ACAD_REACTORS
330
47
102
}
330
47
100
AcDbScale
 70
     0
300
1:20
140
1.0
141
20.0
290
     0
  0
SCALE
  5
50
102
{ACAD_REACTORS
330
47
102
}
330
47
100
AcDbScale
 70
     0
300
1:30
140
1.0
141
30.0
290
     0
  0
SCALE
  5
51
102
{ACAD_REACTORS
330
47
102
}
330
47
100
AcDbScale
 70
     0
300
1:40
140
1.0
141
40.0
290
     0
  0
SCALE
  5
52
102
{ACAD_REACTORS
330
47
102
}
330
47
100
AcDbScale
 70
     0
300
1:50
140
1.0
141
50.0
290
     0
  0
SCALE
  5
53
102
{ACAD_REACTORS
330
47
102
}
330
47
100
AcDbScale
 70
     0
300
1:100
140
1.0
141
100.0
290
     0
  0
SCALE
  5
54
102
{ACAD_REACTORS
330
47
102
}
330
47
100
AcDbScale
 70
     0
300
2:1
140
2.0
141
1.0
290
     0
  0
SCALE
  5
55
102
{ACAD_REACTORS
330
47
102
}
330
47
100
AcDbScale
 70
     0
300
4:1
140
4.0
141
1.0
290
     0
  0
SCALE
  5
56
102
{ACAD_REACTORS
330
47
102
}
330
47
100
AcDbScale
 70
     0
300
8:1
140
8.0
141
1.0
290
     0
  0
SCALE
  5
57
102
{ACAD_REACTORS
330
47
102
}
330
47
100
AcDbScale
 70
     0
300
10:1
140
10.0
141
1.0
290
     0
  0
SCALE
  5
58
102
{ACAD_REACTORS
330
47
102
}
330
47
100
AcDbScale
 70
     0
300
100:1
140
100.0
141
1.0
290
     0
  0
ENDSEC
  0
EOF
