  0
SECTION
  2
HEADER
  9
$ACADVER
  1
AC1015
  9
$ACADMAINTVER
 70
     6
  9
$DWGCODEPAGE
  3
DOS932
  9
$INSBASE
 10
0.0
 20
0.0
 30
0.0
  9
$EXTMIN
 10
0.0
 20
0.0
 30
0.0
  9
$EXTMAX
 10
2100.0
 20
2970.0
 30
0.0
  9
$LIMMIN
 10
0.0
 20
0.0
  9
$LIMMAX
 10
2100.0
 20
2970.0
  9
$ORTHOMODE
 70
     0
  9
$REGENMODE
 70
     1
  9
$FILLMODE
 70
     1
  9
$QTEXTMODE
 70
     0
  9
$MIRRTEXT
 70
     1
  9
$LTSCALE
 40
10.0
  9
$ATTMODE
 70
     1
  9
$TEXTSIZE
 40
35.2777777778
  9
$TRACEWID
 40
1.0
  9
$TEXTSTYLE
  7
Standard
  9
$CLAYER
  8
0
  9
$CELTYPE
  6
ByLayer
  9
$CECOLOR
 62
   256
  9
$CELTSCALE
 40
1.0
  9
$DISPSILH
 70
     0
  9
$DIMSCALE
 40
1.0
  9
$DIMASZ
 40
15.0
  9
$DIMEXO
 40
10.0
  9
$DIMDLI
 40
3.75
  9
$DIMRND
 40
0.0
  9
$DIMDLE
 40
0.0
  9
$DIMEXE
 40
10.0
  9
$DIMTP
 40
0.0
  9
$DIMTM
 40
0.0
  9
$DIMTXT
 40
35.2777777778
  9
$DIMCEN
 40
2.5
  9
$DIMTSZ
 40
0.0
  9
$DIMTOL
 70
     0
  9
$DIMLIM
 70
     0
  9
$DIMTIH
 70
     1
  9
$DIMTOH
 70
     1
  9
$DIMSE1
 70
     0
  9
$DIMSE2
 70
     0
  9
$DIMTAD
 70
     1
  9
$DIMZIN
 70
     0
  9
$DIMBLK
  1

  9
$DIMASO
 70
     1
  9
$DIMSHO
 70
     1
  9
$DIMPOST
  1

  9
$DIMAPOST
  1

  9
$DIMALT
 70
     0
  9
$DIMALTD
 70
     3
  9
$DIMALTF
 40
0.0393700787
  9
$DIMLFAC
 40
1.0
  9
$DIMTOFL
 70
     1
  9
$DIMTVP
 40
0.0
  9
$DIMTIX
 70
     0
  9
$DIMSOXD
 70
     0
  9
$DIMSAH
 70
     0
  9
$DIMBLK1
  1

  9
$DIMBLK2
  1

  9
$DIMSTYLE
  2
ISO-25
  9
$DIMCLRD
 70
     0
  9
$DIMCLRE
 70
     0
  9
$DIMCLRT
 70
     0
  9
$DIMTFAC
 40
1.0
  9
$DIMGAP
 40
15.24
  9
$DIMJUST
 70
     0
  9
$DIMSD1
 70
     0
  9
$DIMSD2
 70
     0
  9
$DIMTOLJ
 70
     0
  9
$DIMTZIN
 70
     0
  9
$DIMALTZ
 70
     0
  9
$DIMALTTZ
 70
     0
  9
$DIMUPT
 70
     0
  9
$DIMDEC
 70
     0
  9
$DIMTDEC
 70
     0
  9
$DIMALTU
 70
     2
  9
$DIMALTTD
 70
     3
  9
$DIMTXSTY
  7
Standard
  9
$DIMAUNIT
 70
     0
  9
$DIMADEC
 70
     2
  9
$DIMALTRND
 40
0.0
  9
$DIMAZIN
 70
     0
  9
$DIMDSEP
 70
    44
  9
$DIMATFIT
 70
     3
  9
$DIMFRAC
 70
     0
  9
$DIMLDRBLK
  1

  9
$DIMLUNIT
 70
     2
  9
$DIMLWD
 70
    -2
  9
$DIMLWE
 70
    -2
  9
$DIMTMOVE
 70
     0
  9
$LUNITS
 70
     2
  9
$LUPREC
 70
     2
  9
$SKETCHINC
 40
1.0
  9
$FILLETRAD
 40
0.0
  9
$AUNITS
 70
     0
  9
$AUPREC
 70
     2
  9
$MENU
  1
.
  9
$ELEVATION
 40
0.0
  9
$PELEVATION
 40
0.0
  9
$THICKNESS
 40
0.0
  9
$LIMCHECK
 70
     0
  9
$CHAMFERA
 40
0.0
  9
$CHAMFERB
 40
0.0
  9
$CHAMFERC
 40
0.0
  9
$CHAMFERD
 40
0.0
  9
$SKPOLY
 70
     0
  9
$TDCREATE
 40
2460115.621906493
  9
$TDUCREATE
 40
2460115.246906493
  9
$TDUPDATE
 40
2460115.621906921
  9
$TDUUPDATE
 40
2460115.246906921
  9
$TDINDWG
 40
0.0000000116
  9
$TDUSRTIMER
 40
0.0000000116
  9
$USRTIMER
 70
     1
  9
$ANGBASE
 50
0.0
  9
$ANGDIR
 70
     0
  9
$PDMODE
 70
     0
  9
$PDSIZE
 40
-1.0
  9
$PLINEWID
 40
0.0
  9
$SPLFRAME
 70
     0
  9
$SPLINETYPE
 70
     6
  9
$SPLINESEGS
 70
     8
  9
$HANDSEED
  5
224
  9
$SURFTAB1
 70
     6
  9
$SURFTAB2
 70
     6
  9
$SURFTYPE
 70
     6
  9
$SURFU
 70
     6
  9
$SURFV
 70
     6
  9
$UCSBASE
  2

  9
$UCSNAME
  2

  9
$UCSORG
 10
0.0
 20
0.0
 30
0.0
  9
$UCSXDIR
 10
1.0
 20
0.0
 30
0.0
  9
$UCSYDIR
 10
0.0
 20
1.0
 30
0.0
  9
$UCSORTHOREF
  2

  9
$UCSORTHOVIEW
 70
     0
  9
$UCSORGTOP
 10
0.0
 20
0.0
 30
0.0
  9
$UCSORGBOTTOM
 10
0.0
 20
0.0
 30
0.0
  9
$UCSORGLEFT
 10
0.0
 20
0.0
 30
0.0
  9
$UCSORGRIGHT
 10
0.0
 20
0.0
 30
0.0
  9
$UCSORGFRONT
 10
0.0
 20
0.0
 30
0.0
  9
$UCSORGBACK
 10
0.0
 20
0.0
 30
0.0
  9
$PUCSBASE
  2

  9
$PUCSNAME
  2

  9
$PUCSORG
 10
0.0
 20
0.0
 30
0.0
  9
$PUCSXDIR
 10
1.0
 20
0.0
 30
0.0
  9
$PUCSYDIR
 10
0.0
 20
1.0
 30
0.0
  9
$PUCSORTHOREF
  2

  9
$PUCSORTHOVIEW
 70
     0
  9
$PUCSORGTOP
 10
0.0
 20
0.0
 30
0.0
  9
$PUCSORGBOTTOM
 10
0.0
 20
0.0
 30
0.0
  9
$PUCSORGLEFT
 10
0.0
 20
0.0
 30
0.0
  9
$PUCSORGRIGHT
 10
0.0
 20
0.0
 30
0.0
  9
$PUCSORGFRONT
 10
0.0
 20
0.0
 30
0.0
  9
$PUCSORGBACK
 10
0.0
 20
0.0
 30
0.0
  9
$USERI1
 70
     0
  9
$USERI2
 70
     0
  9
$USERI3
 70
     0
  9
$USERI4
 70
     0
  9
$USERI5
 70
     0
  9
$USERR1
 40
0.0
  9
$USERR2
 40
0.0
  9
$USERR3
 40
0.0
  9
$USERR4
 40
0.0
  9
$USERR5
 40
0.0
  9
$WORLDVIEW
 70
     1
  9
$SHADEDGE
 70
     3
  9
$SHADEDIF
 70
    70
  9
$TILEMODE
 70
     1
  9
$MAXACTVP
 70
    64
  9
$PINSBASE
 10
0.0
 20
0.0
 30
0.0
  9
$PLIMCHECK
 70
     0
  9
$PEXTMIN
 10
1.0000000000E+20
 20
1.0000000000E+20
 30
1.0000000000E+20
  9
$PEXTMAX
 10
-1.0000000000E+20
 20
-1.0000000000E+20
 30
-1.0000000000E+20
  9
$PLIMMIN
 10
0.0
 20
0.0
  9
$PLIMMAX
 10
420.0
 20
297.0
  9
$UNITMODE
 70
     0
  9
$VISRETAIN
 70
     1
  9
$PLINEGEN
 70
     0
  9
$PSLTSCALE
 70
     1
  9
$TREEDEPTH
 70
  3020
  9
$CMLSTYLE
  2
Standard
  9
$CMLJUST
 70
     0
  9
$CMLSCALE
 40
20.0
  9
$PROXYGRAPHICS
 70
     1
  9
$MEASUREMENT
 70
     1
  9
$CELWEIGHT
370
    -1
  9
$ENDCAPS
280
     0
  9
$JOINSTYLE
280
     0
  9
$LWDISPLAY
290
     1
  9
$INSUNITS
 70
     4
  9
$HYPERLINKBASE
  1

  9
$STYLESHEET
  1

  9
$XEDIT
290
     1
  9
$CEPSNTYPE
380
     0
  9
$PSTYLEMODE
290
     1
  9
$FINGERPRINTGUID
  2
{13f1c365-1297-4f21-a8f4-e64854d50471}
  9
$VERSIONGUID
  2
{FAEB1C32-E019-11D5-929B-00C0DF256EC4}
  9
$EXTNAMES
290
     1
  9
$PSVPSCALE
 40
0.0
  9
$OLESTARTUP
290
     0
  0
ENDSEC
  0
SECTION
  2
CLASSES
  0
CLASS
  1
ACDBDICTIONARYWDFLT
  2
AcDbDictionaryWithDefault
  3
ObjectDBX Classes
 90
        0
280
     0
281
     0
  0
CLASS
  1
VISUALSTYLE
  2
AcDbVisualStyle
  3
ObjectDBX Classes
 90
     4095
280
     0
281
     0
  0
CLASS
  1
MATERIAL
  2
AcDbMaterial
  3
ObjectDBX Classes
 90
     1153
280
     0
281
     0
  0
CLASS
  1
SCALE
  2
AcDbScale
  3
ObjectDBX Classes
 90
     1153
280
     0
281
     0
  0
CLASS
  1
TABLESTYLE
  2
AcDbTableStyle
  3
ObjectDBX Classes
 90
     4095
280
     0
281
     0
  0
CLASS
  1
MLEADERSTYLE
  2
AcDbMLeaderStyle
  3
ACDB_MLEADERSTYLE_CLASS
 90
     4095
280
     0
281
     0
  0
CLASS
  1
SUN
  2
AcDbSun
  3
SCENEOE
 90
     1153
280
     0
281
     0
  0
CLASS
  1
ACDBPLACEHOLDER
  2
AcDbPlaceHolder
  3
ObjectDBX Classes
 90
        0
280
     0
281
     0
  0
CLASS
  1
LAYOUT
  2
AcDbLayout
  3
ObjectDBX Classes
 90
        0
280
     0
281
     0
  0
ENDSEC
  0
SECTION
  2
TABLES
  0
TABLE
  2
VPORT
  5
8
330
0
100
AcDbSymbolTable
 70
     1
  0
VPORT
  5
29
330
8
100
AcDbSymbolTableRecord
100
AcDbViewportTableRecord
  2
*Active
 70
     0
 10
0.0
 20
0.0
 11
1.0
 21
1.0
 12
1050.0
 22
1485.0
 13
0.0
 23
0.0
 14
10.0
 24
10.0
 15
10.0
 25
10.0
 16
0.0
 26
0.0
 36
1.0
 17
0.0
 27
0.0
 37
0.0
 40
2970.0
 41
0.7070707071
 42
50.0
 43
0.0
 44
0.0
 50
0.0
 51
0.0
 71
     0
 72
  2000
 73
     1
 74
     3
 75
     0
 76
     0
 77
     0
 78
     0
281
     0
 65
     1
110
0.0
120
0.0
130
0.0
111
1.0
121
0.0
131
0.0
112
0.0
122
1.0
132
0.0
 79
     0
146
0.0
  0
ENDTAB
  0
TABLE
  2
LTYPE
  5
5
330
0
100
AcDbSymbolTable
 70
     6
  0
LTYPE
  5
14
330
5
100
AcDbSymbolTableRecord
100
AcDbLinetypeTableRecord
  2
ByBlock
 70
     0
  3

 72
    65
 73
     0
 40
0.0
  0
LTYPE
  5
15
330
5
100
AcDbSymbolTableRecord
100
AcDbLinetypeTableRecord
  2
ByLayer
 70
     0
  3

 72
    65
 73
     0
 40
0.0
  0
LTYPE
  5
16
330
5
100
AcDbSymbolTableRecord
100
AcDbLinetypeTableRecord
  2
Continuous
 70
     0
  3
Solid line
 72
    65
 73
     0
 40
0.0
  0
LTYPE
  5
5E
330
5
100
AcDbSymbolTableRecord
100
AcDbLinetypeTableRecord
  2
HIDDEN
 70
     0
  3
Hidden __ __ __ __ __ __ __ __ __ __ __ __ __ __
 72
    65
 73
     2
 40
1.905
 49
1.27
 74
     0
 49
-0.635
 74
     0
  0
LTYPE
  5
5F
330
5
100
AcDbSymbolTableRecord
100
AcDbLinetypeTableRecord
  2
PHANTOM
 70
     0
  3
Phantom ______  __  __  ______  __  __  ______
 72
    65
 73
     6
 40
12.7
 49
6.35
 74
     0
 49
-1.27
 74
     0
 49
1.27
 74
     0
 49
-1.27
 74
     0
 49
1.27
 74
     0
 49
-1.27
 74
     0
  0
LTYPE
  5
60
330
5
100
AcDbSymbolTableRecord
100
AcDbLinetypeTableRecord
  2
CENTER
 70
     0
  3
Center ____ _ ____ _ ____ _ ____ _ ____ _ ____
 72
    65
 73
     4
 40
10.16
 49
6.35
 74
     0
 49
-1.27
 74
     0
 49
1.27
 74
     0
 49
-1.27
 74
     0
  0
LTYPE
  5
61
330
5
100
AcDbSymbolTableRecord
100
AcDbLinetypeTableRecord
  2
CENTERX2
 70
     0
  3
Center (2x) ________  __  ________  __  _____
 72
    65
 73
     4
 40
20.32
 49
12.7
 74
     0
 49
-2.54
 74
     0
 49
2.54
 74
     0
 49
-2.54
 74
     0
  0
LTYPE
  5
62
330
5
100
AcDbSymbolTableRecord
100
AcDbLinetypeTableRecord
  2
DOT2
 70
     0
  3
Dot (.5x) ........................................
 72
    65
 73
     2
 40
0.635
 49
0.0
 74
     0
 49
-0.635
 74
     0
  0
ENDTAB
  0
TABLE
  2
LAYER
  5
2
330
0
100
AcDbSymbolTable
 70
     6
  0
LAYER
  5
10
330
2
100
AcDbSymbolTableRecord
100
AcDbLayerTableRecord
  2
0
 70
     0
 62
     7
  6
Continuous
370
    -3
390
F
  0
LAYER
  5
63
330
2
100
AcDbSymbolTableRecord
100
AcDbLayerTableRecord
  2
1
 70
     0
 62
     4
  6
Continuous
370
    25
390
F
  0
LAYER
  5
64
330
2
100
AcDbSymbolTableRecord
100
AcDbLayerTableRecord
  2
2
 70
     0
 62
     3
  6
CENTERX2
370
    -3
390
F
  0
LAYER
  5
65
330
2
100
AcDbSymbolTableRecord
100
AcDbLayerTableRecord
  2
3
 70
     0
 62
     2
  6
Continuous
370
    -3
390
F
  0
LAYER
  5
66
330
2
100
AcDbSymbolTableRecord
100
AcDbLayerTableRecord
  2
4
 70
     0
 62
     7
  6
Continuous
370
    -3
390
F
  0
LAYER
  5
67
330
2
100
AcDbSymbolTableRecord
100
AcDbLayerTableRecord
  2
基礎穴
 70
     0
 62
     1
  6
PHANTOM
370
    35
390
F
  0
ENDTAB
  0
TABLE
  2
STYLE
  5
3
330
0
100
AcDbSymbolTable
 70
     2
  0
STYLE
  5
11
330
3
100
AcDbSymbolTableRecord
100
AcDbTextStyleTableRecord
  2
Standard
 70
     0
 40
0.0
 41
1.0
 50
0.0
 71
     0
 42
35.2777777778
  3
txt
  4
bigfont
  0
STYLE
  5
68
330
3
100
AcDbSymbolTableRecord
100
AcDbTextStyleTableRecord
  2
SLDTEXTSTYLE0
 70
     0
 40
0.0
 41
0.7
 50
0.0
 71
     0
 42
35.2777777778
  3
TXT
  4
bigfont
  0
ENDTAB
  0
TABLE
  2
VIEW
  5
6
330
0
100
AcDbSymbolTable
 70
     0
  0
ENDTAB
  0
TABLE
  2
UCS
  5
7
330
0
100
AcDbSymbolTable
 70
     0
  0
ENDTAB
  0
TABLE
  2
APPID
  5
9
330
0
100
AcDbSymbolTable
 70
     1
  0
APPID
  5
12
330
9
100
AcDbSymbolTableRecord
100
AcDbRegAppTableRecord
  2
ACAD
 70
     0
  0
ENDTAB
  0
TABLE
  2
DIMSTYLE
  5
A
330
0
100
AcDbSymbolTable
 70
     1
100
AcDbDimStyleTable
  0
DIMSTYLE
105
27
330
A
100
AcDbSymbolTableRecord
100
AcDbDimStyleTableRecord
  2
ISO-25
 70
     0
 41
2.5
 42
0.625
 43
3.75
 44
1.25
 73
     0
 74
     0
 77
     1
 78
     8
140
2.5
141
2.5
143
0.0393700787
147
0.625
171
     3
172
     1
178
     0
271
     2
272
     2
274
     3
278
    44
283
     0
284
     8
340
11
  0
ENDTAB
  0
TABLE
  2
BLOCK_RECORD
  5
1
330
0
100
AcDbSymbolTable
 70
     2
  0
BLOCK_RECORD
  5
1F
330
1
100
AcDbSymbolTableRecord
100
AcDbBlockTableRecord
  2
*Model_Space
340
22
  0
BLOCK_RECORD
  5
1B
330
1
100
AcDbSymbolTableRecord
100
AcDbBlockTableRecord
  2
*Paper_Space
340
1E
  0
BLOCK_RECORD
  5
23
330
1
100
AcDbSymbolTableRecord
100
AcDbBlockTableRecord
  2
*Paper_Space0
340
26
  0
BLOCK_RECORD
  5
D5
330
1
100
AcDbSymbolTableRecord
100
AcDbBlockTableRecord
  2
SW_CENTERMARKSYMBOL_0
340
0
102
{BLKREFS
331
E0
102
}
  0
ENDTAB
  0
ENDSEC
  0
SECTION
  2
BLOCKS
  0
BLOCK
  5
20
330
1F
100
AcDbEntity
  8
0
100
AcDbBlockBegin
  2
*Model_Space
 70
     0
 10
0.0
 20
0.0
 30
0.0
  3
*Model_Space
  1

  0
ENDBLK
  5
21
330
1F
100
AcDbEntity
  8
0
100
AcDbBlockEnd
  0
BLOCK
  5
1C
330
1B
100
AcDbEntity
 67
     1
  8
0
100
AcDbBlockBegin
  2
*Paper_Space
 70
     0
 10
0.0
 20
0.0
 30
0.0
  3
*Paper_Space
  1

  0
ENDBLK
  5
1D
330
1B
100
AcDbEntity
 67
     1
  8
0
100
AcDbBlockEnd
  0
BLOCK
  5
24
330
23
100
AcDbEntity
  8
0
100
AcDbBlockBegin
  2
*Paper_Space0
 70
     0
 10
0.0
 20
0.0
 30
0.0
  3
*Paper_Space0
  1

  0
ENDBLK
  5
25
330
23
100
AcDbEntity
  8
0
100
AcDbBlockEnd
  0
BLOCK
  5
D6
330
D5
100
AcDbEntity
  8
0
100
AcDbBlockBegin
  2
SW_CENTERMARKSYMBOL_0
 70
     0
 10
0.0
 20
0.0
 30
0.0
  3
SW_CENTERMARKSYMBOL_0
  1

  0
LINE
  5
D8
330
D5
100
AcDbEntity
  8
2
 62
     0
100
AcDbLine
 10
0.0
 20
0.0
 30
0.0
 11
0.0
 21
2.5
 31
0.0
  0
LINE
  5
D9
330
D5
100
AcDbEntity
  8
2
 62
     0
100
AcDbLine
 10
0.0
 20
0.0
 30
0.0
 11
-2.5
 21
0.0
 31
0.0
  0
LINE
  5
DA
330
D5
100
AcDbEntity
  8
2
 62
     0
100
AcDbLine
 10
0.0
 20
0.0
 30
0.0
 11
0.0
 21
-2.5
 31
0.0
  0
LINE
  5
DB
330
D5
100
AcDbEntity
  8
2
 62
     0
100
AcDbLine
 10
0.0
 20
0.0
 30
0.0
 11
2.5
 21
0.0
 31
0.0
  0
LINE
  5
DC
330
D5
100
AcDbEntity
  8
2
 62
     0
100
AcDbLine
 10
0.0
 20
5.0
 30
0.0
 11
0.0
 21
185.0
 31
0.0
  0
LINE
  5
DD
330
D5
100
AcDbEntity
  8
2
 62
     0
100
AcDbLine
 10
-5.0
 20
0.0
 30
0.0
 11
-185.0
 21
0.0
 31
0.0
  0
LINE
  5
DE
330
D5
100
AcDbEntity
  8
2
 62
     0
100
AcDbLine
 10
0.0
 20
-5.0
 30
0.0
 11
0.0
 21
-185.0
 31
0.0
  0
LINE
  5
DF
330
D5
100
AcDbEntity
  8
2
 62
     0
100
AcDbLine
 10
5.0
 20
0.0
 30
0.0
 11
185.0
 21
0.0
 31
0.0
  0
ENDBLK
  5
D7
330
D5
100
AcDbEntity
  8
0
100
AcDbBlockEnd
  0
ENDSEC
  0
SECTION
  2
ENTITIES
  0
MTEXT
  5
69
330
1F
100
AcDbEntity
  8
0
  6
Continuous
 62
     7
370
     0
100
AcDbMText
 10
1361.2368067065
 20
741.5699766077
 30
0.0
 40
26.4583333333
 41
0.0
 71
     1
 72
     1
  1
LL02040YS01K-L3
  7
SLDTEXTSTYLE0
 73
     1
 44
1.0
  0
LINE
  5
6A
330
1F
100
AcDbEntity
  8
1
100
AcDbLine
 10
1045.5907896735
 20
975.3025906736
 30
0.0
 11
1045.5907896735
 21
895.3025906736
 31
0.0
  0
LINE
  5
6B
330
1F
100
AcDbEntity
  8
1
100
AcDbLine
 10
1080.5907896735
 20
895.3025906736
 30
0.0
 11
1080.5907896735
 21
975.3025906736
 31
0.0
  0
LINE
  5
6C
330
1F
100
AcDbEntity
  8
1
100
AcDbLine
 10
225.5907896735
 20
975.3025906736
 30
0.0
 11
225.5907896735
 21
895.3025906736
 31
0.0
  0
LINE
  5
6D
330
1F
100
AcDbEntity
  8
1
100
AcDbLine
 10
260.5907896735
 20
895.3025906736
 30
0.0
 11
260.5907896735
 21
975.3025906736
 31
0.0
  0
LINE
  5
6E
330
1F
100
AcDbEntity
  8
1
100
AcDbLine
 10
585.5907896735
 20
1050.3025906736
 30
0.0
 11
585.5907896735
 21
1054.8025906736
 31
0.0
  0
LINE
  5
6F
330
1F
100
AcDbEntity
  8
1
100
AcDbLine
 10
1068.0907896735
 20
1594.8025906736
 30
0.0
 11
268.0907896735
 21
1594.8025906736
 31
0.0
  0
LINE
  5
70
330
1F
100
AcDbEntity
  8
1
100
AcDbLine
 10
1068.0907896735
 20
1054.8025906736
 30
0.0
 11
1068.0907896735
 21
1594.8025906736
 31
0.0
  0
LINE
  5
71
330
1F
100
AcDbEntity
  8
1
100
AcDbLine
 10
268.0907896735
 20
1054.8025906736
 30
0.0
 11
1068.0907896735
 21
1054.8025906736
 31
0.0
  0
LINE
  5
72
330
1F
100
AcDbEntity
  8
1
100
AcDbLine
 10
268.0907896735
 20
1594.8025906736
 30
0.0
 11
268.0907896735
 21
1054.8025906736
 31
0.0
  0
LINE
  5
73
330
1F
100
AcDbEntity
  8
1
100
AcDbLine
 10
1103.0907896736
 20
830.3025906736
 30
0.0
 11
203.0907896735
 21
830.3025906736
 31
0.0
  0
LINE
  5
74
330
1F
100
AcDbEntity
  8
1
100
AcDbLine
 10
203.0907896735
 20
830.3025906736
 30
0.0
 11
203.0907896735
 21
833.5025906736
 31
0.0
  0
LINE
  5
75
330
1F
100
AcDbEntity
  8
1
100
AcDbLine
 10
1103.0907896735
 20
833.5025906736
 30
0.0
 11
203.0907896735
 21
833.5025906736
 31
0.0
  0
LINE
  5
76
330
1F
100
AcDbEntity
  8
1
100
AcDbLine
 10
1103.0907896736
 20
830.3025906736
 30
0.0
 11
1103.0907896735
 21
833.5025906736
 31
0.0
  0
LINE
  5
77
330
1F
100
AcDbEntity
  8
1
100
AcDbLine
 10
203.0907896735
 20
895.3025906736
 30
0.0
 11
1103.0907896735
 21
895.3025906736
 31
0.0
  0
LINE
  5
78
330
1F
100
AcDbEntity
  8
1
100
AcDbLine
 10
1103.0907896735
 20
892.1025906736
 30
0.0
 11
1103.0907896735
 21
895.3025906736
 31
0.0
  0
LINE
  5
79
330
1F
100
AcDbEntity
  8
1
100
AcDbLine
 10
203.0907896735
 20
892.1025906736
 30
0.0
 11
1103.0907896735
 21
892.1025906736
 31
0.0
  0
LINE
  5
7A
330
1F
100
AcDbEntity
  8
1
100
AcDbLine
 10
203.0907896735
 20
892.1025906736
 30
0.0
 11
203.0907896735
 21
895.3025906736
 31
0.0
  0
LINE
  5
7B
330
1F
100
AcDbEntity
  8
1
100
AcDbLine
 10
239.8907896735
 20
833.5025906736
 30
0.0
 11
239.8907896735
 21
892.1025906736
 31
0.0
  0
LINE
  5
7C
330
1F
100
AcDbEntity
  8
1
100
AcDbLine
 10
1066.2907896735
 20
833.5025906736
 30
0.0
 11
1066.2907896735
 21
892.1025906736
 31
0.0
  0
LINE
  5
7D
330
1F
100
AcDbEntity
  8
1
100
AcDbLine
 10
233.0907896735
 20
1054.8025906736
 30
0.0
 11
268.0907896735
 21
1054.8025906736
 31
0.0
  0
LINE
  5
7E
330
1F
100
AcDbEntity
  8
1
100
AcDbLine
 10
333.0907896735
 20
1054.8025906736
 30
0.0
 11
333.0907896735
 21
1050.3025906736
 31
0.0
  0
LINE
  5
7F
330
1F
100
AcDbEntity
  8
1
100
AcDbLine
 10
233.0907896735
 20
1050.3025906736
 30
0.0
 11
333.0907896735
 21
1050.3025906736
 31
0.0
  0
LINE
  5
80
330
1F
100
AcDbEntity
  8
1
100
AcDbLine
 10
233.0907896735
 20
1054.8025906736
 30
0.0
 11
233.0907896735
 21
1050.3025906736
 31
0.0
  0
LINE
  5
81
330
1F
100
AcDbEntity
  8
1
100
AcDbLine
 10
1103.0907896735
 20
1054.8025906736
 30
0.0
 11
1103.0907896735
 21
1050.3025906736
 31
0.0
  0
LINE
  5
82
330
1F
100
AcDbEntity
  8
1
100
AcDbLine
 10
1068.0907896735
 20
1054.8025906736
 30
0.0
 11
1103.0907896735
 21
1054.8025906736
 31
0.0
  0
LINE
  5
83
330
1F
100
AcDbEntity
  8
1
100
AcDbLine
 10
1003.0907896735
 20
1050.3025906736
 30
0.0
 11
1103.0907896735
 21
1050.3025906736
 31
0.0
  0
LINE
  5
84
330
1F
100
AcDbEntity
  8
1
100
AcDbLine
 10
1003.0907896735
 20
1054.8025906736
 30
0.0
 11
1003.0907896735
 21
1050.3025906736
 31
0.0
  0
LINE
  5
85
330
1F
100
AcDbEntity
  8
1
100
AcDbLine
 10
203.0907896735
 20
1045.3025906736
 30
0.0
 11
1103.0907896735
 21
1045.3025906736
 31
0.0
  0
LINE
  5
86
330
1F
100
AcDbEntity
  8
1
100
AcDbLine
 10
203.0907896735
 20
1050.3025906736
 30
0.0
 11
203.0907896735
 21
1045.3025906736
 31
0.0
  0
LINE
  5
87
330
1F
100
AcDbEntity
  8
1
100
AcDbLine
 10
203.0907896735
 20
1050.3025906736
 30
0.0
 11
233.0907896735
 21
1050.3025906736
 31
0.0
  0
LINE
  5
88
330
1F
100
AcDbEntity
  8
1
100
AcDbLine
 10
333.0907896735
 20
1050.3025906736
 30
0.0
 11
1003.0907896735
 21
1050.3025906736
 31
0.0
  0
LINE
  5
89
330
1F
100
AcDbEntity
  8
1
100
AcDbLine
 10
1103.0907896735
 20
1050.3025906736
 30
0.0
 11
1103.0907896735
 21
1045.3025906736
 31
0.0
  0
LINE
  5
8A
330
1F
100
AcDbEntity
  8
1
100
AcDbLine
 10
1103.0907896735
 20
980.3025906736
 30
0.0
 11
1103.0907896735
 21
975.3025906736
 31
0.0
  0
LINE
  5
8B
330
1F
100
AcDbEntity
  8
1
100
AcDbLine
 10
203.0907896735
 20
980.3025906736
 30
0.0
 11
203.0907896735
 21
975.3025906736
 31
0.0
  0
LINE
  5
8C
330
1F
100
AcDbEntity
  8
1
100
AcDbLine
 10
203.0907896735
 20
980.3025906736
 30
0.0
 11
1103.0907896735
 21
980.3025906736
 31
0.0
  0
LINE
  5
8D
330
1F
100
AcDbEntity
  8
1
100
AcDbLine
 10
203.0907896735
 20
975.3025906736
 30
0.0
 11
1103.0907896735
 21
975.3025906736
 31
0.0
  0
LINE
  5
8E
330
1F
100
AcDbEntity
  8
1
100
AcDbLine
 10
1068.0907896735
 20
1045.3025906736
 30
0.0
 11
1068.0907896735
 21
980.3025906736
 31
0.0
  0
LINE
  5
8F
330
1F
100
AcDbEntity
  8
1
100
AcDbLine
 10
238.0907896735
 20
1045.3025906736
 30
0.0
 11
238.0907896735
 21
980.3025906736
 31
0.0
  0
LINE
  5
90
330
1F
100
AcDbEntity
  8
1
100
AcDbLine
 10
1133.0907896735
 20
1036.8025906736
 30
0.0
 11
1136.0907896735
 21
1036.8025906736
 31
0.0
  0
LINE
  5
91
330
1F
100
AcDbEntity
  8
1
100
AcDbLine
 10
1133.0907896735
 20
1036.8025906736
 30
0.0
 11
1133.0907896735
 21
1416.8025906736
 31
0.0
  0
LINE
  5
92
330
1F
100
AcDbEntity
  8
1
100
AcDbLine
 10
1133.0907896735
 20
1416.8025906736
 30
0.0
 11
1136.0907896735
 21
1416.8025906736
 31
0.0
  0
LINE
  5
93
330
1F
100
AcDbEntity
  8
1
100
AcDbLine
 10
1136.0907896735
 20
1036.8025906736
 30
0.0
 11
1136.0907896735
 21
1416.8025906736
 31
0.0
  0
LINE
  5
94
330
1F
100
AcDbEntity
  8
1
100
AcDbLine
 10
1133.0907896735
 20
1063.4577876872
 30
0.0
 11
1068.0907896735
 21
1071.3444044527
 31
0.0
  0
ARC
  5
95
330
1F
100
AcDbEntity
  8
1
100
AcDbCircle
 10
867.0907896735
 20
1391.3025906736
 30
0.0
 40
251.2000000000005
100
AcDbArc
 50
90.0
 51
125.8931767255
  0
LINE
  5
96
330
1F
100
AcDbEntity
  8
1
100
AcDbLine
 10
867.0907896735
 20
1642.5025906736
 30
0.0
 11
872.5907896735
 21
1642.5025906736
 31
0.0
  0
ARC
  5
97
330
1F
100
AcDbEntity
  8
1
100
AcDbCircle
 10
872.5907896735
 20
1433.8025906736
 30
0.0
 40
208.7000000000003
100
AcDbArc
 50
50.4835799244
 51
90.0
  0
ARC
  5
98
330
1F
100
AcDbEntity
  8
1
100
AcDbCircle
 10
872.5907896735
 20
1433.8025906736
 30
0.0
 40
208.7000000000006
100
AcDbArc
 50
0.0
 51
20.4870502558
  0
LINE
  5
99
330
1F
100
AcDbEntity
  8
1
100
AcDbLine
 10
1081.2907896735
 20
1433.8025906736
 30
0.0
 11
1081.2907896735
 21
1390.5025906736
 31
0.0
  0
LINE
  5
9A
330
1F
100
AcDbEntity
  8
1
100
AcDbLine
 10
1081.2907896735
 20
1390.5025906736
 30
0.0
 11
1133.0907896735
 21
1390.5025906736
 31
0.0
  0
CIRCLE
  5
9B
330
1F
100
AcDbEntity
  8
0
  6
HIDDEN
 62
     7
370
    18
100
AcDbCircle
 10
443.0907896735
 20
1202.3025906736
 30
0.0
 40
13.99999999999994
  0
ARC
  5
9C
330
1F
100
AcDbEntity
  8
0
  6
HIDDEN
 62
     7
370
    18
100
AcDbCircle
 10
443.0907896735
 20
1202.3025906736
 30
0.0
 40
121.5
100
AcDbArc
 50
298.8696782224
 51
241.1303217776
  0
LINE
  5
9D
330
1F
100
AcDbEntity
  8
0
  6
HIDDEN
 62
     7
370
    18
100
AcDbLine
 10
501.7532989959
 20
1095.9025906736
 30
0.0
 11
384.4282803511
 21
1095.9025906736
 31
0.0
  0
LINE
  5
9E
330
1F
100
AcDbEntity
  8
0
  6
HIDDEN
 62
     7
370
    18
100
AcDbLine
 10
585.5907896735
 20
1090.3025906736
 30
0.0
 11
300.5907896735
 21
1090.3025906736
 31
0.0
  0
LINE
  5
9F
330
1F
100
AcDbEntity
  8
0
  6
HIDDEN
 62
     7
370
    18
100
AcDbLine
 10
585.5907896735
 20
1054.8025906736
 30
0.0
 11
585.5907896735
 21
1090.3025906736
 31
0.0
  0
LINE
  5
A0
330
1F
100
AcDbEntity
  8
0
  6
HIDDEN
 62
     7
370
    18
100
AcDbLine
 10
300.5907896735
 20
1050.3025906736
 30
0.0
 11
300.5907896735
 21
1090.3025906736
 31
0.0
  0
LINE
  5
A1
330
1F
100
AcDbEntity
  8
0
  6
HIDDEN
 62
     7
370
    18
100
AcDbLine
 10
527.0907896735
 20
1101.5025906736
 30
0.0
 11
510.9259575439
 21
1101.5025906736
 31
0.0
  0
LINE
  5
A2
330
1F
100
AcDbEntity
  8
0
  6
HIDDEN
 62
     7
370
    18
100
AcDbLine
 10
527.0907896735
 20
1090.3025906736
 30
0.0
 11
527.0907896735
 21
1101.5025906736
 31
0.0
  0
LINE
  5
A3
330
1F
100
AcDbEntity
  8
0
  6
HIDDEN
 62
     7
370
    18
100
AcDbLine
 10
359.0907896735
 20
1101.5025906736
 30
0.0
 11
359.0907896735
 21
1090.3025906736
 31
0.0
  0
LINE
  5
A4
330
1F
100
AcDbEntity
  8
0
  6
HIDDEN
 62
     7
370
    18
100
AcDbLine
 10
375.2556218032
 20
1101.5025906736
 30
0.0
 11
359.0907896735
 21
1101.5025906736
 31
0.0
  0
CIRCLE
  5
A5
330
1F
100
AcDbEntity
  8
0
  6
HIDDEN
 62
     7
370
    18
100
AcDbCircle
 10
891.0907896735
 20
1415.3025906736
 30
0.0
 40
74.99999999999987
  0
CIRCLE
  5
A6
330
1F
100
AcDbEntity
  8
0
  6
HIDDEN
 62
     7
370
    18
100
AcDbCircle
 10
443.0907896735
 20
1202.3025906736
 30
0.0
 40
75.00000000000001
  0
LINE
  5
A7
330
1F
100
AcDbEntity
  8
0
  6
HIDDEN
 62
     7
370
    18
100
AcDbLine
 10
1063.0907896735
 20
830.3025906736
 30
0.0
 11
1063.0907896735
 21
895.3025906736
 31
0.0
  0
LINE
  5
A8
330
1F
100
AcDbEntity
  8
0
  6
HIDDEN
 62
     7
370
    18
100
AcDbLine
 10
243.0907896735
 20
830.3025906736
 30
0.0
 11
243.0907896735
 21
895.3025906736
 31
0.0
  0
LINE
  5
A9
330
1F
100
AcDbEntity
  8
0
  6
HIDDEN
 62
     7
370
    18
100
AcDbLine
 10
243.0907896735
 20
1050.3025906736
 30
0.0
 11
243.0907896735
 21
975.3025906736
 31
0.0
  0
LINE
  5
AA
330
1F
100
AcDbEntity
  8
0
  6
HIDDEN
 62
     7
370
    18
100
AcDbLine
 10
1063.0907896735
 20
1050.3025906736
 30
0.0
 11
1063.0907896735
 21
975.3025906736
 31
0.0
  0
LINE
  5
AB
330
1F
100
AcDbEntity
  8
0
  6
HIDDEN
 62
     7
370
    18
100
AcDbLine
 10
1068.0907896735
 20
1071.3444044527
 30
0.0
 11
879.0523881685
 21
1094.2809187084
 31
0.0
  0
ARC
  5
AC
330
1F
100
AcDbEntity
  8
0
  6
HIDDEN
 62
     7
370
    18
100
AcDbCircle
 10
915.0907896735
 20
1391.3025906736
 30
0.0
 40
299.2000000000006
100
AcDbArc
 50
180.0
 51
263.0819719458
  0
ARC
  5
AD
330
1F
100
AcDbEntity
  8
0
  6
HIDDEN
 62
     7
370
    18
100
AcDbCircle
 10
867.0907896735
 20
1391.3025906736
 30
0.0
 40
251.2000000000006
100
AcDbArc
 50
125.8931767255
 51
180.0
  0
ARC
  5
AE
330
1F
100
AcDbEntity
  8
0
  6
HIDDEN
 62
     7
370
    18
100
AcDbCircle
 10
872.5907896735
 20
1433.8025906736
 30
0.0
 40
208.6999999999999
100
AcDbArc
 50
20.4870502558
 51
50.4835799244
  0
ARC
  5
AF
330
1F
100
AcDbEntity
  8
0
  6
HIDDEN
 62
     7
370
    18
100
AcDbCircle
 10
915.0907896735
 20
1391.3025906736
 30
0.0
 40
298.0000000000005
100
AcDbArc
 50
180.0
 51
263.0819719458
  0
ARC
  5
B0
330
1F
100
AcDbEntity
  8
0
  6
HIDDEN
 62
     7
370
    18
100
AcDbCircle
 10
867.0907896735
 20
1391.3025906736
 30
0.0
 40
250.0000000000007
100
AcDbArc
 50
90.0
 51
180.0
  0
LINE
  5
B1
330
1F
100
AcDbEntity
  8
0
  6
HIDDEN
 62
     7
370
    18
100
AcDbLine
 10
1080.0907896735
 20
1389.3025906736
 30
0.0
 11
1136.0907896735
 21
1389.3025906736
 31
0.0
  0
LINE
  5
B2
330
1F
100
AcDbEntity
  8
0
  6
HIDDEN
 62
     7
370
    18
100
AcDbLine
 10
1080.0907896735
 20
1433.8025906736
 30
0.0
 11
1080.0907896735
 21
1389.3025906736
 31
0.0
  0
ARC
  5
B3
330
1F
100
AcDbEntity
  8
0
  6
HIDDEN
 62
     7
370
    18
100
AcDbCircle
 10
872.5907896735
 20
1433.8025906736
 30
0.0
 40
207.5000000000005
100
AcDbArc
 50
0.0
 51
90.0
  0
LINE
  5
B4
330
1F
100
AcDbEntity
  8
0
  6
HIDDEN
 62
     7
370
    18
100
AcDbLine
 10
867.0907896735
 20
1641.3025906736
 30
0.0
 11
872.5907896735
 21
1641.3025906736
 31
0.0
  0
LINE
  5
B5
330
1F
100
AcDbEntity
  8
0
  6
HIDDEN
 62
     7
370
    18
100
AcDbLine
 10
1136.0907896735
 20
1064.3025906736
 30
0.0
 11
879.196927212
 21
1095.4721820987
 31
0.0
  0
CIRCLE
  5
B6
330
1F
100
AcDbEntity
  8
0
  6
HIDDEN
 62
     7
370
    18
100
AcDbCircle
 10
891.0907896735
 20
1415.3025906736
 30
0.0
 40
157.5000000000002
  0
CIRCLE
  5
B7
330
1F
100
AcDbEntity
  8
0
  6
HIDDEN
 62
     7
370
    18
100
AcDbCircle
 10
891.0907896735
 20
1415.3025906736
 30
0.0
 40
182.5000000000003
  0
CIRCLE
  5
B8
330
1F
100
AcDbEntity
  8
0
  6
HIDDEN
 62
     7
370
    18
100
AcDbCircle
 10
891.0907896735
 20
1415.3025906736
 30
0.0
 40
159.8000000000002
  0
CIRCLE
  5
B9
330
1F
100
AcDbEntity
  8
0
  6
HIDDEN
 62
     7
370
    18
100
AcDbCircle
 10
1013.0667094282
 20
1293.3266709189
 30
0.0
 40
3.999999999999886
  0
CIRCLE
  5
BA
330
1F
100
AcDbEntity
  8
0
  6
HIDDEN
 62
     7
370
    18
100
AcDbCircle
 10
1057.7129947084
 20
1370.6563053934
 30
0.0
 40
4.0
  0
CIRCLE
  5
BB
330
1F
100
AcDbEntity
  8
0
  6
HIDDEN
 62
     7
370
    18
100
AcDbCircle
 10
1013.0667094282
 20
1537.2785104283
 30
0.0
 40
3.999999999999886
  0
CIRCLE
  5
BC
330
1F
100
AcDbEntity
  8
0
  6
HIDDEN
 62
     7
370
    18
100
AcDbCircle
 10
935.7370749537
 20
1581.9247957084
 30
0.0
 40
4.0
  0
CIRCLE
  5
BD
330
1F
100
AcDbEntity
  8
0
  6
HIDDEN
 62
     7
370
    18
100
AcDbCircle
 10
846.4445043933
 20
1581.9247957084
 30
0.0
 40
4.000000000000114
  0
CIRCLE
  5
BE
330
1F
100
AcDbEntity
  8
0
  6
HIDDEN
 62
     7
370
    18
100
AcDbCircle
 10
769.1148699188
 20
1537.2785104283
 30
0.0
 40
4.000000000000114
  0
CIRCLE
  5
BF
330
1F
100
AcDbEntity
  8
0
  6
HIDDEN
 62
     7
370
    18
100
AcDbCircle
 10
724.4685846387
 20
1370.6563053934
 30
0.0
 40
4.0
  0
CIRCLE
  5
C0
330
1F
100
AcDbEntity
  8
0
  6
HIDDEN
 62
     7
370
    18
100
AcDbCircle
 10
769.1148699188
 20
1293.3266709189
 30
0.0
 40
4.0
  0
CIRCLE
  5
C1
330
1F
100
AcDbEntity
  8
0
  6
HIDDEN
 62
     7
370
    18
100
AcDbCircle
 10
846.4445043933
 20
1248.6803856387
 30
0.0
 40
4.0
  0
CIRCLE
  5
C2
330
1F
100
AcDbEntity
  8
0
  6
HIDDEN
 62
     7
370
    18
100
AcDbCircle
 10
935.7370749537
 20
1248.6803856387
 30
0.0
 40
4.0
  0
CIRCLE
  5
C3
330
1F
100
AcDbEntity
  8
0
  6
HIDDEN
 62
     7
370
    18
100
AcDbCircle
 10
724.4685846387
 20
1459.9488759538
 30
0.0
 40
3.999999999999886
  0
CIRCLE
  5
C4
330
1F
100
AcDbEntity
  8
0
  6
HIDDEN
 62
     7
370
    18
100
AcDbCircle
 10
1057.7129947084
 20
1459.9488759538
 30
0.0
 40
4.0
  0
LINE
  5
C5
330
1F
100
AcDbEntity
  8
0
  6
HIDDEN
 62
     7
370
    18
100
AcDbLine
 10
259.0907896735
 20
830.3025906736
 30
0.0
 11
259.0907896735
 21
833.5025906736
 31
0.0
  0
LINE
  5
C6
330
1F
100
AcDbEntity
  8
0
  6
HIDDEN
 62
     7
370
    18
100
AcDbLine
 10
247.0907896735
 20
833.5025906736
 30
0.0
 11
247.0907896735
 21
830.3025906736
 31
0.0
  0
LINE
  5
C7
330
1F
100
AcDbEntity
  8
0
  6
HIDDEN
 62
     7
370
    18
100
AcDbLine
 10
659.0907896735
 20
830.3025906736
 30
0.0
 11
659.0907896735
 21
833.5025906736
 31
0.0
  0
LINE
  5
C8
330
1F
100
AcDbEntity
  8
0
  6
HIDDEN
 62
     7
370
    18
100
AcDbLine
 10
647.0907896735
 20
833.5025906736
 30
0.0
 11
647.0907896735
 21
830.3025906736
 31
0.0
  0
LINE
  5
C9
330
1F
100
AcDbEntity
  8
0
  6
HIDDEN
 62
     7
370
    18
100
AcDbLine
 10
1059.0907896735
 20
830.3025906736
 30
0.0
 11
1059.0907896735
 21
833.5025906736
 31
0.0
  0
LINE
  5
CA
330
1F
100
AcDbEntity
  8
0
  6
HIDDEN
 62
     7
370
    18
100
AcDbLine
 10
1047.0907896735
 20
833.5025906736
 30
0.0
 11
1047.0907896735
 21
830.3025906736
 31
0.0
  0
LINE
  5
CB
330
1F
100
AcDbEntity
  8
0
  6
HIDDEN
 62
     7
370
    18
100
AcDbLine
 10
1136.0907896735
 20
1130.8025906736
 30
0.0
 11
1133.0907896735
 21
1130.8025906736
 31
0.0
  0
LINE
  5
CC
330
1F
100
AcDbEntity
  8
0
  6
HIDDEN
 62
     7
370
    18
100
AcDbLine
 10
1133.0907896735
 20
1122.8025906736
 30
0.0
 11
1136.0907896735
 21
1122.8025906736
 31
0.0
  0
LINE
  5
CD
330
1F
100
AcDbEntity
  8
0
  6
HIDDEN
 62
     7
370
    18
100
AcDbLine
 10
1136.0907896735
 20
1050.8025906736
 30
0.0
 11
1133.0907896735
 21
1050.8025906736
 31
0.0
  0
LINE
  5
CE
330
1F
100
AcDbEntity
  8
0
  6
HIDDEN
 62
     7
370
    18
100
AcDbLine
 10
1133.0907896735
 20
1042.8025906736
 30
0.0
 11
1136.0907896735
 21
1042.8025906736
 31
0.0
  0
LINE
  5
CF
330
1F
100
AcDbEntity
  8
0
  6
HIDDEN
 62
     7
370
    18
100
AcDbLine
 10
1136.0907896735
 20
1330.8025906736
 30
0.0
 11
1133.0907896735
 21
1330.8025906736
 31
0.0
  0
LINE
  5
D0
330
1F
100
AcDbEntity
  8
0
  6
HIDDEN
 62
     7
370
    18
100
AcDbLine
 10
1133.0907896735
 20
1322.8025906736
 30
0.0
 11
1136.0907896735
 21
1322.8025906736
 31
0.0
  0
LINE
  5
D1
330
1F
100
AcDbEntity
  8
0
  6
HIDDEN
 62
     7
370
    18
100
AcDbLine
 10
1136.0907896735
 20
1230.8025906736
 30
0.0
 11
1133.0907896735
 21
1230.8025906736
 31
0.0
  0
LINE
  5
D2
330
1F
100
AcDbEntity
  8
0
  6
HIDDEN
 62
     7
370
    18
100
AcDbLine
 10
1133.0907896735
 20
1222.8025906736
 30
0.0
 11
1136.0907896735
 21
1222.8025906736
 31
0.0
  0
LINE
  5
D3
330
1F
100
AcDbEntity
  8
0
  6
HIDDEN
 62
     7
370
    18
100
AcDbLine
 10
1136.0907896735
 20
1410.8025906736
 30
0.0
 11
1133.0907896735
 21
1410.8025906736
 31
0.0
  0
LINE
  5
D4
330
1F
100
AcDbEntity
  8
0
  6
HIDDEN
 62
     7
370
    18
100
AcDbLine
 10
1133.0907896735
 20
1402.8025906736
 30
0.0
 11
1136.0907896735
 21
1402.8025906736
 31
0.0
  0
INSERT
  5
E0
330
1F
100
AcDbEntity
  8
2
100
AcDbBlockReference
  2
SW_CENTERMARKSYMBOL_0
 10
891.0907896735
 20
1415.3025906736
 30
0.0
  0
LINE
  5
E1
330
1F
100
AcDbEntity
  8
1
100
AcDbLine
 10
1549.4743648188
 20
1323.8025906736
 30
0.0
 11
1544.1828621967
 21
1323.8025906736
 31
0.0
  0
LINE
  5
E2
330
1F
100
AcDbEntity
  8
1
100
AcDbLine
 10
1536.8286135077
 20
1323.8025906736
 30
0.0
 11
1480.3286135077
 21
1323.8025906736
 31
0.0
  0
LINE
  5
E3
330
1F
100
AcDbEntity
  8
1
100
AcDbLine
 10
1443.8286135077
 20
1188.3025906736
 30
0.0
 11
1480.3286135077
 21
1188.3025906736
 31
0.0
  0
LINE
  5
E4
330
1F
100
AcDbEntity
  8
1
100
AcDbLine
 10
1480.3286135077
 20
1216.3025906736
 30
0.0
 11
1443.8286135077
 21
1216.3025906736
 31
0.0
  0
LINE
  5
E5
330
1F
100
AcDbEntity
  8
1
100
AcDbLine
 10
1804.3286135077
 20
975.3025906736
 30
0.0
 11
1804.3286135077
 21
895.3025906736
 31
0.0
  0
LINE
  5
E6
330
1F
100
AcDbEntity
  8
1
100
AcDbLine
 10
1839.3286135077
 20
895.3025906736
 30
0.0
 11
1839.3286135077
 21
975.3025906736
 31
0.0
  0
LINE
  5
E7
330
1F
100
AcDbEntity
  8
1
100
AcDbLine
 10
1444.3286135077
 20
975.3025906736
 30
0.0
 11
1444.3286135077
 21
895.3025906736
 31
0.0
  0
LINE
  5
E8
330
1F
100
AcDbEntity
  8
1
100
AcDbLine
 10
1479.3286135077
 20
895.3025906736
 30
0.0
 11
1479.3286135077
 21
975.3025906736
 31
0.0
  0
LINE
  5
E9
330
1F
100
AcDbEntity
  8
1
100
AcDbLine
 10
1853.8286135077
 20
1597.8025906736
 30
0.0
 11
1851.5286135077
 21
1597.8025906736
 31
0.0
  0
LINE
  5
EA
330
1F
100
AcDbEntity
  8
1
100
AcDbLine
 10
1851.5286135077
 20
1232.8025906736
 30
0.0
 11
1853.8286135077
 21
1232.8025906736
 31
0.0
  0
LINE
  5
EB
330
1F
100
AcDbEntity
  8
1
100
AcDbLine
 10
1802.8286135077
 20
1597.8025906736
 30
0.0
 11
1801.4286135077
 21
1597.8025906736
 31
0.0
  0
LINE
  5
EC
330
1F
100
AcDbEntity
  8
1
100
AcDbLine
 10
1851.5286135077
 20
1575.1025906736
 30
0.0
 11
1802.8286135077
 21
1575.1025906736
 31
0.0
  0
LINE
  5
ED
330
1F
100
AcDbEntity
  8
1
100
AcDbLine
 10
1826.8286135077
 20
1255.5025906736
 30
0.0
 11
1851.5286135077
 21
1255.5025906736
 31
0.0
  0
LINE
  5
EE
330
1F
100
AcDbEntity
  8
1
100
AcDbLine
 10
1490.3286135077
 20
1050.3025906736
 30
0.0
 11
1490.3286135077
 21
1090.3025906736
 31
0.0
  0
LINE
  5
EF
330
1F
100
AcDbEntity
  8
1
100
AcDbLine
 10
1536.8286135077
 20
1090.3025906736
 30
0.0
 11
1490.3286135077
 21
1090.3025906736
 31
0.0
  0
LINE
  5
F0
330
1F
100
AcDbEntity
  8
1
100
AcDbLine
 10
1510.3286135077
 20
1095.9025906736
 30
0.0
 11
1480.3286135077
 21
1095.9025906736
 31
0.0
  0
LINE
  5
F1
330
1F
100
AcDbEntity
  8
1
100
AcDbLine
 10
1480.3286135077
 20
1323.8025906736
 30
0.0
 11
1480.3286135077
 21
1095.9025906736
 31
0.0
  0
LINE
  5
F2
330
1F
100
AcDbEntity
  8
1
100
AcDbLine
 10
1510.3286135077
 20
1090.3025906736
 30
0.0
 11
1510.3286135077
 21
1101.5025906736
 31
0.0
  0
LINE
  5
F3
330
1F
100
AcDbEntity
  8
1
100
AcDbLine
 10
1510.3286135077
 20
1101.5025906736
 30
0.0
 11
1536.8286135077
 21
1101.5025906736
 31
0.0
  0
LINE
  5
F4
330
1F
100
AcDbEntity
  8
1
100
AcDbLine
 10
1321.8286135077
 20
1054.8025906736
 30
0.0
 11
1321.8286135077
 21
1594.8025906736
 31
0.0
  0
LINE
  5
F5
330
1F
100
AcDbEntity
  8
1
100
AcDbLine
 10
1443.8286135077
 20
1054.8025906736
 30
0.0
 11
1443.8286135077
 21
1594.8025906736
 31
0.0
  0
LINE
  5
F6
330
1F
100
AcDbEntity
  8
1
100
AcDbLine
 10
1321.8286135077
 20
1054.8025906736
 30
0.0
 11
1341.8286135077
 21
1054.8025906736
 31
0.0
  0
LINE
  5
F7
330
1F
100
AcDbEntity
  8
1
100
AcDbLine
 10
1321.8286135077
 20
1594.8025906736
 30
0.0
 11
1443.8286135077
 21
1594.8025906736
 31
0.0
  0
LINE
  5
F8
330
1F
100
AcDbEntity
  8
1
100
AcDbLine
 10
1441.8286135077
 20
895.3025906736
 30
0.0
 11
1841.8286135077
 21
895.3025906736
 31
0.0
  0
LINE
  5
F9
330
1F
100
AcDbEntity
  8
1
100
AcDbLine
 10
1841.8286135077
 20
892.1025906736
 30
0.0
 11
1841.8286135077
 21
895.3025906736
 31
0.0
  0
LINE
  5
FA
330
1F
100
AcDbEntity
  8
1
100
AcDbLine
 10
1441.8286135077
 20
892.1025906736
 30
0.0
 11
1841.8286135077
 21
892.1025906736
 31
0.0
  0
LINE
  5
FB
330
1F
100
AcDbEntity
  8
1
100
AcDbLine
 10
1441.8286135077
 20
892.1025906736
 30
0.0
 11
1441.8286135077
 21
895.3025906736
 31
0.0
  0
LINE
  5
FC
330
1F
100
AcDbEntity
  8
1
100
AcDbLine
 10
1441.8286135077
 20
830.3025906736
 30
0.0
 11
1441.8286135077
 21
833.5025906736
 31
0.0
  0
LINE
  5
FD
330
1F
100
AcDbEntity
  8
1
100
AcDbLine
 10
1841.8286135077
 20
833.5025906736
 30
0.0
 11
1441.8286135077
 21
833.5025906736
 31
0.0
  0
LINE
  5
FE
330
1F
100
AcDbEntity
  8
1
100
AcDbLine
 10
1841.8286135077
 20
830.3025906736
 30
0.0
 11
1841.8286135077
 21
833.5025906736
 31
0.0
  0
LINE
  5
FF
330
1F
100
AcDbEntity
  8
1
100
AcDbLine
 10
1841.8286135077
 20
830.3025906736
 30
0.0
 11
1441.8286135077
 21
830.3025906736
 31
0.0
  0
LINE
  5
100
330
1F
100
AcDbEntity
  8
1
100
AcDbLine
 10
1478.6286135078
 20
833.5025906736
 30
0.0
 11
1478.6286135078
 21
892.1025906736
 31
0.0
  0
LINE
  5
101
330
1F
100
AcDbEntity
  8
1
100
AcDbLine
 10
1805.0286135077
 20
833.5025906736
 30
0.0
 11
1805.0286135077
 21
892.1025906736
 31
0.0
  0
LINE
  5
102
330
1F
100
AcDbEntity
  8
1
100
AcDbLine
 10
1341.8286135077
 20
1050.3025906736
 30
0.0
 11
1441.8286135077
 21
1050.3025906736
 31
0.0
  0
LINE
  5
103
330
1F
100
AcDbEntity
  8
1
100
AcDbLine
 10
1341.8286135077
 20
1054.8025906736
 30
0.0
 11
1341.8286135077
 21
1050.3025906736
 31
0.0
  0
LINE
  5
104
330
1F
100
AcDbEntity
  8
1
100
AcDbLine
 10
1341.8286135077
 20
1054.8025906736
 30
0.0
 11
1471.8286135077
 21
1054.8025906736
 31
0.0
  0
LINE
  5
105
330
1F
100
AcDbEntity
  8
1
100
AcDbLine
 10
1471.8286135077
 20
1054.8025906736
 30
0.0
 11
1471.8286135077
 21
1050.3025906736
 31
0.0
  0
LINE
  5
106
330
1F
100
AcDbEntity
  8
1
100
AcDbLine
 10
1471.8286135077
 20
1050.3025906736
 30
0.0
 11
1536.8286135077
 21
1050.3025906736
 31
0.0
  0
LINE
  5
107
330
1F
100
AcDbEntity
  8
1
100
AcDbLine
 10
1544.8921218346
 20
1050.3025906736
 30
0.0
 11
1548.7651051808
 21
1050.3025906736
 31
0.0
  0
LINE
  5
108
330
1F
100
AcDbEntity
  8
1
100
AcDbLine
 10
1629.8921218346
 20
1050.3025906736
 30
0.0
 11
1633.7651051808
 21
1050.3025906736
 31
0.0
  0
LINE
  5
109
330
1F
100
AcDbEntity
  8
1
100
AcDbLine
 10
1729.8921218346
 20
1050.3025906736
 30
0.0
 11
1733.7651051808
 21
1050.3025906736
 31
0.0
  0
LINE
  5
10A
330
1F
100
AcDbEntity
  8
1
100
AcDbLine
 10
1814.8921218346
 20
1050.3025906736
 30
0.0
 11
1818.7651051808
 21
1050.3025906736
 31
0.0
  0
LINE
  5
10B
330
1F
100
AcDbEntity
  8
1
100
AcDbLine
 10
1826.8286135077
 20
1050.3025906736
 30
0.0
 11
1841.8286135077
 21
1050.3025906736
 31
0.0
  0
LINE
  5
10C
330
1F
100
AcDbEntity
  8
1
100
AcDbLine
 10
1841.8286135077
 20
1050.3025906736
 30
0.0
 11
1841.8286135077
 21
1045.3025906736
 31
0.0
  0
LINE
  5
10D
330
1F
100
AcDbEntity
  8
1
100
AcDbLine
 10
1441.8286135077
 20
1045.3025906736
 30
0.0
 11
1536.8286135077
 21
1045.3025906736
 31
0.0
  0
LINE
  5
10E
330
1F
100
AcDbEntity
  8
1
100
AcDbLine
 10
1543.1205142642
 20
1045.3025906736
 30
0.0
 11
1550.5367127513
 21
1045.3025906736
 31
0.0
  0
LINE
  5
10F
330
1F
100
AcDbEntity
  8
1
100
AcDbLine
 10
1628.1205142642
 20
1045.3025906736
 30
0.0
 11
1635.5367127513
 21
1045.3025906736
 31
0.0
  0
LINE
  5
110
330
1F
100
AcDbEntity
  8
1
100
AcDbLine
 10
1728.1205142642
 20
1045.3025906736
 30
0.0
 11
1735.5367127513
 21
1045.3025906736
 31
0.0
  0
LINE
  5
111
330
1F
100
AcDbEntity
  8
1
100
AcDbLine
 10
1813.1205142642
 20
1045.3025906736
 30
0.0
 11
1820.5367127513
 21
1045.3025906736
 31
0.0
  0
LINE
  5
112
330
1F
100
AcDbEntity
  8
1
100
AcDbLine
 10
1826.8286135077
 20
1045.3025906736
 30
0.0
 11
1841.8286135077
 21
1045.3025906736
 31
0.0
  0
LINE
  5
113
330
1F
100
AcDbEntity
  8
1
100
AcDbLine
 10
1441.8286135077
 20
1050.3025906736
 30
0.0
 11
1441.8286135077
 21
1045.3025906736
 31
0.0
  0
LINE
  5
114
330
1F
100
AcDbEntity
  8
1
100
AcDbLine
 10
1841.8286135077
 20
980.3025906736
 30
0.0
 11
1841.8286135077
 21
975.3025906736
 31
0.0
  0
LINE
  5
115
330
1F
100
AcDbEntity
  8
1
100
AcDbLine
 10
1441.8286135077
 20
975.3025906736
 30
0.0
 11
1841.8286135077
 21
975.3025906736
 31
0.0
  0
LINE
  5
116
330
1F
100
AcDbEntity
  8
1
100
AcDbLine
 10
1441.8286135077
 20
980.3025906736
 30
0.0
 11
1441.8286135077
 21
975.3025906736
 31
0.0
  0
LINE
  5
117
330
1F
100
AcDbEntity
  8
1
100
AcDbLine
 10
1441.8286135077
 20
980.3025906736
 30
0.0
 11
1841.8286135077
 21
980.3025906736
 31
0.0
  0
LINE
  5
118
330
1F
100
AcDbEntity
  8
1
100
AcDbLine
 10
1806.8286135077
 20
1036.8025906736
 30
0.0
 11
1806.8286135077
 21
980.3025906736
 31
0.0
  0
LINE
  5
119
330
1F
100
AcDbEntity
  8
1
100
AcDbLine
 10
1476.8286135077
 20
1045.3025906736
 30
0.0
 11
1476.8286135077
 21
980.3025906736
 31
0.0
  0
CIRCLE
  5
11A
330
1F
100
AcDbEntity
  8
1
100
AcDbCircle
 10
1546.8286135077
 20
1046.8025906736
 30
0.0
 40
4.000000000000227
  0
CIRCLE
  5
11B
330
1F
100
AcDbEntity
  8
1
100
AcDbCircle
 10
1546.8286135077
 20
1126.8025906736
 30
0.0
 40
4.000000000000227
  0
CIRCLE
  5
11C
330
1F
100
AcDbEntity
  8
1
100
AcDbCircle
 10
1546.8286135077
 20
1226.8025906736
 30
0.0
 40
4.000000000000227
  0
CIRCLE
  5
11D
330
1F
100
AcDbEntity
  8
1
100
AcDbCircle
 10
1631.8286135077
 20
1046.8025906736
 30
0.0
 40
3.999999999999773
  0
CIRCLE
  5
11E
330
1F
100
AcDbEntity
  8
1
100
AcDbCircle
 10
1731.8286135077
 20
1046.8025906736
 30
0.0
 40
4.0
  0
CIRCLE
  5
11F
330
1F
100
AcDbEntity
  8
1
100
AcDbCircle
 10
1816.8286135077
 20
1226.8025906736
 30
0.0
 40
4.000000000000227
  0
CIRCLE
  5
120
330
1F
100
AcDbEntity
  8
1
100
AcDbCircle
 10
1816.8286135077
 20
1126.8025906736
 30
0.0
 40
4.000000000000227
  0
CIRCLE
  5
121
330
1F
100
AcDbEntity
  8
1
100
AcDbCircle
 10
1816.8286135077
 20
1046.8025906736
 30
0.0
 40
4.000000000000227
  0
CIRCLE
  5
122
330
1F
100
AcDbEntity
  8
1
100
AcDbCircle
 10
1816.8286135077
 20
1406.8025906736
 30
0.0
 40
4.000000000000227
  0
CIRCLE
  5
123
330
1F
100
AcDbEntity
  8
1
100
AcDbCircle
 10
1816.8286135077
 20
1326.8025906736
 30
0.0
 40
4.000000000000227
  0
CIRCLE
  5
124
330
1F
100
AcDbEntity
  8
1
100
AcDbCircle
 10
1731.8286135077
 20
1406.8025906736
 30
0.0
 40
4.0
  0
CIRCLE
  5
125
330
1F
100
AcDbEntity
  8
1
100
AcDbCircle
 10
1631.8286135077
 20
1406.8025906736
 30
0.0
 40
3.999999999999773
  0
CIRCLE
  5
126
330
1F
100
AcDbEntity
  8
1
100
AcDbCircle
 10
1546.8286135077
 20
1326.8025906736
 30
0.0
 40
4.000000000000227
  0
LINE
  5
127
330
1F
100
AcDbEntity
  8
1
100
AcDbLine
 10
1536.8286135077
 20
1416.8025906736
 30
0.0
 11
1826.8286135077
 21
1416.8025906736
 31
0.0
  0
LINE
  5
128
330
1F
100
AcDbEntity
  8
1
100
AcDbLine
 10
1826.8286135077
 20
1416.8025906736
 30
0.0
 11
1826.8286135077
 21
1036.8025906736
 31
0.0
  0
LINE
  5
129
330
1F
100
AcDbEntity
  8
1
100
AcDbLine
 10
1826.8286135077
 20
1036.8025906736
 30
0.0
 11
1536.8286135077
 21
1036.8025906736
 31
0.0
  0
LINE
  5
12A
330
1F
100
AcDbEntity
  8
1
100
AcDbLine
 10
1536.8286135077
 20
1036.8025906736
 30
0.0
 11
1536.8286135077
 21
1416.8025906736
 31
0.0
  0
LINE
  5
12B
330
1F
100
AcDbEntity
  8
1
100
AcDbLine
 10
1563.8286135077
 20
1389.3025906736
 30
0.0
 11
1799.8286135077
 21
1389.3025906736
 31
0.0
  0
LINE
  5
12C
330
1F
100
AcDbEntity
  8
1
100
AcDbLine
 10
1563.8286135077
 20
1389.3025906736
 30
0.0
 11
1563.8286135077
 21
1064.3025906736
 31
0.0
  0
LINE
  5
12D
330
1F
100
AcDbEntity
  8
1
100
AcDbLine
 10
1563.8286135077
 20
1064.3025906736
 30
0.0
 11
1799.8286135077
 21
1064.3025906736
 31
0.0
  0
LINE
  5
12E
330
1F
100
AcDbEntity
  8
1
100
AcDbLine
 10
1799.8286135077
 20
1389.3025906736
 30
0.0
 11
1799.8286135077
 21
1064.3025906736
 31
0.0
  0
CIRCLE
  5
12F
330
1F
100
AcDbEntity
  8
1
100
AcDbCircle
 10
1546.8286135077
 20
1406.8025906736
 30
0.0
 40
4.000000000000227
  0
LINE
  5
130
330
1F
100
AcDbEntity
  8
1
100
AcDbLine
 10
1562.2286135077
 20
1433.8025906736
 30
0.0
 11
1562.2286135077
 21
1416.8025906736
 31
0.0
  0
LINE
  5
131
330
1F
100
AcDbEntity
  8
1
100
AcDbLine
 10
1801.4286135077
 20
1433.8025906736
 30
0.0
 11
1801.4286135077
 21
1416.8025906736
 31
0.0
  0
LINE
  5
132
330
1F
100
AcDbEntity
  8
1
100
AcDbLine
 10
1562.2286135077
 20
1642.5025906736
 30
0.0
 11
1801.4286135077
 21
1642.5025906736
 31
0.0
  0
LINE
  5
133
330
1F
100
AcDbEntity
  8
1
100
AcDbLine
 10
1562.2286135077
 20
1642.5025906736
 30
0.0
 11
1562.2286135077
 21
1433.8025906736
 31
0.0
  0
LINE
  5
134
330
1F
100
AcDbEntity
  8
1
100
AcDbLine
 10
1801.4286135077
 20
1642.5025906736
 30
0.0
 11
1801.4286135077
 21
1433.8025906736
 31
0.0
  0
LINE
  5
135
330
1F
100
AcDbEntity
  8
1
100
AcDbLine
 10
1851.5286135077
 20
1232.8025906736
 30
0.0
 11
1851.5286135077
 21
1597.8025906736
 31
0.0
  0
LINE
  5
136
330
1F
100
AcDbEntity
  8
1
100
AcDbLine
 10
1853.8286135077
 20
1232.8025906736
 30
0.0
 11
1853.8286135077
 21
1597.8025906736
 31
0.0
  0
LINE
  5
137
330
1F
100
AcDbEntity
  8
1
100
AcDbLine
 10
1802.8286135077
 20
1597.8025906736
 30
0.0
 11
1802.8286135077
 21
1416.8025906736
 31
0.0
  0
LINE
  5
138
330
1F
100
AcDbEntity
  8
0
  6
HIDDEN
 62
     7
370
    18
100
AcDbLine
 10
1750.3286135077
 20
1090.3025906736
 30
0.0
 11
1536.8286135077
 21
1090.3025906736
 31
0.0
  0
LINE
  5
139
330
1F
100
AcDbEntity
  8
0
  6
HIDDEN
 62
     7
370
    18
100
AcDbLine
 10
1750.3286135077
 20
1050.3025906736
 30
0.0
 11
1750.3286135077
 21
1090.3025906736
 31
0.0
  0
LINE
  5
13A
330
1F
100
AcDbEntity
  8
0
  6
HIDDEN
 62
     7
370
    18
100
AcDbLine
 10
1806.3286135077
 20
1095.9025906736
 30
0.0
 11
1806.3286135077
 21
1323.8025906736
 31
0.0
  0
LINE
  5
13B
330
1F
100
AcDbEntity
  8
0
  6
HIDDEN
 62
     7
370
    18
100
AcDbLine
 10
1806.3286135077
 20
1095.9025906736
 30
0.0
 11
1730.3286135077
 21
1095.9025906736
 31
0.0
  0
LINE
  5
13C
330
1F
100
AcDbEntity
  8
0
  6
HIDDEN
 62
     7
370
    18
100
AcDbLine
 10
1536.8286135077
 20
1101.5025906736
 30
0.0
 11
1730.3286135077
 21
1101.5025906736
 31
0.0
  0
LINE
  5
13D
330
1F
100
AcDbEntity
  8
0
  6
HIDDEN
 62
     7
370
    18
100
AcDbLine
 10
1730.3286135077
 20
1090.3025906736
 30
0.0
 11
1730.3286135077
 21
1101.5025906736
 31
0.0
  0
LINE
  5
13E
330
1F
100
AcDbEntity
  8
0
  6
HIDDEN
 62
     7
370
    18
100
AcDbLine
 10
1345.3286135077
 20
1489.7721277522
 30
0.0
 11
1345.3286135077
 21
1340.3025906736
 31
0.0
  0
LINE
  5
13F
330
1F
100
AcDbEntity
  8
0
  6
HIDDEN
 62
     7
370
    18
100
AcDbLine
 10
1345.3286135077
 20
1490.3025906736
 30
0.0
 11
1345.3286135077
 21
1489.7721277522
 31
0.0
  0
LINE
  5
140
330
1F
100
AcDbEntity
  8
0
  6
HIDDEN
 62
     7
370
    18
100
AcDbLine
 10
1420.3286135077
 20
1489.7721277522
 30
0.0
 11
1420.3286135077
 21
1340.3025906736
 31
0.0
  0
LINE
  5
141
330
1F
100
AcDbEntity
  8
0
  6
HIDDEN
 62
     7
370
    18
100
AcDbLine
 10
1420.3286135077
 20
1490.3025906736
 30
0.0
 11
1420.3286135077
 21
1489.7721277522
 31
0.0
  0
LINE
  5
142
330
1F
100
AcDbEntity
  8
0
  6
HIDDEN
 62
     7
370
    18
100
AcDbLine
 10
1345.3286135077
 20
1127.541962671
 30
0.0
 11
1345.3286135077
 21
1127.3025906736
 31
0.0
  0
LINE
  5
143
330
1F
100
AcDbEntity
  8
0
  6
HIDDEN
 62
     7
370
    18
100
AcDbLine
 10
1345.3286135077
 20
1277.3025906736
 30
0.0
 11
1345.3286135077
 21
1127.541962671
 31
0.0
  0
LINE
  5
144
330
1F
100
AcDbEntity
  8
0
  6
HIDDEN
 62
     7
370
    18
100
AcDbLine
 10
1420.3286135077
 20
1127.541962671
 30
0.0
 11
1420.3286135077
 21
1127.3025906736
 31
0.0
  0
LINE
  5
145
330
1F
100
AcDbEntity
  8
0
  6
HIDDEN
 62
     7
370
    18
100
AcDbLine
 10
1420.3286135077
 20
1277.3025906736
 30
0.0
 11
1420.3286135077
 21
1127.541962671
 31
0.0
  0
LINE
  5
146
330
1F
100
AcDbEntity
  8
0
  6
HIDDEN
 62
     7
370
    18
100
AcDbLine
 10
1801.8286135077
 20
830.3025906736
 30
0.0
 11
1801.8286135077
 21
895.3025906736
 31
0.0
  0
LINE
  5
147
330
1F
100
AcDbEntity
  8
0
  6
HIDDEN
 62
     7
370
    18
100
AcDbLine
 10
1481.8286135078
 20
830.3025906736
 30
0.0
 11
1481.8286135077
 21
895.3025906736
 31
0.0
  0
LINE
  5
148
330
1F
100
AcDbEntity
  8
0
  6
HIDDEN
 62
     7
370
    18
100
AcDbLine
 10
1536.8286135077
 20
1050.3025906736
 30
0.0
 11
1544.8921218346
 21
1050.3025906736
 31
0.0
  0
LINE
  5
149
330
1F
100
AcDbEntity
  8
0
  6
HIDDEN
 62
     7
370
    18
100
AcDbLine
 10
1548.7651051808
 20
1050.3025906736
 30
0.0
 11
1629.8921218346
 21
1050.3025906736
 31
0.0
  0
LINE
  5
14A
330
1F
100
AcDbEntity
  8
0
  6
HIDDEN
 62
     7
370
    18
100
AcDbLine
 10
1633.7651051808
 20
1050.3025906736
 30
0.0
 11
1729.8921218346
 21
1050.3025906736
 31
0.0
  0
LINE
  5
14B
330
1F
100
AcDbEntity
  8
0
  6
HIDDEN
 62
     7
370
    18
100
AcDbLine
 10
1733.7651051808
 20
1050.3025906736
 30
0.0
 11
1814.8921218346
 21
1050.3025906736
 31
0.0
  0
LINE
  5
14C
330
1F
100
AcDbEntity
  8
0
  6
HIDDEN
 62
     7
370
    18
100
AcDbLine
 10
1818.7651051808
 20
1050.3025906736
 30
0.0
 11
1826.8286135077
 21
1050.3025906736
 31
0.0
  0
LINE
  5
14D
330
1F
100
AcDbEntity
  8
0
  6
HIDDEN
 62
     7
370
    18
100
AcDbLine
 10
1536.8286135077
 20
1045.3025906736
 30
0.0
 11
1543.1205142642
 21
1045.3025906736
 31
0.0
  0
LINE
  5
14E
330
1F
100
AcDbEntity
  8
0
  6
HIDDEN
 62
     7
370
    18
100
AcDbLine
 10
1550.5367127513
 20
1045.3025906736
 30
0.0
 11
1628.1205142642
 21
1045.3025906736
 31
0.0
  0
LINE
  5
14F
330
1F
100
AcDbEntity
  8
0
  6
HIDDEN
 62
     7
370
    18
100
AcDbLine
 10
1635.5367127513
 20
1045.3025906736
 30
0.0
 11
1728.1205142642
 21
1045.3025906736
 31
0.0
  0
LINE
  5
150
330
1F
100
AcDbEntity
  8
0
  6
HIDDEN
 62
     7
370
    18
100
AcDbLine
 10
1735.5367127513
 20
1045.3025906736
 30
0.0
 11
1813.1205142642
 21
1045.3025906736
 31
0.0
  0
LINE
  5
151
330
1F
100
AcDbEntity
  8
0
  6
HIDDEN
 62
     7
370
    18
100
AcDbLine
 10
1820.5367127513
 20
1045.3025906736
 30
0.0
 11
1826.8286135077
 21
1045.3025906736
 31
0.0
  0
LINE
  5
152
330
1F
100
AcDbEntity
  8
0
  6
HIDDEN
 62
     7
370
    18
100
AcDbLine
 10
1806.8286135077
 20
1045.3025906736
 30
0.0
 11
1806.8286135077
 21
1036.8025906736
 31
0.0
  0
LINE
  5
153
330
1F
100
AcDbEntity
  8
0
  6
HIDDEN
 62
     7
370
    18
100
AcDbLine
 10
1801.8286135077
 20
1050.3025906736
 30
0.0
 11
1801.8286135077
 21
975.3025906736
 31
0.0
  0
LINE
  5
154
330
1F
100
AcDbEntity
  8
0
  6
HIDDEN
 62
     7
370
    18
100
AcDbLine
 10
1481.8286135077
 20
1050.3025906736
 30
0.0
 11
1481.8286135077
 21
975.3025906736
 31
0.0
  0
LINE
  5
155
330
1F
100
AcDbEntity
  8
0
  6
HIDDEN
 62
     7
370
    18
100
AcDbLine
 10
1471.8286135077
 20
1050.3025906736
 30
0.0
 11
1441.8286135077
 21
1050.3025906736
 31
0.0
  0
LINE
  5
156
330
1F
100
AcDbEntity
  8
0
  6
HIDDEN
 62
     7
370
    18
100
AcDbLine
 10
1801.4286135077
 20
1063.4577876872
 30
0.0
 11
1562.2286135077
 21
1063.4577876872
 31
0.0
  0
LINE
  5
157
330
1F
100
AcDbEntity
  8
0
  6
HIDDEN
 62
     7
370
    18
100
AcDbLine
 10
1801.4286135077
 20
1063.4577876872
 30
0.0
 11
1801.4286135077
 21
1390.5025906736
 31
0.0
  0
LINE
  5
158
330
1F
100
AcDbEntity
  8
0
  6
HIDDEN
 62
     7
370
    18
100
AcDbLine
 10
1562.2286135077
 20
1390.5025906736
 30
0.0
 11
1801.4286135077
 21
1390.5025906736
 31
0.0
  0
LINE
  5
159
330
1F
100
AcDbEntity
  8
0
  6
HIDDEN
 62
     7
370
    18
100
AcDbLine
 10
1562.2286135077
 20
1063.4577876872
 30
0.0
 11
1562.2286135077
 21
1390.5025906736
 31
0.0
  0
LINE
  5
15A
330
1F
100
AcDbEntity
  8
0
  6
HIDDEN
 62
     7
370
    18
100
AcDbLine
 10
1562.2286135077
 20
1416.8025906736
 30
0.0
 11
1562.2286135077
 21
1390.5025906736
 31
0.0
  0
LINE
  5
15B
330
1F
100
AcDbEntity
  8
0
  6
HIDDEN
 62
     7
370
    18
100
AcDbLine
 10
1801.4286135077
 20
1416.8025906736
 30
0.0
 11
1801.4286135077
 21
1390.5025906736
 31
0.0
  0
LINE
  5
15C
330
1F
100
AcDbEntity
  8
0
  6
HIDDEN
 62
     7
370
    18
100
AcDbLine
 10
1563.8286135077
 20
1433.8025906736
 30
0.0
 11
1563.8286135077
 21
1389.3025906736
 31
0.0
  0
LINE
  5
15D
330
1F
100
AcDbEntity
  8
0
  6
HIDDEN
 62
     7
370
    18
100
AcDbLine
 10
1799.8286135077
 20
1433.8025906736
 30
0.0
 11
1799.8286135077
 21
1389.3025906736
 31
0.0
  0
LINE
  5
15E
330
1F
100
AcDbEntity
  8
0
  6
HIDDEN
 62
     7
370
    18
100
AcDbLine
 10
1563.8286135077
 20
1641.3025906736
 30
0.0
 11
1799.8286135077
 21
1641.3025906736
 31
0.0
  0
LINE
  5
15F
330
1F
100
AcDbEntity
  8
0
  6
HIDDEN
 62
     7
370
    18
100
AcDbLine
 10
1563.8286135077
 20
1641.3025906736
 30
0.0
 11
1563.8286135077
 21
1433.8025906736
 31
0.0
  0
LINE
  5
160
330
1F
100
AcDbEntity
  8
0
  6
HIDDEN
 62
     7
370
    18
100
AcDbLine
 10
1799.8286135077
 20
1641.3025906736
 30
0.0
 11
1799.8286135077
 21
1433.8025906736
 31
0.0
  0
LINE
  5
161
330
1F
100
AcDbEntity
  8
0
  6
HIDDEN
 62
     7
370
    18
100
AcDbLine
 10
1802.8286135077
 20
1416.8025906736
 30
0.0
 11
1802.8286135077
 21
1232.8025906736
 31
0.0
  0
LINE
  5
162
330
1F
100
AcDbEntity
  8
0
  6
HIDDEN
 62
     7
370
    18
100
AcDbLine
 10
1806.3286135077
 20
1323.8025906736
 30
0.0
 11
1549.4743648188
 21
1323.8025906736
 31
0.0
  0
LINE
  5
163
330
1F
100
AcDbEntity
  8
0
  6
HIDDEN
 62
     7
370
    18
100
AcDbLine
 10
1544.1828621967
 20
1323.8025906736
 30
0.0
 11
1536.8286135077
 21
1323.8025906736
 31
0.0
  0
LINE
  5
164
330
1F
100
AcDbEntity
  8
0
  6
HIDDEN
 62
     7
370
    18
100
AcDbLine
 10
1420.3286135077
 20
1188.3025906736
 30
0.0
 11
1443.8286135077
 21
1188.3025906736
 31
0.0
  0
LINE
  5
165
330
1F
100
AcDbEntity
  8
0
  6
HIDDEN
 62
     7
370
    18
100
AcDbLine
 10
1443.8286135077
 20
1216.3025906736
 30
0.0
 11
1420.3286135077
 21
1216.3025906736
 31
0.0
  0
LINE
  5
166
330
1F
100
AcDbEntity
  8
0
  6
HIDDEN
 62
     7
370
    18
100
AcDbLine
 10
1345.3286135077
 20
1340.3025906736
 30
0.0
 11
1420.3286135077
 21
1340.3025906736
 31
0.0
  0
LINE
  5
167
330
1F
100
AcDbEntity
  8
0
  6
HIDDEN
 62
     7
370
    18
100
AcDbLine
 10
1420.3286135077
 20
1490.3025906736
 30
0.0
 11
1345.3286135077
 21
1490.3025906736
 31
0.0
  0
LINE
  5
168
330
1F
100
AcDbEntity
  8
0
  6
HIDDEN
 62
     7
370
    18
100
AcDbLine
 10
1345.3286135077
 20
1127.3025906736
 30
0.0
 11
1420.3286135077
 21
1127.3025906736
 31
0.0
  0
LINE
  5
169
330
1F
100
AcDbEntity
  8
0
  6
HIDDEN
 62
     7
370
    18
100
AcDbLine
 10
1420.3286135077
 20
1277.3025906736
 30
0.0
 11
1345.3286135077
 21
1277.3025906736
 31
0.0
  0
LINE
  5
16A
330
1F
100
AcDbEntity
  8
0
  6
HIDDEN
 62
     7
370
    18
100
AcDbLine
 10
1829.8286135077
 20
830.3025906736
 30
0.0
 11
1829.8286135077
 21
833.5025906736
 31
0.0
  0
LINE
  5
16B
330
1F
100
AcDbEntity
  8
0
  6
HIDDEN
 62
     7
370
    18
100
AcDbLine
 10
1817.8286135077
 20
833.5025906736
 30
0.0
 11
1817.8286135077
 21
830.3025906736
 31
0.0
  0
LINE
  5
16C
330
1F
100
AcDbEntity
  8
0
  6
HIDDEN
 62
     7
370
    18
100
AcDbLine
 10
1465.8286135077
 20
830.3025906736
 30
0.0
 11
1465.8286135077
 21
833.5025906736
 31
0.0
  0
LINE
  5
16D
330
1F
100
AcDbEntity
  8
0
  6
HIDDEN
 62
     7
370
    18
100
AcDbLine
 10
1453.8286135077
 20
833.5025906736
 30
0.0
 11
1453.8286135077
 21
830.3025906736
 31
0.0
  0
LINE
  5
16E
330
1F
100
AcDbEntity
  8
0
  6
HIDDEN
 62
     7
370
    18
100
AcDbLine
 10
1801.4286135077
 20
1232.8025906736
 30
0.0
 11
1802.8286135077
 21
1232.8025906736
 31
0.0
  0
LINE
  5
16F
330
1F
100
AcDbEntity
  8
0
  6
HIDDEN
 62
     7
370
    18
100
AcDbLine
 10
1853.8286135077
 20
1374.6563053934
 30
0.0
 11
1851.5286135077
 21
1374.6563053934
 31
0.0
  0
LINE
  5
170
330
1F
100
AcDbEntity
  8
0
  6
HIDDEN
 62
     7
370
    18
100
AcDbLine
 10
1851.5286135077
 20
1366.6563053934
 30
0.0
 11
1853.8286135077
 21
1366.6563053934
 31
0.0
  0
LINE
  5
171
330
1F
100
AcDbEntity
  8
0
  6
HIDDEN
 62
     7
370
    18
100
AcDbLine
 10
1853.8286135077
 20
1463.9488759538
 30
0.0
 11
1851.5286135077
 21
1463.9488759538
 31
0.0
  0
LINE
  5
172
330
1F
100
AcDbEntity
  8
0
  6
HIDDEN
 62
     7
370
    18
100
AcDbLine
 10
1851.5286135077
 20
1455.9488759538
 30
0.0
 11
1853.8286135077
 21
1455.9488759538
 31
0.0
  0
LINE
  5
173
330
1F
100
AcDbEntity
  8
0
  6
HIDDEN
 62
     7
370
    18
100
AcDbLine
 10
1802.8286135077
 20
1255.5025906736
 30
0.0
 11
1826.8286135077
 21
1255.5025906736
 31
0.0
  0
LINE
  5
174
330
1F
100
AcDbEntity
  8
0
  6
HIDDEN
 62
     7
370
    18
100
AcDbLine
 10
1799.8286135077
 20
1257.8025906736
 30
0.0
 11
1853.8286135077
 21
1257.8025906736
 31
0.0
  0
LINE
  5
175
330
1F
100
AcDbEntity
  8
0
  6
HIDDEN
 62
     7
370
    18
100
AcDbLine
 10
1853.8286135077
 20
1572.8025906736
 30
0.0
 11
1799.8286135077
 21
1572.8025906736
 31
0.0
  0
LINE
  5
176
330
1F
100
AcDbEntity
  8
0
  6
HIDDEN
 62
     7
370
    18
100
AcDbLine
 10
1853.8286135077
 20
1297.3266709189
 30
0.0
 11
1851.5286135077
 21
1297.3266709189
 31
0.0
  0
LINE
  5
177
330
1F
100
AcDbEntity
  8
0
  6
HIDDEN
 62
     7
370
    18
100
AcDbLine
 10
1851.5286135077
 20
1289.3266709189
 30
0.0
 11
1853.8286135077
 21
1289.3266709189
 31
0.0
  0
LINE
  5
178
330
1F
100
AcDbEntity
  8
0
  6
HIDDEN
 62
     7
370
    18
100
AcDbLine
 10
1853.8286135077
 20
1541.2785104283
 30
0.0
 11
1851.5286135077
 21
1541.2785104283
 31
0.0
  0
LINE
  5
179
330
1F
100
AcDbEntity
  8
0
  6
HIDDEN
 62
     7
370
    18
100
AcDbLine
 10
1851.5286135077
 20
1533.2785104283
 30
0.0
 11
1853.8286135077
 21
1533.2785104283
 31
0.0
  0
LINE
  5
17A
330
1F
100
AcDbEntity
  8
0
  6
HIDDEN
 62
     7
370
    18
100
AcDbLine
 10
1853.8286135077
 20
1252.6803856387
 30
0.0
 11
1851.5286135077
 21
1252.6803856387
 31
0.0
  0
LINE
  5
17B
330
1F
100
AcDbEntity
  8
0
  6
HIDDEN
 62
     7
370
    18
100
AcDbLine
 10
1851.5286135077
 20
1244.6803856387
 30
0.0
 11
1853.8286135077
 21
1244.6803856387
 31
0.0
  0
LINE
  5
17C
330
1F
100
AcDbEntity
  8
0
  6
HIDDEN
 62
     7
370
    18
100
AcDbLine
 10
1853.8286135077
 20
1585.9247957084
 30
0.0
 11
1851.5286135077
 21
1585.9247957084
 31
0.0
  0
LINE
  5
17D
330
1F
100
AcDbEntity
  8
0
  6
HIDDEN
 62
     7
370
    18
100
AcDbLine
 10
1851.5286135077
 20
1577.9247957084
 30
0.0
 11
1853.8286135077
 21
1577.9247957084
 31
0.0
  0
LINE
  5
17E
330
1F
100
AcDbEntity
  8
2
100
AcDbLine
 10
1333.2613270283
 20
1415.3025906736
 30
0.0
 11
1841.2719296471
 21
1415.3025906736
 31
0.0
  0
LINE
  5
17F
330
1F
100
AcDbEntity
  8
2
100
AcDbLine
 10
1681.8286135077
 20
1436.8025906736
 30
0.0
 11
1681.8286135077
 21
1016.8025906736
 31
0.0
  0
LINE
  5
180
330
1F
100
AcDbEntity
  8
2
100
AcDbLine
 10
1836.0959086922
 20
1226.8025906736
 30
0.0
 11
1516.8286135077
 21
1226.8025906736
 31
0.0
  0
LINE
  5
181
330
1F
100
AcDbEntity
  8
1
100
AcDbLine
 10
564.5907896735
 20
1985.7344559585
 30
0.0
 11
564.5907896735
 21
2311.7344559585
 31
0.0
  0
LINE
  5
182
330
1F
100
AcDbEntity
  8
1
100
AcDbLine
 10
321.5907896735
 20
2311.7344559585
 30
0.0
 11
321.5907896735
 21
1985.7344559585
 31
0.0
  0
LINE
  5
183
330
1F
100
AcDbEntity
  8
1
100
AcDbLine
 10
457.0907896735
 20
1949.2344559585
 30
0.0
 11
457.0907896735
 21
1985.7344559585
 31
0.0
  0
LINE
  5
184
330
1F
100
AcDbEntity
  8
1
100
AcDbLine
 10
429.0907896735
 20
1985.7344559585
 30
0.0
 11
429.0907896735
 21
1949.2344559585
 31
0.0
  0
LINE
  5
185
330
1F
100
AcDbEntity
  8
1
100
AcDbLine
 10
708.5907896735
 20
2359.2344559585
 30
0.0
 11
708.5907896735
 21
2356.9344559585
 31
0.0
  0
LINE
  5
186
330
1F
100
AcDbEntity
  8
1
100
AcDbLine
 10
1073.5907896735
 20
2356.9344559585
 30
0.0
 11
1073.5907896735
 21
2359.2344559585
 31
0.0
  0
LINE
  5
187
330
1F
100
AcDbEntity
  8
1
100
AcDbLine
 10
1073.5907896735
 20
2306.8344559585
 30
0.0
 11
1073.5907896735
 21
2308.2344559585
 31
0.0
  0
LINE
  5
188
330
1F
100
AcDbEntity
  8
1
100
AcDbLine
 10
708.5907896735
 20
2308.2344559585
 30
0.0
 11
708.5907896735
 21
2306.8344559585
 31
0.0
  0
LINE
  5
189
330
1F
100
AcDbEntity
  8
1
100
AcDbLine
 10
731.2907896735
 20
2356.9344559585
 30
0.0
 11
731.2907896735
 21
2308.2344559585
 31
0.0
  0
LINE
  5
18A
330
1F
100
AcDbEntity
  8
1
100
AcDbLine
 10
1050.8907896735
 20
2308.2344559585
 30
0.0
 11
1050.8907896735
 21
2356.9344559585
 31
0.0
  0
LINE
  5
18B
330
1F
100
AcDbEntity
  8
1
100
AcDbLine
 10
564.5907896735
 20
2311.7344559585
 30
0.0
 11
321.5907896735
 21
2311.7344559585
 31
0.0
  0
LINE
  5
18C
330
1F
100
AcDbEntity
  8
1
100
AcDbLine
 10
321.5907896735
 20
1985.7344559585
 30
0.0
 11
564.5907896735
 21
1985.7344559585
 31
0.0
  0
LINE
  5
18D
330
1F
100
AcDbEntity
  8
1
100
AcDbLine
 10
300.5907896735
 20
2255.7344559585
 30
0.0
 11
321.5907896735
 21
2255.7344559585
 31
0.0
  0
LINE
  5
18E
330
1F
100
AcDbEntity
  8
1
100
AcDbLine
 10
564.5907896735
 20
2255.7344559585
 30
0.0
 11
585.5907896735
 21
2255.7344559585
 31
0.0
  0
LINE
  5
18F
330
1F
100
AcDbEntity
  8
1
100
AcDbLine
 10
585.5907896735
 20
1995.7344559585
 30
0.0
 11
564.5907896735
 21
1995.7344559585
 31
0.0
  0
LINE
  5
190
330
1F
100
AcDbEntity
  8
1
100
AcDbLine
 10
321.5907896735
 20
1995.7344559585
 30
0.0
 11
300.5907896735
 21
1995.7344559585
 31
0.0
  0
LINE
  5
191
330
1F
100
AcDbEntity
  8
1
100
AcDbLine
 10
300.5907896735
 20
1995.7344559585
 30
0.0
 11
300.5907896735
 21
2255.7344559585
 31
0.0
  0
LINE
  5
192
330
1F
100
AcDbEntity
  8
1
100
AcDbLine
 10
585.5907896735
 20
2255.7344559585
 30
0.0
 11
585.5907896735
 21
1995.7344559585
 31
0.0
  0
LINE
  5
193
330
1F
100
AcDbEntity
  8
1
100
AcDbLine
 10
1068.0907896735
 20
1827.2344559585
 30
0.0
 11
268.0907896735
 21
1827.2344559585
 31
0.0
  0
LINE
  5
194
330
1F
100
AcDbEntity
  8
1
100
AcDbLine
 10
268.0907896735
 20
1827.2344559585
 30
0.0
 11
268.0907896735
 21
1949.2344559585
 31
0.0
  0
LINE
  5
195
330
1F
100
AcDbEntity
  8
1
100
AcDbLine
 10
1068.0907896735
 20
1949.2344559585
 30
0.0
 11
268.0907896735
 21
1949.2344559585
 31
0.0
  0
LINE
  5
196
330
1F
100
AcDbEntity
  8
1
100
AcDbLine
 10
1068.0907896735
 20
1827.2344559585
 30
0.0
 11
1068.0907896735
 21
1949.2344559585
 31
0.0
  0
LINE
  5
197
330
1F
100
AcDbEntity
  8
1
100
AcDbLine
 10
1103.0907896735
 20
1977.2344559585
 30
0.0
 11
1003.0907896735
 21
1977.2344559585
 31
0.0
  0
LINE
  5
198
330
1F
100
AcDbEntity
  8
1
100
AcDbLine
 10
1068.0907896735
 20
1847.2344559585
 30
0.0
 11
1103.0907896735
 21
1847.2344559585
 31
0.0
  0
LINE
  5
199
330
1F
100
AcDbEntity
  8
1
100
AcDbLine
 10
1003.0907896735
 20
1977.2344559585
 30
0.0
 11
1003.0907896735
 21
1949.2344559585
 31
0.0
  0
LINE
  5
19A
330
1F
100
AcDbEntity
  8
1
100
AcDbLine
 10
1103.0907896735
 20
1847.2344559585
 30
0.0
 11
1103.0907896735
 21
1977.2344559585
 31
0.0
  0
LINE
  5
19B
330
1F
100
AcDbEntity
  8
1
100
AcDbLine
 10
233.0907896735
 20
1847.2344559585
 30
0.0
 11
268.0907896735
 21
1847.2344559585
 31
0.0
  0
LINE
  5
19C
330
1F
100
AcDbEntity
  8
1
100
AcDbLine
 10
333.0907896735
 20
1949.2344559585
 30
0.0
 11
333.0907896735
 21
1977.2344559585
 31
0.0
  0
LINE
  5
19D
330
1F
100
AcDbEntity
  8
1
100
AcDbLine
 10
233.0907896735
 20
1977.2344559585
 30
0.0
 11
233.0907896735
 21
1847.2344559585
 31
0.0
  0
LINE
  5
19E
330
1F
100
AcDbEntity
  8
1
100
AcDbLine
 10
333.0907896735
 20
1977.2344559585
 30
0.0
 11
233.0907896735
 21
1977.2344559585
 31
0.0
  0
LINE
  5
19F
330
1F
100
AcDbEntity
  8
1
100
AcDbLine
 10
203.0907896735
 20
1947.2344559585
 30
0.0
 11
233.0907896735
 21
1947.2344559585
 31
0.0
  0
LINE
  5
1A0
330
1F
100
AcDbEntity
  8
1
100
AcDbLine
 10
203.0907896735
 20
2347.2344559585
 30
0.0
 11
203.0907896735
 21
1947.2344559585
 31
0.0
  0
LINE
  5
1A1
330
1F
100
AcDbEntity
  8
1
100
AcDbLine
 10
1103.0907896735
 20
2347.2344559585
 30
0.0
 11
1050.8907896735
 21
2347.2344559585
 31
0.0
  0
LINE
  5
1A2
330
1F
100
AcDbEntity
  8
1
100
AcDbLine
 10
731.2907896735
 20
2347.2344559585
 30
0.0
 11
203.0907896735
 21
2347.2344559585
 31
0.0
  0
LINE
  5
1A3
330
1F
100
AcDbEntity
  8
1
100
AcDbLine
 10
243.0907896735
 20
1987.2344559585
 30
0.0
 11
321.5907896735
 21
1987.2344559585
 31
0.0
  0
LINE
  5
1A4
330
1F
100
AcDbEntity
  8
1
100
AcDbLine
 10
564.5907896735
 20
1987.2344559585
 30
0.0
 11
1063.0907896735
 21
1987.2344559585
 31
0.0
  0
LINE
  5
1A5
330
1F
100
AcDbEntity
  8
1
100
AcDbLine
 10
1063.0907896735
 20
1987.2344559585
 30
0.0
 11
1063.0907896735
 21
2067.6344559585
 31
0.0
  0
LINE
  5
1A6
330
1F
100
AcDbEntity
  8
1
100
AcDbLine
 10
708.5907896735
 20
2307.2344559585
 30
0.0
 11
564.5907896735
 21
2307.2344559585
 31
0.0
  0
LINE
  5
1A7
330
1F
100
AcDbEntity
  8
1
100
AcDbLine
 10
321.5907896735
 20
2307.2344559585
 30
0.0
 11
243.0907896735
 21
2307.2344559585
 31
0.0
  0
LINE
  5
1A8
330
1F
100
AcDbEntity
  8
1
100
AcDbLine
 10
243.0907896735
 20
2307.2344559585
 30
0.0
 11
243.0907896735
 21
1987.2344559585
 31
0.0
  0
LINE
  5
1A9
330
1F
100
AcDbEntity
  8
1
100
AcDbLine
 10
1103.0907896735
 20
1977.2344559585
 30
0.0
 11
1103.0907896735
 21
2067.6344559585
 31
0.0
  0
LINE
  5
1AA
330
1F
100
AcDbEntity
  8
1
100
AcDbLine
 10
1103.0907896735
 20
2306.8344559585
 30
0.0
 11
1103.0907896735
 21
2347.2344559585
 31
0.0
  0
LINE
  5
1AB
330
1F
100
AcDbEntity
  8
1
100
AcDbLine
 10
615.8907896735
 20
2067.6344559585
 30
0.0
 11
867.0907896735
 21
2067.6344559585
 31
0.0
  0
LINE
  5
1AC
330
1F
100
AcDbEntity
  8
1
100
AcDbLine
 10
615.8907896735
 20
2067.6344559585
 30
0.0
 11
615.8907896735
 21
2306.8344559585
 31
0.0
  0
LINE
  5
1AD
330
1F
100
AcDbEntity
  8
1
100
AcDbLine
 10
615.8907896735
 20
2306.8344559585
 30
0.0
 11
867.0907896735
 21
2306.8344559585
 31
0.0
  0
LINE
  5
1AE
330
1F
100
AcDbEntity
  8
1
100
AcDbLine
 10
1081.2907896735
 20
2067.6344559585
 30
0.0
 11
1081.2907896735
 21
2306.8344559585
 31
0.0
  0
LINE
  5
1AF
330
1F
100
AcDbEntity
  8
1
100
AcDbLine
 10
872.5907896735
 20
2067.6344559585
 30
0.0
 11
1081.2907896735
 21
2067.6344559585
 31
0.0
  0
LINE
  5
1B0
330
1F
100
AcDbEntity
  8
1
100
AcDbLine
 10
872.5907896735
 20
2306.8344559585
 30
0.0
 11
1081.2907896735
 21
2306.8344559585
 31
0.0
  0
LINE
  5
1B1
330
1F
100
AcDbEntity
  8
1
100
AcDbLine
 10
867.0907896735
 20
2067.6344559585
 30
0.0
 11
872.5907896735
 21
2067.6344559585
 31
0.0
  0
LINE
  5
1B2
330
1F
100
AcDbEntity
  8
1
100
AcDbLine
 10
867.0907896735
 20
2306.8344559585
 30
0.0
 11
872.5907896735
 21
2306.8344559585
 31
0.0
  0
LINE
  5
1B3
330
1F
100
AcDbEntity
  8
1
100
AcDbLine
 10
1073.5907896735
 20
2356.9344559585
 30
0.0
 11
708.5907896735
 21
2356.9344559585
 31
0.0
  0
LINE
  5
1B4
330
1F
100
AcDbEntity
  8
1
100
AcDbLine
 10
1073.5907896735
 20
2359.2344559585
 30
0.0
 11
708.5907896735
 21
2359.2344559585
 31
0.0
  0
LINE
  5
1B5
330
1F
100
AcDbEntity
  8
1
100
AcDbLine
 10
708.5907896735
 20
2308.2344559585
 30
0.0
 11
1073.5907896735
 21
2308.2344559585
 31
0.0
  0
LINE
  5
1B6
330
1F
100
AcDbEntity
  8
1
100
AcDbLine
 10
1133.0907896735
 20
2042.2344559585
 30
0.0
 11
1136.0907896735
 21
2042.2344559585
 31
0.0
  0
LINE
  5
1B7
330
1F
100
AcDbEntity
  8
1
100
AcDbLine
 10
1133.0907896735
 20
2042.2344559585
 30
0.0
 11
1133.0907896735
 21
2332.2344559585
 31
0.0
  0
LINE
  5
1B8
330
1F
100
AcDbEntity
  8
1
100
AcDbLine
 10
1133.0907896735
 20
2332.2344559585
 30
0.0
 11
1136.0907896735
 21
2332.2344559585
 31
0.0
  0
LINE
  5
1B9
330
1F
100
AcDbEntity
  8
1
100
AcDbLine
 10
1136.0907896735
 20
2042.2344559585
 30
0.0
 11
1136.0907896735
 21
2332.2344559585
 31
0.0
  0
LINE
  5
1BA
330
1F
100
AcDbEntity
  8
1
100
AcDbLine
 10
1081.2907896735
 20
2067.6344559585
 30
0.0
 11
1133.0907896735
 21
2067.6344559585
 31
0.0
  0
LINE
  5
1BB
330
1F
100
AcDbEntity
  8
1
100
AcDbLine
 10
1081.2907896735
 20
2306.8344559585
 30
0.0
 11
1133.0907896735
 21
2306.8344559585
 31
0.0
  0
LINE
  5
1BC
330
1F
100
AcDbEntity
  8
0
  6
HIDDEN
 62
     7
370
    18
100
AcDbLine
 10
375.2556218032
 20
2015.7344559585
 30
0.0
 11
384.4282803511
 21
2015.7344559585
 31
0.0
  0
LINE
  5
1BD
330
1F
100
AcDbEntity
  8
0
  6
HIDDEN
 62
     7
370
    18
100
AcDbLine
 10
375.2556218032
 20
2015.7344559585
 30
0.0
 11
375.2556218032
 21
2235.7344559585
 31
0.0
  0
LINE
  5
1BE
330
1F
100
AcDbEntity
  8
0
  6
HIDDEN
 62
     7
370
    18
100
AcDbLine
 10
375.2556218032
 20
2235.7344559585
 30
0.0
 11
384.4282803511
 21
2235.7344559585
 31
0.0
  0
LINE
  5
1BF
330
1F
100
AcDbEntity
  8
0
  6
HIDDEN
 62
     7
370
    18
100
AcDbLine
 10
384.4282803511
 20
2311.7344559585
 30
0.0
 11
384.4282803511
 21
2235.7344559585
 31
0.0
  0
LINE
  5
1C0
330
1F
100
AcDbEntity
  8
0
  6
HIDDEN
 62
     7
370
    18
100
AcDbLine
 10
501.7532989959
 20
2311.7344559585
 30
0.0
 11
501.7532989959
 21
2235.7344559585
 31
0.0
  0
LINE
  5
1C1
330
1F
100
AcDbEntity
  8
0
  6
HIDDEN
 62
     7
370
    18
100
AcDbLine
 10
501.7532989959
 20
2235.7344559585
 30
0.0
 11
510.9259575439
 21
2235.7344559585
 31
0.0
  0
LINE
  5
1C2
330
1F
100
AcDbEntity
  8
0
  6
HIDDEN
 62
     7
370
    18
100
AcDbLine
 10
510.9259575439
 20
2235.7344559585
 30
0.0
 11
510.9259575439
 21
2015.7344559585
 31
0.0
  0
LINE
  5
1C3
330
1F
100
AcDbEntity
  8
0
  6
HIDDEN
 62
     7
370
    18
100
AcDbLine
 10
501.7532989959
 20
2015.7344559585
 30
0.0
 11
510.9259575439
 21
2015.7344559585
 31
0.0
  0
LINE
  5
1C4
330
1F
100
AcDbEntity
  8
0
  6
HIDDEN
 62
     7
370
    18
100
AcDbLine
 10
501.7532989959
 20
2015.7344559585
 30
0.0
 11
501.7532989959
 21
1985.7344559585
 31
0.0
  0
LINE
  5
1C5
330
1F
100
AcDbEntity
  8
0
  6
HIDDEN
 62
     7
370
    18
100
AcDbLine
 10
384.4282803511
 20
2015.7344559585
 30
0.0
 11
384.4282803511
 21
1985.7344559585
 31
0.0
  0
LINE
  5
1C6
330
1F
100
AcDbEntity
  8
0
  6
HIDDEN
 62
     7
370
    18
100
AcDbLine
 10
359.0907896735
 20
2015.7344559585
 30
0.0
 11
359.0907896735
 21
2235.7344559585
 31
0.0
  0
LINE
  5
1C7
330
1F
100
AcDbEntity
  8
0
  6
HIDDEN
 62
     7
370
    18
100
AcDbLine
 10
375.2556218032
 20
2235.7344559585
 30
0.0
 11
359.0907896735
 21
2235.7344559585
 31
0.0
  0
LINE
  5
1C8
330
1F
100
AcDbEntity
  8
0
  6
HIDDEN
 62
     7
370
    18
100
AcDbLine
 10
375.2556218032
 20
2015.7344559585
 30
0.0
 11
359.0907896735
 21
2015.7344559585
 31
0.0
  0
LINE
  5
1C9
330
1F
100
AcDbEntity
  8
0
  6
HIDDEN
 62
     7
370
    18
100
AcDbLine
 10
527.0907896735
 20
2015.7344559585
 30
0.0
 11
527.0907896735
 21
2235.7344559585
 31
0.0
  0
LINE
  5
1CA
330
1F
100
AcDbEntity
  8
0
  6
HIDDEN
 62
     7
370
    18
100
AcDbLine
 10
527.0907896735
 20
2015.7344559585
 30
0.0
 11
510.9259575439
 21
2015.7344559585
 31
0.0
  0
LINE
  5
1CB
330
1F
100
AcDbEntity
  8
0
  6
HIDDEN
 62
     7
370
    18
100
AcDbLine
 10
527.0907896735
 20
2235.7344559585
 30
0.0
 11
510.9259575439
 21
2235.7344559585
 31
0.0
  0
LINE
  5
1CC
330
1F
100
AcDbEntity
  8
0
  6
HIDDEN
 62
     7
370
    18
100
AcDbLine
 10
384.4282803511
 20
2235.7344559585
 30
0.0
 11
501.7532989959
 21
2235.7344559585
 31
0.0
  0
LINE
  5
1CD
330
1F
100
AcDbEntity
  8
0
  6
HIDDEN
 62
     7
370
    18
100
AcDbLine
 10
384.4282803511
 20
2015.7344559585
 30
0.0
 11
501.7532989959
 21
2015.7344559585
 31
0.0
  0
LINE
  5
1CE
330
1F
100
AcDbEntity
  8
0
  6
HIDDEN
 62
     7
370
    18
100
AcDbLine
 10
321.5907896735
 20
2255.7344559585
 30
0.0
 11
564.5907896735
 21
2255.7344559585
 31
0.0
  0
LINE
  5
1CF
330
1F
100
AcDbEntity
  8
0
  6
HIDDEN
 62
     7
370
    18
100
AcDbLine
 10
564.5907896735
 20
1995.7344559585
 30
0.0
 11
321.5907896735
 21
1995.7344559585
 31
0.0
  0
LINE
  5
1D0
330
1F
100
AcDbEntity
  8
0
  6
HIDDEN
 62
     7
370
    18
100
AcDbLine
 10
899.9951732737
 20
1850.7344559585
 30
0.0
 11
966.0907896735
 21
1850.7344559585
 31
0.0
  0
LINE
  5
1D1
330
1F
100
AcDbEntity
  8
0
  6
HIDDEN
 62
     7
370
    18
100
AcDbLine
 10
816.0907896735
 20
1850.7344559585
 30
0.0
 11
899.9951732737
 21
1850.7344559585
 31
0.0
  0
LINE
  5
1D2
330
1F
100
AcDbEntity
  8
0
  6
HIDDEN
 62
     7
370
    18
100
AcDbLine
 10
899.9951732737
 20
1925.7344559585
 30
0.0
 11
966.0907896735
 21
1925.7344559585
 31
0.0
  0
LINE
  5
1D3
330
1F
100
AcDbEntity
  8
0
  6
HIDDEN
 62
     7
370
    18
100
AcDbLine
 10
816.0907896735
 20
1925.7344559585
 30
0.0
 11
899.9951732737
 21
1925.7344559585
 31
0.0
  0
LINE
  5
1D4
330
1F
100
AcDbEntity
  8
0
  6
HIDDEN
 62
     7
370
    18
100
AcDbLine
 10
368.0907896735
 20
1850.7344559585
 30
0.0
 11
518.0907896735
 21
1850.7344559585
 31
0.0
  0
LINE
  5
1D5
330
1F
100
AcDbEntity
  8
0
  6
HIDDEN
 62
     7
370
    18
100
AcDbLine
 10
368.0907896735
 20
1925.7344559585
 30
0.0
 11
518.0907896735
 21
1925.7344559585
 31
0.0
  0
LINE
  5
1D6
330
1F
100
AcDbEntity
  8
0
  6
HIDDEN
 62
     7
370
    18
100
AcDbLine
 10
1066.2907896735
 20
2310.4344559586
 30
0.0
 11
239.8907896735
 21
2310.4344559586
 31
0.0
  0
LINE
  5
1D7
330
1F
100
AcDbEntity
  8
0
  6
HIDDEN
 62
     7
370
    18
100
AcDbLine
 10
239.8907896735
 20
2310.4344559586
 30
0.0
 11
239.8907896735
 21
1984.0344559586
 31
0.0
  0
LINE
  5
1D8
330
1F
100
AcDbEntity
  8
0
  6
HIDDEN
 62
     7
370
    18
100
AcDbLine
 10
1066.2907896735
 20
1984.0344559586
 30
0.0
 11
1066.2907896735
 21
2310.4344559586
 31
0.0
  0
LINE
  5
1D9
330
1F
100
AcDbEntity
  8
0
  6
HIDDEN
 62
     7
370
    18
100
AcDbLine
 10
239.8907896735
 20
1984.0344559586
 30
0.0
 11
1066.2907896735
 21
1984.0344559586
 31
0.0
  0
CIRCLE
  5
1DA
330
1F
100
AcDbEntity
  8
0
  6
HIDDEN
 62
     7
370
    18
100
AcDbCircle
 10
253.0907896735
 20
1965.2344559585
 30
0.0
 40
6.000000000000227
  0
CIRCLE
  5
1DB
330
1F
100
AcDbEntity
  8
0
  6
HIDDEN
 62
     7
370
    18
100
AcDbCircle
 10
253.0907896735
 20
2329.2344559585
 30
0.0
 40
6.0
  0
CIRCLE
  5
1DC
330
1F
100
AcDbEntity
  8
0
  6
HIDDEN
 62
     7
370
    18
100
AcDbCircle
 10
653.0907896735
 20
2329.2344559585
 30
0.0
 40
6.0
  0
CIRCLE
  5
1DD
330
1F
100
AcDbEntity
  8
0
  6
HIDDEN
 62
     7
370
    18
100
AcDbCircle
 10
653.0907896735
 20
1965.2344559585
 30
0.0
 40
6.000000000000227
  0
CIRCLE
  5
1DE
330
1F
100
AcDbEntity
  8
0
  6
HIDDEN
 62
     7
370
    18
100
AcDbCircle
 10
1053.0907896735
 20
1965.2344559585
 30
0.0
 40
6.000000000000227
  0
CIRCLE
  5
1DF
330
1F
100
AcDbEntity
  8
0
  6
HIDDEN
 62
     7
370
    18
100
AcDbCircle
 10
1053.0907896735
 20
2329.2344559585
 30
0.0
 40
6.0
  0
LINE
  5
1E0
330
1F
100
AcDbEntity
  8
0
  6
HIDDEN
 62
     7
370
    18
100
AcDbLine
 10
1003.0907896735
 20
1847.2344559585
 30
0.0
 11
1068.0907896735
 21
1847.2344559585
 31
0.0
  0
LINE
  5
1E1
330
1F
100
AcDbEntity
  8
0
  6
HIDDEN
 62
     7
370
    18
100
AcDbLine
 10
1003.0907896735
 20
1949.2344559585
 30
0.0
 11
1003.0907896735
 21
1847.2344559585
 31
0.0
  0
LINE
  5
1E2
330
1F
100
AcDbEntity
  8
0
  6
HIDDEN
 62
     7
370
    18
100
AcDbLine
 10
268.0907896735
 20
1847.2344559585
 30
0.0
 11
333.0907896735
 21
1847.2344559585
 31
0.0
  0
LINE
  5
1E3
330
1F
100
AcDbEntity
  8
0
  6
HIDDEN
 62
     7
370
    18
100
AcDbLine
 10
333.0907896735
 20
1847.2344559585
 30
0.0
 11
333.0907896735
 21
1949.2344559585
 31
0.0
  0
LINE
  5
1E4
330
1F
100
AcDbEntity
  8
0
  6
HIDDEN
 62
     7
370
    18
100
AcDbLine
 10
1050.8907896735
 20
2347.2344559585
 30
0.0
 11
731.2907896735
 21
2347.2344559585
 31
0.0
  0
LINE
  5
1E5
330
1F
100
AcDbEntity
  8
0
  6
HIDDEN
 62
     7
370
    18
100
AcDbLine
 10
333.0907896735
 20
1947.2344559585
 30
0.0
 11
1003.0907896735
 21
1947.2344559585
 31
0.0
  0
LINE
  5
1E6
330
1F
100
AcDbEntity
  8
0
  6
HIDDEN
 62
     7
370
    18
100
AcDbLine
 10
321.5907896735
 20
1987.2344559585
 30
0.0
 11
564.5907896735
 21
1987.2344559585
 31
0.0
  0
LINE
  5
1E7
330
1F
100
AcDbEntity
  8
0
  6
HIDDEN
 62
     7
370
    18
100
AcDbLine
 10
1063.0907896735
 20
2067.6344559585
 30
0.0
 11
1063.0907896735
 21
2307.2344559585
 31
0.0
  0
LINE
  5
1E8
330
1F
100
AcDbEntity
  8
0
  6
HIDDEN
 62
     7
370
    18
100
AcDbLine
 10
1063.0907896735
 20
2307.2344559585
 30
0.0
 11
708.5907896735
 21
2307.2344559585
 31
0.0
  0
LINE
  5
1E9
330
1F
100
AcDbEntity
  8
0
  6
HIDDEN
 62
     7
370
    18
100
AcDbLine
 10
564.5907896735
 20
2307.2344559585
 30
0.0
 11
321.5907896735
 21
2307.2344559585
 31
0.0
  0
LINE
  5
1EA
330
1F
100
AcDbEntity
  8
0
  6
HIDDEN
 62
     7
370
    18
100
AcDbLine
 10
1103.0907896735
 20
2067.6344559585
 30
0.0
 11
1103.0907896735
 21
2306.8344559585
 31
0.0
  0
LINE
  5
1EB
330
1F
100
AcDbEntity
  8
0
  6
HIDDEN
 62
     7
370
    18
100
AcDbLine
 10
233.0907896735
 20
1947.2344559585
 30
0.0
 11
333.0907896735
 21
1947.2344559585
 31
0.0
  0
LINE
  5
1EC
330
1F
100
AcDbEntity
  8
0
  6
HIDDEN
 62
     7
370
    18
100
AcDbLine
 10
1003.0907896735
 20
1947.2344559585
 30
0.0
 11
1103.0907896735
 21
1947.2344559585
 31
0.0
  0
LINE
  5
1ED
330
1F
100
AcDbEntity
  8
0
  6
HIDDEN
 62
     7
370
    18
100
AcDbLine
 10
1068.0907896735
 20
2312.2344559585
 30
0.0
 11
238.0907896735
 21
2312.2344559585
 31
0.0
  0
LINE
  5
1EE
330
1F
100
AcDbEntity
  8
0
  6
HIDDEN
 62
     7
370
    18
100
AcDbLine
 10
238.0907896735
 20
2312.2344559585
 30
0.0
 11
238.0907896735
 21
1982.2344559585
 31
0.0
  0
LINE
  5
1EF
330
1F
100
AcDbEntity
  8
0
  6
HIDDEN
 62
     7
370
    18
100
AcDbLine
 10
1068.0907896735
 20
1982.2344559585
 30
0.0
 11
1068.0907896735
 21
2312.2344559585
 31
0.0
  0
LINE
  5
1F0
330
1F
100
AcDbEntity
  8
0
  6
HIDDEN
 62
     7
370
    18
100
AcDbLine
 10
238.0907896735
 20
1982.2344559585
 30
0.0
 11
1068.0907896735
 21
1982.2344559585
 31
0.0
  0
CIRCLE
  5
1F1
330
1F
100
AcDbEntity
  8
0
  6
HIDDEN
 62
     7
370
    18
100
AcDbCircle
 10
243.0907896735
 20
2327.2344559585
 30
0.0
 40
17.49999999999955
  0
CIRCLE
  5
1F2
330
1F
100
AcDbEntity
  8
0
  6
HIDDEN
 62
     7
370
    18
100
AcDbCircle
 10
1063.0907896735
 20
2327.2344559585
 30
0.0
 40
17.49999999999955
  0
CIRCLE
  5
1F3
330
1F
100
AcDbEntity
  8
0
  6
HIDDEN
 62
     7
370
    18
100
AcDbCircle
 10
1063.0907896735
 20
1967.2344559585
 30
0.0
 40
17.49999999999977
  0
CIRCLE
  5
1F4
330
1F
100
AcDbEntity
  8
0
  6
HIDDEN
 62
     7
370
    18
100
AcDbCircle
 10
243.0907896735
 20
1967.2344559585
 30
0.0
 40
17.49999999999977
  0
LINE
  5
1F5
330
1F
100
AcDbEntity
  8
0
  6
HIDDEN
 62
     7
370
    18
100
AcDbLine
 10
617.0907896735
 20
2069.2344559585
 30
0.0
 11
617.0907896735
 21
2305.2344559585
 31
0.0
  0
LINE
  5
1F6
330
1F
100
AcDbEntity
  8
0
  6
HIDDEN
 62
     7
370
    18
100
AcDbLine
 10
617.0907896735
 20
2069.2344559585
 30
0.0
 11
867.0907896735
 21
2069.2344559585
 31
0.0
  0
LINE
  5
1F7
330
1F
100
AcDbEntity
  8
0
  6
HIDDEN
 62
     7
370
    18
100
AcDbLine
 10
617.0907896735
 20
2305.2344559585
 30
0.0
 11
867.0907896735
 21
2305.2344559585
 31
0.0
  0
LINE
  5
1F8
330
1F
100
AcDbEntity
  8
0
  6
HIDDEN
 62
     7
370
    18
100
AcDbLine
 10
867.0907896735
 20
2305.2344559585
 30
0.0
 11
872.5907896735
 21
2305.2344559585
 31
0.0
  0
LINE
  5
1F9
330
1F
100
AcDbEntity
  8
0
  6
HIDDEN
 62
     7
370
    18
100
AcDbLine
 10
872.5907896735
 20
2069.2344559585
 30
0.0
 11
1080.0907896735
 21
2069.2344559585
 31
0.0
  0
LINE
  5
1FA
330
1F
100
AcDbEntity
  8
0
  6
HIDDEN
 62
     7
370
    18
100
AcDbLine
 10
1080.0907896735
 20
2069.2344559585
 30
0.0
 11
1080.0907896735
 21
2305.2344559585
 31
0.0
  0
LINE
  5
1FB
330
1F
100
AcDbEntity
  8
0
  6
HIDDEN
 62
     7
370
    18
100
AcDbLine
 10
872.5907896735
 20
2305.2344559585
 30
0.0
 11
1080.0907896735
 21
2305.2344559585
 31
0.0
  0
LINE
  5
1FC
330
1F
100
AcDbEntity
  8
0
  6
HIDDEN
 62
     7
370
    18
100
AcDbLine
 10
867.0907896735
 20
2069.2344559585
 30
0.0
 11
872.5907896735
 21
2069.2344559585
 31
0.0
  0
LINE
  5
1FD
330
1F
100
AcDbEntity
  8
0
  6
HIDDEN
 62
     7
370
    18
100
AcDbLine
 10
1080.0907896735
 20
2069.2344559585
 30
0.0
 11
1136.0907896735
 21
2069.2344559585
 31
0.0
  0
LINE
  5
1FE
330
1F
100
AcDbEntity
  8
0
  6
HIDDEN
 62
     7
370
    18
100
AcDbLine
 10
1080.0907896735
 20
2305.2344559585
 30
0.0
 11
1136.0907896735
 21
2305.2344559585
 31
0.0
  0
LINE
  5
1FF
330
1F
100
AcDbEntity
  8
0
  6
HIDDEN
 62
     7
370
    18
100
AcDbLine
 10
457.0907896735
 20
1925.7344559585
 30
0.0
 11
457.0907896735
 21
1949.2344559585
 31
0.0
  0
LINE
  5
200
330
1F
100
AcDbEntity
  8
0
  6
HIDDEN
 62
     7
370
    18
100
AcDbLine
 10
429.0907896735
 20
1949.2344559585
 30
0.0
 11
429.0907896735
 21
1925.7344559585
 31
0.0
  0
LINE
  5
201
330
1F
100
AcDbEntity
  8
0
  6
HIDDEN
 62
     7
370
    18
100
AcDbLine
 10
966.0907896735
 20
1850.7344559585
 30
0.0
 11
966.0907896735
 21
1925.7344559585
 31
0.0
  0
LINE
  5
202
330
1F
100
AcDbEntity
  8
0
  6
HIDDEN
 62
     7
370
    18
100
AcDbLine
 10
816.0907896735
 20
1925.7344559585
 30
0.0
 11
816.0907896735
 21
1850.7344559585
 31
0.0
  0
LINE
  5
203
330
1F
100
AcDbEntity
  8
0
  6
HIDDEN
 62
     7
370
    18
100
AcDbLine
 10
518.0907896735
 20
1850.7344559585
 30
0.0
 11
518.0907896735
 21
1925.7344559585
 31
0.0
  0
LINE
  5
204
330
1F
100
AcDbEntity
  8
0
  6
HIDDEN
 62
     7
370
    18
100
AcDbLine
 10
368.0907896735
 20
1925.7344559585
 30
0.0
 11
368.0907896735
 21
1850.7344559585
 31
0.0
  0
LINE
  5
205
330
1F
100
AcDbEntity
  8
0
  6
HIDDEN
 62
     7
370
    18
100
AcDbLine
 10
931.7370749537
 20
2359.2344559585
 30
0.0
 11
931.7370749537
 21
2356.9344559585
 31
0.0
  0
LINE
  5
206
330
1F
100
AcDbEntity
  8
0
  6
HIDDEN
 62
     7
370
    18
100
AcDbLine
 10
939.7370749537
 20
2356.9344559585
 30
0.0
 11
939.7370749537
 21
2359.2344559585
 31
0.0
  0
LINE
  5
207
330
1F
100
AcDbEntity
  8
0
  6
HIDDEN
 62
     7
370
    18
100
AcDbLine
 10
842.4445043933
 20
2359.2344559585
 30
0.0
 11
842.4445043933
 21
2356.9344559585
 31
0.0
  0
LINE
  5
208
330
1F
100
AcDbEntity
  8
0
  6
HIDDEN
 62
     7
370
    18
100
AcDbLine
 10
850.4445043933
 20
2356.9344559585
 30
0.0
 11
850.4445043933
 21
2359.2344559585
 31
0.0
  0
LINE
  5
209
330
1F
100
AcDbEntity
  8
0
  6
HIDDEN
 62
     7
370
    18
100
AcDbLine
 10
1048.5907896735
 20
2305.2344559585
 30
0.0
 11
1048.5907896735
 21
2359.2344559585
 31
0.0
  0
LINE
  5
20A
330
1F
100
AcDbEntity
  8
0
  6
HIDDEN
 62
     7
370
    18
100
AcDbLine
 10
733.5907896735
 20
2359.2344559585
 30
0.0
 11
733.5907896735
 21
2305.2344559585
 31
0.0
  0
LINE
  5
20B
330
1F
100
AcDbEntity
  8
0
  6
HIDDEN
 62
     7
370
    18
100
AcDbLine
 10
765.1148699188
 20
2359.2344559585
 30
0.0
 11
765.1148699188
 21
2356.9344559585
 31
0.0
  0
LINE
  5
20C
330
1F
100
AcDbEntity
  8
0
  6
HIDDEN
 62
     7
370
    18
100
AcDbLine
 10
773.1148699188
 20
2356.9344559585
 30
0.0
 11
773.1148699188
 21
2359.2344559585
 31
0.0
  0
LINE
  5
20D
330
1F
100
AcDbEntity
  8
0
  6
HIDDEN
 62
     7
370
    18
100
AcDbLine
 10
1009.0667094282
 20
2359.2344559585
 30
0.0
 11
1009.0667094282
 21
2356.9344559585
 31
0.0
  0
LINE
  5
20E
330
1F
100
AcDbEntity
  8
0
  6
HIDDEN
 62
     7
370
    18
100
AcDbLine
 10
1017.0667094282
 20
2356.9344559585
 30
0.0
 11
1017.0667094282
 21
2359.2344559585
 31
0.0
  0
LINE
  5
20F
330
1F
100
AcDbEntity
  8
0
  6
HIDDEN
 62
     7
370
    18
100
AcDbLine
 10
720.4685846387
 20
2359.2344559585
 30
0.0
 11
720.4685846387
 21
2356.9344559585
 31
0.0
  0
LINE
  5
210
330
1F
100
AcDbEntity
  8
0
  6
HIDDEN
 62
     7
370
    18
100
AcDbLine
 10
728.4685846387
 20
2356.9344559585
 30
0.0
 11
728.4685846387
 21
2359.2344559585
 31
0.0
  0
LINE
  5
211
330
1F
100
AcDbEntity
  8
0
  6
HIDDEN
 62
     7
370
    18
100
AcDbLine
 10
1053.7129947084
 20
2359.2344559585
 30
0.0
 11
1053.7129947084
 21
2356.9344559585
 31
0.0
  0
LINE
  5
212
330
1F
100
AcDbEntity
  8
0
  6
HIDDEN
 62
     7
370
    18
100
AcDbLine
 10
1061.7129947084
 20
2356.9344559585
 30
0.0
 11
1061.7129947084
 21
2359.2344559585
 31
0.0
  0
LINE
  5
213
330
1F
100
AcDbEntity
  8
0
  6
HIDDEN
 62
     7
370
    18
100
AcDbLine
 10
1136.0907896735
 20
2326.2344559585
 30
0.0
 11
1133.0907896735
 21
2326.2344559585
 31
0.0
  0
LINE
  5
214
330
1F
100
AcDbEntity
  8
0
  6
HIDDEN
 62
     7
370
    18
100
AcDbLine
 10
1133.0907896735
 20
2318.2344559585
 30
0.0
 11
1136.0907896735
 21
2318.2344559585
 31
0.0
  0
LINE
  5
215
330
1F
100
AcDbEntity
  8
0
  6
HIDDEN
 62
     7
370
    18
100
AcDbLine
 10
1136.0907896735
 20
2241.2344559585
 30
0.0
 11
1133.0907896735
 21
2241.2344559585
 31
0.0
  0
LINE
  5
216
330
1F
100
AcDbEntity
  8
0
  6
HIDDEN
 62
     7
370
    18
100
AcDbLine
 10
1133.0907896735
 20
2233.2344559585
 30
0.0
 11
1136.0907896735
 21
2233.2344559585
 31
0.0
  0
LINE
  5
217
330
1F
100
AcDbEntity
  8
0
  6
HIDDEN
 62
     7
370
    18
100
AcDbLine
 10
1136.0907896735
 20
2141.2344559585
 30
0.0
 11
1133.0907896735
 21
2141.2344559585
 31
0.0
  0
LINE
  5
218
330
1F
100
AcDbEntity
  8
0
  6
HIDDEN
 62
     7
370
    18
100
AcDbLine
 10
1133.0907896735
 20
2133.2344559585
 30
0.0
 11
1136.0907896735
 21
2133.2344559585
 31
0.0
  0
LINE
  5
219
330
1F
100
AcDbEntity
  8
0
  6
HIDDEN
 62
     7
370
    18
100
AcDbLine
 10
1136.0907896735
 20
2056.2344559585
 30
0.0
 11
1133.0907896735
 21
2056.2344559585
 31
0.0
  0
LINE
  5
21A
330
1F
100
AcDbEntity
  8
0
  6
HIDDEN
 62
     7
370
    18
100
AcDbLine
 10
1133.0907896735
 20
2048.2344559585
 30
0.0
 11
1136.0907896735
 21
2048.2344559585
 31
0.0
  0
CIRCLE
  5
21B
330
1F
100
AcDbEntity
  8
基礎穴
100
AcDbCircle
 10
253.0907896735
 20
1965.2344559585
 30
0.0
 40
5.99999999999993
  0
CIRCLE
  5
21C
330
1F
100
AcDbEntity
  8
基礎穴
100
AcDbCircle
 10
653.0907896735
 20
1965.2344559585
 30
0.0
 40
5.999999999999956
  0
CIRCLE
  5
21D
330
1F
100
AcDbEntity
  8
基礎穴
100
AcDbCircle
 10
1053.0907896735
 20
1965.2344559585
 30
0.0
 40
5.999999999999848
  0
CIRCLE
  5
21E
330
1F
100
AcDbEntity
  8
基礎穴
100
AcDbCircle
 10
1053.0907896735
 20
2329.2344559585
 30
0.0
 40
5.999999999999782
  0
CIRCLE
  5
21F
330
1F
100
AcDbEntity
  8
基礎穴
100
AcDbCircle
 10
653.0907896735
 20
2329.2344559585
 30
0.0
 40
5.99999999999989
  0
CIRCLE
  5
220
330
1F
100
AcDbEntity
  8
基礎穴
100
AcDbCircle
 10
253.0907896735
 20
2329.2344559585
 30
0.0
 40
5.999999999999862
  0
LINE
  5
221
330
1F
100
AcDbEntity
  8
2
100
AcDbLine
 10
891.0907896735
 20
1833.7696698846
 30
0.0
 11
891.0907896735
 21
2349.130183362
 31
0.0
  0
LINE
  5
222
330
1F
100
AcDbEntity
  8
2
100
AcDbLine
 10
448.9880325639
 20
2187.2344559585
 30
0.0
 11
1123.9016074266
 21
2187.2344559585
 31
0.0
  0
ENDSEC
  0
SECTION
  2
OBJECTS
  0
DICTIONARY
  5
C
330
0
100
AcDbDictionary
281
     1
  3
ACAD_GROUP
350
D
  3
ACAD_LAYOUT
350
1A
  3
ACAD_MLINESTYLE
350
17
  3
ACAD_PLOTSETTINGS
350
19
  3
ACAD_PLOTSTYLENAME
350
E
  3
ACAD_SCALELIST
350
47
  3
DWGPROPS
350
223
  0
DICTIONARY
  5
D
102
{ACAD_REACTORS
330
C
102
}
330
C
100
AcDbDictionary
281
     1
  0
DICTIONARY
  5
1A
102
{ACAD_REACTORS
330
C
102
}
330
C
100
AcDbDictionary
281
     1
  3
Layout1
350
1E
  3
Layout2
350
26
  3
Model
350
22
  0
DICTIONARY
  5
17
102
{ACAD_REACTORS
330
C
102
}
330
C
100
AcDbDictionary
281
     1
  3
Standard
350
18
  0
DICTIONARY
  5
19
102
{ACAD_REACTORS
330
C
102
}
330
C
100
AcDbDictionary
281
     1
  0
ACDBDICTIONARYWDFLT
  5
E
102
{ACAD_REACTORS
330
C
102
}
330
C
100
AcDbDictionary
281
     1
  3
Normal
350
F
100
AcDbDictionaryWithDefault
340
F
  0
DICTIONARY
  5
47
102
{ACAD_REACTORS
330
C
102
}
330
C
100
AcDbDictionary
281
     1
  3
A0
350
48
  3
A1
350
49
  3
A2
350
4A
  3
A3
350
4B
  3
A4
350
4C
  3
A5
350
4D
  3
A6
350
4E
  3
A7
350
4F
  3
A8
350
50
  3
A9
350
51
  3
B0
350
52
  3
B1
350
53
  3
B2
350
54
  3
B3
350
55
  3
B4
350
56
  3
B5
350
57
  3
B6
350
58
  0
XRECORD
  5
223
102
{ACAD_REACTORS
330
C
102
}
330
C
100
AcDbXrecord
280
     1
  1
DWGPROPS COOKIE
  2

  3

  4

  6

  7

  8
yuta.kunimatsu
  9

300
=
301
=
302
=
303
=
304
=
305
=
306
=
307
=
308
=
309
=
 40
0.0
 41
2460115.246906493
 42
2460115.246906921
  1

 90
        0
  0
LAYOUT
  5
1E
102
{ACAD_REACTORS
330
1A
102
}
330
1A
100
AcDbPlotSettings
  1

  2
none_device
  4

  6

 40
0.0
 41
0.0
 42
0.0
 43
0.0
 44
0.0
 45
0.0
 46
0.0
 47
0.0
 48
0.0
 49
0.0
140
0.0
141
0.0
142
1.0
143
1.0
 70
   688
 72
     1
 73
     0
 74
     5
  7

 75
    16
147
1.0
148
0.0
149
0.0
100
AcDbLayout
  1
Layout1
 70
     1
 71
     1
 10
0.0
 20
0.0
 11
420.0
 21
297.0
 12
0.0
 22
0.0
 32
0.0
 14
1.0000000000E+20
 24
1.0000000000E+20
 34
1.0000000000E+20
 15
-1.0000000000E+20
 25
-1.0000000000E+20
 35
-1.0000000000E+20
146
0.0
 13
0.0
 23
0.0
 33
0.0
 16
1.0
 26
0.0
 36
0.0
 17
0.0
 27
1.0
 37
0.0
 76
     0
330
1B
  0
LAYOUT
  5
26
102
{ACAD_REACTORS
330
1A
102
}
330
1A
100
AcDbPlotSettings
  1

  2
none_device
  4

  6

 40
0.0
 41
0.0
 42
0.0
 43
0.0
 44
0.0
 45
0.0
 46
0.0
 47
0.0
 48
0.0
 49
0.0
140
0.0
141
0.0
142
1.0
143
1.0
 70
   688
 72
     1
 73
     0
 74
     5
  7

 75
    16
147
1.0
148
0.0
149
0.0
100
AcDbLayout
  1
Layout2
 70
     1
 71
     2
 10
0.0
 20
0.0
 11
0.0
 21
0.0
 12
0.0
 22
0.0
 32
0.0
 14
0.0
 24
0.0
 34
0.0
 15
0.0
 25
0.0
 35
0.0
146
0.0
 13
0.0
 23
0.0
 33
0.0
 16
1.0
 26
0.0
 36
0.0
 17
0.0
 27
1.0
 37
0.0
 76
     0
330
23
  0
LAYOUT
  5
22
102
{ACAD_REACTORS
330
1A
102
}
330
1A
100
AcDbPlotSettings
  1

  2
none_device
  4
Letter_(8.50_x_11.00_Inches)
  6

 40
6.35
 41
6.35
 42
6.35000508
 43
6.35000508
 44
215.9
 45
279.4
 46
0.0
 47
0.0
 48
0.0
 49
0.0
140
0.0
141
0.0
142
1.0
143
1.0
 70
  1712
 72
     1
 73
     0
 74
     0
  7

 75
     0
147
1.0
148
0.0
149
0.0
100
AcDbLayout
  1
Model
 70
     1
 71
     0
 10
0.0
 20
0.0
 11
2100.0
 21
2970.0
 12
0.0
 22
0.0
 32
0.0
 14
0.0
 24
0.0
 34
0.0
 15
2100.0
 25
2970.0
 35
0.0
146
0.0
 13
0.0
 23
0.0
 33
0.0
 16
1.0
 26
0.0
 36
0.0
 17
0.0
 27
1.0
 37
0.0
 76
     0
330
1F
331
29
  0
MLINESTYLE
  5
18
102
{ACAD_REACTORS
330
17
102
}
330
17
100
AcDbMlineStyle
  2
Standard
 70
     0
  3

 62
   256
 51
90.0
 52
90.0
 71
     2
 49
0.5
 62
   256
  6
BYLAYER
 49
-0.5
 62
   256
  6
BYLAYER
  0
ACDBPLACEHOLDER
  5
F
102
{ACAD_REACTORS
330
E
102
}
330
E
  0
SCALE
  5
48
102
{ACAD_REACTORS
330
47
102
}
330
47
100
AcDbScale
 70
     0
300
1:1
140
1.0
141
1.0
290
     1
  0
SCALE
  5
49
102
{ACAD_REACTORS
330
47
102
}
330
47
100
AcDbScale
 70
     0
300
1:2
140
1.0
141
2.0
290
     0
  0
SCALE
  5
4A
102
{ACAD_REACTORS
330
47
102
}
330
47
100
AcDbScale
 70
     0
300
1:4
140
1.0
141
4.0
290
     0
  0
SCALE
  5
4B
102
{ACAD_REACTORS
330
47
102
}
330
47
100
AcDbScale
 70
     0
300
1:5
140
1.0
141
5.0
290
     0
  0
SCALE
  5
4C
102
{ACAD_REACTORS
330
47
102
}
330
47
100
AcDbScale
 70
     0
300
1:8
140
1.0
141
8.0
290
     0
  0
SCALE
  5
4D
102
{ACAD_REACTORS
330
47
102
}
330
47
100
AcDbScale
 70
     0
300
1:10
140
1.0
141
10.0
290
     0
  0
SCALE
  5
4E
102
{ACAD_REACTORS
330
47
102
}
330
47
100
AcDbScale
 70
     0
300
1:16
140
1.0
141
16.0
290
     0
  0
SCALE
  5
4F
102
{ACAD_REACTORS
330
47
102
}
330
47
100
AcDbScale
 70
     0
300
1:20
140
1.0
141
20.0
290
     0
  0
SCALE
  5
50
102
{ACAD_REACTORS
330
47
102
}
330
47
100
AcDbScale
 70
     0
300
1:30
140
1.0
141
30.0
290
     0
  0
SCALE
  5
51
102
{ACAD_REACTORS
330
47
102
}
330
47
100
AcDbScale
 70
     0
300
1:40
140
1.0
141
40.0
290
     0
  0
SCALE
  5
52
102
{ACAD_REACTORS
330
47
102
}
330
47
100
AcDbScale
 70
     0
300
1:50
140
1.0
141
50.0
290
     0
  0
SCALE
  5
53
102
{ACAD_REACTORS
330
47
102
}
330
47
100
AcDbScale
 70
     0
300
1:100
140
1.0
141
100.0
290
     0
  0
SCALE
  5
54
102
{ACAD_REACTORS
330
47
102
}
330
47
100
AcDbScale
 70
     0
300
2:1
140
2.0
141
1.0
290
     0
  0
SCALE
  5
55
102
{ACAD_REACTORS
330
47
102
}
330
47
100
AcDbScale
 70
     0
300
4:1
140
4.0
141
1.0
290
     0
  0
SCALE
  5
56
102
{ACAD_REACTORS
330
47
102
}
330
47
100
AcDbScale
 70
     0
300
8:1
140
8.0
141
1.0
290
     0
  0
SCALE
  5
57
102
{ACAD_REACTORS
330
47
102
}
330
47
100
AcDbScale
 70
     0
300
10:1
140
10.0
141
1.0
290
     0
  0
SCALE
  5
58
102
{ACAD_REACTORS
330
47
102
}
330
47
100
AcDbScale
 70
     0
300
100:1
140
100.0
141
1.0
290
     0
  0
ENDSEC
  0
EOF
