  0
SECTION
  2
HEADER
  9
$ACADVER
  1
AC1015
  9
$ACADMAINTVER
 70
     6
  9
$DWGCODEPAGE
  3
DOS932
  9
$INSBASE
 10
0.0
 20
0.0
 30
0.0
  9
$EXTMIN
 10
0.0
 20
0.0
 30
0.0
  9
$EXTMAX
 10
2100.0
 20
2970.0
 30
0.0
  9
$LIMMIN
 10
0.0
 20
0.0
  9
$LIMMAX
 10
2100.0
 20
2970.0
  9
$ORTHOMODE
 70
     0
  9
$REGENMODE
 70
     1
  9
$FILLMODE
 70
     1
  9
$QTEXTMODE
 70
     0
  9
$MIRRTEXT
 70
     1
  9
$LTSCALE
 40
10.0
  9
$ATTMODE
 70
     1
  9
$TEXTSIZE
 40
35.2777777778
  9
$TRACEWID
 40
1.0
  9
$TEXTSTYLE
  7
Standard
  9
$CLAYER
  8
0
  9
$CELTYPE
  6
ByLayer
  9
$CECOLOR
 62
   256
  9
$CELTSCALE
 40
1.0
  9
$DISPSILH
 70
     0
  9
$DIMSCALE
 40
1.0
  9
$DIMASZ
 40
15.0
  9
$DIMEXO
 40
10.0
  9
$DIMDLI
 40
3.75
  9
$DIMRND
 40
0.0
  9
$DIMDLE
 40
0.0
  9
$DIMEXE
 40
10.0
  9
$DIMTP
 40
0.0
  9
$DIMTM
 40
0.0
  9
$DIMTXT
 40
35.2777777778
  9
$DIMCEN
 40
2.5
  9
$DIMTSZ
 40
0.0
  9
$DIMTOL
 70
     0
  9
$DIMLIM
 70
     0
  9
$DIMTIH
 70
     1
  9
$DIMTOH
 70
     1
  9
$DIMSE1
 70
     0
  9
$DIMSE2
 70
     0
  9
$DIMTAD
 70
     1
  9
$DIMZIN
 70
     0
  9
$DIMBLK
  1

  9
$DIMASO
 70
     1
  9
$DIMSHO
 70
     1
  9
$DIMPOST
  1

  9
$DIMAPOST
  1

  9
$DIMALT
 70
     0
  9
$DIMALTD
 70
     3
  9
$DIMALTF
 40
0.0393700787
  9
$DIMLFAC
 40
1.0
  9
$DIMTOFL
 70
     1
  9
$DIMTVP
 40
0.0
  9
$DIMTIX
 70
     0
  9
$DIMSOXD
 70
     0
  9
$DIMSAH
 70
     0
  9
$DIMBLK1
  1

  9
$DIMBLK2
  1

  9
$DIMSTYLE
  2
ISO-25
  9
$DIMCLRD
 70
     0
  9
$DIMCLRE
 70
     0
  9
$DIMCLRT
 70
     0
  9
$DIMTFAC
 40
1.0
  9
$DIMGAP
 40
15.24
  9
$DIMJUST
 70
     0
  9
$DIMSD1
 70
     0
  9
$DIMSD2
 70
     0
  9
$DIMTOLJ
 70
     0
  9
$DIMTZIN
 70
     0
  9
$DIMALTZ
 70
     0
  9
$DIMALTTZ
 70
     0
  9
$DIMUPT
 70
     0
  9
$DIMDEC
 70
     0
  9
$DIMTDEC
 70
     0
  9
$DIMALTU
 70
     2
  9
$DIMALTTD
 70
     3
  9
$DIMTXSTY
  7
Standard
  9
$DIMAUNIT
 70
     0
  9
$DIMADEC
 70
     2
  9
$DIMALTRND
 40
0.0
  9
$DIMAZIN
 70
     0
  9
$DIMDSEP
 70
    44
  9
$DIMATFIT
 70
     3
  9
$DIMFRAC
 70
     0
  9
$DIMLDRBLK
  1

  9
$DIMLUNIT
 70
     2
  9
$DIMLWD
 70
    -2
  9
$DIMLWE
 70
    -2
  9
$DIMTMOVE
 70
     0
  9
$LUNITS
 70
     2
  9
$LUPREC
 70
     2
  9
$SKETCHINC
 40
1.0
  9
$FILLETRAD
 40
0.0
  9
$AUNITS
 70
     0
  9
$AUPREC
 70
     2
  9
$MENU
  1
.
  9
$ELEVATION
 40
0.0
  9
$PELEVATION
 40
0.0
  9
$THICKNESS
 40
0.0
  9
$LIMCHECK
 70
     0
  9
$CHAMFERA
 40
0.0
  9
$CHAMFERB
 40
0.0
  9
$CHAMFERC
 40
0.0
  9
$CHAMFERD
 40
0.0
  9
$SKPOLY
 70
     0
  9
$TDCREATE
 40
2460115.621359873
  9
$TDUCREATE
 40
2460115.246359873
  9
$TDUPDATE
 40
2460115.621360301
  9
$TDUUPDATE
 40
2460115.246360301
  9
$TDINDWG
 40
0.0000000116
  9
$TDUSRTIMER
 40
0.0000000116
  9
$USRTIMER
 70
     1
  9
$ANGBASE
 50
0.0
  9
$ANGDIR
 70
     0
  9
$PDMODE
 70
     0
  9
$PDSIZE
 40
-1.0
  9
$PLINEWID
 40
0.0
  9
$SPLFRAME
 70
     0
  9
$SPLINETYPE
 70
     6
  9
$SPLINESEGS
 70
     8
  9
$HANDSEED
  5
209
  9
$SURFTAB1
 70
     6
  9
$SURFTAB2
 70
     6
  9
$SURFTYPE
 70
     6
  9
$SURFU
 70
     6
  9
$SURFV
 70
     6
  9
$UCSBASE
  2

  9
$UCSNAME
  2

  9
$UCSORG
 10
0.0
 20
0.0
 30
0.0
  9
$UCSXDIR
 10
1.0
 20
0.0
 30
0.0
  9
$UCSYDIR
 10
0.0
 20
1.0
 30
0.0
  9
$UCSORTHOREF
  2

  9
$UCSORTHOVIEW
 70
     0
  9
$UCSORGTOP
 10
0.0
 20
0.0
 30
0.0
  9
$UCSORGBOTTOM
 10
0.0
 20
0.0
 30
0.0
  9
$UCSORGLEFT
 10
0.0
 20
0.0
 30
0.0
  9
$UCSORGRIGHT
 10
0.0
 20
0.0
 30
0.0
  9
$UCSORGFRONT
 10
0.0
 20
0.0
 30
0.0
  9
$UCSORGBACK
 10
0.0
 20
0.0
 30
0.0
  9
$PUCSBASE
  2

  9
$PUCSNAME
  2

  9
$PUCSORG
 10
0.0
 20
0.0
 30
0.0
  9
$PUCSXDIR
 10
1.0
 20
0.0
 30
0.0
  9
$PUCSYDIR
 10
0.0
 20
1.0
 30
0.0
  9
$PUCSORTHOREF
  2

  9
$PUCSORTHOVIEW
 70
     0
  9
$PUCSORGTOP
 10
0.0
 20
0.0
 30
0.0
  9
$PUCSORGBOTTOM
 10
0.0
 20
0.0
 30
0.0
  9
$PUCSORGLEFT
 10
0.0
 20
0.0
 30
0.0
  9
$PUCSORGRIGHT
 10
0.0
 20
0.0
 30
0.0
  9
$PUCSORGFRONT
 10
0.0
 20
0.0
 30
0.0
  9
$PUCSORGBACK
 10
0.0
 20
0.0
 30
0.0
  9
$USERI1
 70
     0
  9
$USERI2
 70
     0
  9
$USERI3
 70
     0
  9
$USERI4
 70
     0
  9
$USERI5
 70
     0
  9
$USERR1
 40
0.0
  9
$USERR2
 40
0.0
  9
$USERR3
 40
0.0
  9
$USERR4
 40
0.0
  9
$USERR5
 40
0.0
  9
$WORLDVIEW
 70
     1
  9
$SHADEDGE
 70
     3
  9
$SHADEDIF
 70
    70
  9
$TILEMODE
 70
     1
  9
$MAXACTVP
 70
    64
  9
$PINSBASE
 10
0.0
 20
0.0
 30
0.0
  9
$PLIMCHECK
 70
     0
  9
$PEXTMIN
 10
1.0000000000E+20
 20
1.0000000000E+20
 30
1.0000000000E+20
  9
$PEXTMAX
 10
-1.0000000000E+20
 20
-1.0000000000E+20
 30
-1.0000000000E+20
  9
$PLIMMIN
 10
0.0
 20
0.0
  9
$PLIMMAX
 10
420.0
 20
297.0
  9
$UNITMODE
 70
     0
  9
$VISRETAIN
 70
     1
  9
$PLINEGEN
 70
     0
  9
$PSLTSCALE
 70
     1
  9
$TREEDEPTH
 70
  3020
  9
$CMLSTYLE
  2
Standard
  9
$CMLJUST
 70
     0
  9
$CMLSCALE
 40
20.0
  9
$PROXYGRAPHICS
 70
     1
  9
$MEASUREMENT
 70
     1
  9
$CELWEIGHT
370
    -1
  9
$ENDCAPS
280
     0
  9
$JOINSTYLE
280
     0
  9
$LWDISPLAY
290
     1
  9
$INSUNITS
 70
     4
  9
$HYPERLINKBASE
  1

  9
$STYLESHEET
  1

  9
$XEDIT
290
     1
  9
$CEPSNTYPE
380
     0
  9
$PSTYLEMODE
290
     1
  9
$FINGERPRINTGUID
  2
{91e30f66-96ea-4ed8-87ed-fac277fadd26}
  9
$VERSIONGUID
  2
{FAEB1C32-E019-11D5-929B-00C0DF256EC4}
  9
$EXTNAMES
290
     1
  9
$PSVPSCALE
 40
0.0
  9
$OLESTARTUP
290
     0
  0
ENDSEC
  0
SECTION
  2
CLASSES
  0
CLASS
  1
ACDBDICTIONARYWDFLT
  2
AcDbDictionaryWithDefault
  3
ObjectDBX Classes
 90
        0
280
     0
281
     0
  0
CLASS
  1
VISUALSTYLE
  2
AcDbVisualStyle
  3
ObjectDBX Classes
 90
     4095
280
     0
281
     0
  0
CLASS
  1
MATERIAL
  2
AcDbMaterial
  3
ObjectDBX Classes
 90
     1153
280
     0
281
     0
  0
CLASS
  1
SCALE
  2
AcDbScale
  3
ObjectDBX Classes
 90
     1153
280
     0
281
     0
  0
CLASS
  1
TABLESTYLE
  2
AcDbTableStyle
  3
ObjectDBX Classes
 90
     4095
280
     0
281
     0
  0
CLASS
  1
MLEADERSTYLE
  2
AcDbMLeaderStyle
  3
ACDB_MLEADERSTYLE_CLASS
 90
     4095
280
     0
281
     0
  0
CLASS
  1
SUN
  2
AcDbSun
  3
SCENEOE
 90
     1153
280
     0
281
     0
  0
CLASS
  1
ACDBPLACEHOLDER
  2
AcDbPlaceHolder
  3
ObjectDBX Classes
 90
        0
280
     0
281
     0
  0
CLASS
  1
LAYOUT
  2
AcDbLayout
  3
ObjectDBX Classes
 90
        0
280
     0
281
     0
  0
ENDSEC
  0
SECTION
  2
TABLES
  0
TABLE
  2
VPORT
  5
8
330
0
100
AcDbSymbolTable
 70
     1
  0
VPORT
  5
29
330
8
100
AcDbSymbolTableRecord
100
AcDbViewportTableRecord
  2
*Active
 70
     0
 10
0.0
 20
0.0
 11
1.0
 21
1.0
 12
1050.0
 22
1485.0
 13
0.0
 23
0.0
 14
10.0
 24
10.0
 15
10.0
 25
10.0
 16
0.0
 26
0.0
 36
1.0
 17
0.0
 27
0.0
 37
0.0
 40
2970.0
 41
0.7070707071
 42
50.0
 43
0.0
 44
0.0
 50
0.0
 51
0.0
 71
     0
 72
  2000
 73
     1
 74
     3
 75
     0
 76
     0
 77
     0
 78
     0
281
     0
 65
     1
110
0.0
120
0.0
130
0.0
111
1.0
121
0.0
131
0.0
112
0.0
122
1.0
132
0.0
 79
     0
146
0.0
  0
ENDTAB
  0
TABLE
  2
LTYPE
  5
5
330
0
100
AcDbSymbolTable
 70
     6
  0
LTYPE
  5
14
330
5
100
AcDbSymbolTableRecord
100
AcDbLinetypeTableRecord
  2
ByBlock
 70
     0
  3

 72
    65
 73
     0
 40
0.0
  0
LTYPE
  5
15
330
5
100
AcDbSymbolTableRecord
100
AcDbLinetypeTableRecord
  2
ByLayer
 70
     0
  3

 72
    65
 73
     0
 40
0.0
  0
LTYPE
  5
16
330
5
100
AcDbSymbolTableRecord
100
AcDbLinetypeTableRecord
  2
Continuous
 70
     0
  3
Solid line
 72
    65
 73
     0
 40
0.0
  0
LTYPE
  5
5E
330
5
100
AcDbSymbolTableRecord
100
AcDbLinetypeTableRecord
  2
HIDDEN
 70
     0
  3
Hidden __ __ __ __ __ __ __ __ __ __ __ __ __ __
 72
    65
 73
     2
 40
1.905
 49
1.27
 74
     0
 49
-0.635
 74
     0
  0
LTYPE
  5
5F
330
5
100
AcDbSymbolTableRecord
100
AcDbLinetypeTableRecord
  2
PHANTOM
 70
     0
  3
Phantom ______  __  __  ______  __  __  ______
 72
    65
 73
     6
 40
12.7
 49
6.35
 74
     0
 49
-1.27
 74
     0
 49
1.27
 74
     0
 49
-1.27
 74
     0
 49
1.27
 74
     0
 49
-1.27
 74
     0
  0
LTYPE
  5
60
330
5
100
AcDbSymbolTableRecord
100
AcDbLinetypeTableRecord
  2
CENTER
 70
     0
  3
Center ____ _ ____ _ ____ _ ____ _ ____ _ ____
 72
    65
 73
     4
 40
10.16
 49
6.35
 74
     0
 49
-1.27
 74
     0
 49
1.27
 74
     0
 49
-1.27
 74
     0
  0
LTYPE
  5
61
330
5
100
AcDbSymbolTableRecord
100
AcDbLinetypeTableRecord
  2
CENTERX2
 70
     0
  3
Center (2x) ________  __  ________  __  _____
 72
    65
 73
     4
 40
20.32
 49
12.7
 74
     0
 49
-2.54
 74
     0
 49
2.54
 74
     0
 49
-2.54
 74
     0
  0
LTYPE
  5
62
330
5
100
AcDbSymbolTableRecord
100
AcDbLinetypeTableRecord
  2
DOT2
 70
     0
  3
Dot (.5x) ........................................
 72
    65
 73
     2
 40
0.635
 49
0.0
 74
     0
 49
-0.635
 74
     0
  0
ENDTAB
  0
TABLE
  2
LAYER
  5
2
330
0
100
AcDbSymbolTable
 70
     6
  0
LAYER
  5
10
330
2
100
AcDbSymbolTableRecord
100
AcDbLayerTableRecord
  2
0
 70
     0
 62
     7
  6
Continuous
370
    -3
390
F
  0
LAYER
  5
63
330
2
100
AcDbSymbolTableRecord
100
AcDbLayerTableRecord
  2
1
 70
     0
 62
     4
  6
Continuous
370
    25
390
F
  0
LAYER
  5
64
330
2
100
AcDbSymbolTableRecord
100
AcDbLayerTableRecord
  2
2
 70
     0
 62
     3
  6
CENTERX2
370
    -3
390
F
  0
LAYER
  5
65
330
2
100
AcDbSymbolTableRecord
100
AcDbLayerTableRecord
  2
3
 70
     0
 62
     2
  6
Continuous
370
    -3
390
F
  0
LAYER
  5
66
330
2
100
AcDbSymbolTableRecord
100
AcDbLayerTableRecord
  2
4
 70
     0
 62
     7
  6
Continuous
370
    -3
390
F
  0
LAYER
  5
67
330
2
100
AcDbSymbolTableRecord
100
AcDbLayerTableRecord
  2
基礎穴
 70
     0
 62
     1
  6
PHANTOM
370
    35
390
F
  0
ENDTAB
  0
TABLE
  2
STYLE
  5
3
330
0
100
AcDbSymbolTable
 70
     2
  0
STYLE
  5
11
330
3
100
AcDbSymbolTableRecord
100
AcDbTextStyleTableRecord
  2
Standard
 70
     0
 40
0.0
 41
1.0
 50
0.0
 71
     0
 42
35.2777777778
  3
txt
  4
bigfont
  0
STYLE
  5
68
330
3
100
AcDbSymbolTableRecord
100
AcDbTextStyleTableRecord
  2
SLDTEXTSTYLE0
 70
     0
 40
0.0
 41
0.7
 50
0.0
 71
     0
 42
35.2777777778
  3
TXT
  4
bigfont
  0
ENDTAB
  0
TABLE
  2
VIEW
  5
6
330
0
100
AcDbSymbolTable
 70
     0
  0
ENDTAB
  0
TABLE
  2
UCS
  5
7
330
0
100
AcDbSymbolTable
 70
     0
  0
ENDTAB
  0
TABLE
  2
APPID
  5
9
330
0
100
AcDbSymbolTable
 70
     1
  0
APPID
  5
12
330
9
100
AcDbSymbolTableRecord
100
AcDbRegAppTableRecord
  2
ACAD
 70
     0
  0
ENDTAB
  0
TABLE
  2
DIMSTYLE
  5
A
330
0
100
AcDbSymbolTable
 70
     1
100
AcDbDimStyleTable
  0
DIMSTYLE
105
27
330
A
100
AcDbSymbolTableRecord
100
AcDbDimStyleTableRecord
  2
ISO-25
 70
     0
 41
2.5
 42
0.625
 43
3.75
 44
1.25
 73
     0
 74
     0
 77
     1
 78
     8
140
2.5
141
2.5
143
0.0393700787
147
0.625
171
     3
172
     1
178
     0
271
     2
272
     2
274
     3
278
    44
283
     0
284
     8
340
11
  0
ENDTAB
  0
TABLE
  2
BLOCK_RECORD
  5
1
330
0
100
AcDbSymbolTable
 70
     2
  0
BLOCK_RECORD
  5
1F
330
1
100
AcDbSymbolTableRecord
100
AcDbBlockTableRecord
  2
*Model_Space
340
22
  0
BLOCK_RECORD
  5
1B
330
1
100
AcDbSymbolTableRecord
100
AcDbBlockTableRecord
  2
*Paper_Space
340
1E
  0
BLOCK_RECORD
  5
23
330
1
100
AcDbSymbolTableRecord
100
AcDbBlockTableRecord
  2
*Paper_Space0
340
26
  0
BLOCK_RECORD
  5
D9
330
1
100
AcDbSymbolTableRecord
100
AcDbBlockTableRecord
  2
SW_CENTERMARKSYMBOL_0
340
0
102
{BLKREFS
331
E4
102
}
  0
ENDTAB
  0
ENDSEC
  0
SECTION
  2
BLOCKS
  0
BLOCK
  5
20
330
1F
100
AcDbEntity
  8
0
100
AcDbBlockBegin
  2
*Model_Space
 70
     0
 10
0.0
 20
0.0
 30
0.0
  3
*Model_Space
  1

  0
ENDBLK
  5
21
330
1F
100
AcDbEntity
  8
0
100
AcDbBlockEnd
  0
BLOCK
  5
1C
330
1B
100
AcDbEntity
 67
     1
  8
0
100
AcDbBlockBegin
  2
*Paper_Space
 70
     0
 10
0.0
 20
0.0
 30
0.0
  3
*Paper_Space
  1

  0
ENDBLK
  5
1D
330
1B
100
AcDbEntity
 67
     1
  8
0
100
AcDbBlockEnd
  0
BLOCK
  5
24
330
23
100
AcDbEntity
  8
0
100
AcDbBlockBegin
  2
*Paper_Space0
 70
     0
 10
0.0
 20
0.0
 30
0.0
  3
*Paper_Space0
  1

  0
ENDBLK
  5
25
330
23
100
AcDbEntity
  8
0
100
AcDbBlockEnd
  0
BLOCK
  5
DA
330
D9
100
AcDbEntity
  8
0
100
AcDbBlockBegin
  2
SW_CENTERMARKSYMBOL_0
 70
     0
 10
0.0
 20
0.0
 30
0.0
  3
SW_CENTERMARKSYMBOL_0
  1

  0
LINE
  5
DC
330
D9
100
AcDbEntity
  8
2
 62
     0
100
AcDbLine
 10
0.0
 20
0.0
 30
0.0
 11
0.0
 21
2.5
 31
0.0
  0
LINE
  5
DD
330
D9
100
AcDbEntity
  8
2
 62
     0
100
AcDbLine
 10
0.0
 20
0.0
 30
0.0
 11
-2.5
 21
0.0
 31
0.0
  0
LINE
  5
DE
330
D9
100
AcDbEntity
  8
2
 62
     0
100
AcDbLine
 10
0.0
 20
0.0
 30
0.0
 11
0.0
 21
-2.5
 31
0.0
  0
LINE
  5
DF
330
D9
100
AcDbEntity
  8
2
 62
     0
100
AcDbLine
 10
0.0
 20
0.0
 30
0.0
 11
2.5
 21
0.0
 31
0.0
  0
LINE
  5
E0
330
D9
100
AcDbEntity
  8
2
 62
     0
100
AcDbLine
 10
0.0
 20
5.0
 30
0.0
 11
0.0
 21
185.0
 31
0.0
  0
LINE
  5
E1
330
D9
100
AcDbEntity
  8
2
 62
     0
100
AcDbLine
 10
-5.0
 20
0.0
 30
0.0
 11
-185.0
 21
0.0
 31
0.0
  0
LINE
  5
E2
330
D9
100
AcDbEntity
  8
2
 62
     0
100
AcDbLine
 10
0.0
 20
-5.0
 30
0.0
 11
0.0
 21
-185.0
 31
0.0
  0
LINE
  5
E3
330
D9
100
AcDbEntity
  8
2
 62
     0
100
AcDbLine
 10
5.0
 20
0.0
 30
0.0
 11
185.0
 21
0.0
 31
0.0
  0
ENDBLK
  5
DB
330
D9
100
AcDbEntity
  8
0
100
AcDbBlockEnd
  0
ENDSEC
  0
SECTION
  2
ENTITIES
  0
MTEXT
  5
69
330
1F
100
AcDbEntity
  8
0
  6
Continuous
 62
     7
370
     0
100
AcDbMText
 10
1393.2510412556
 20
684.3461596319
 30
0.0
 40
26.4583333333
 41
0.0
 71
     1
 72
     1
  1
LL02040YG01K-L2
  7
SLDTEXTSTYLE0
 73
     1
 44
1.0
  0
LINE
  5
6A
330
1F
100
AcDbEntity
  8
1
100
AcDbLine
 10
378.2871543693
 20
1087.6305591043
 30
0.0
 11
378.2871543693
 21
1051.6305591043
 31
0.0
  0
LINE
  5
6B
330
1F
100
AcDbEntity
  8
1
100
AcDbLine
 10
413.2871543693
 20
1051.6305591043
 30
0.0
 11
413.2871543693
 21
1087.6305591043
 31
0.0
  0
LINE
  5
6C
330
1F
100
AcDbEntity
  8
1
100
AcDbLine
 10
1198.2871543693
 20
1087.6305591043
 30
0.0
 11
1198.2871543693
 21
1051.6305591043
 31
0.0
  0
LINE
  5
6D
330
1F
100
AcDbEntity
  8
1
100
AcDbLine
 10
1233.2871543693
 20
1051.6305591043
 30
0.0
 11
1233.2871543693
 21
1087.6305591043
 31
0.0
  0
LINE
  5
6E
330
1F
100
AcDbEntity
  8
1
100
AcDbLine
 10
873.2871543693
 20
1162.6305591043
 30
0.0
 11
873.2871543693
 21
1167.1305591043
 31
0.0
  0
LINE
  5
6F
330
1F
100
AcDbEntity
  8
1
100
AcDbLine
 10
390.7871543693
 20
1607.1305591043
 30
0.0
 11
1190.7871543693
 21
1607.1305591043
 31
0.0
  0
LINE
  5
70
330
1F
100
AcDbEntity
  8
1
100
AcDbLine
 10
1190.7871543693
 20
1167.1305591043
 30
0.0
 11
390.7871543693
 21
1167.1305591043
 31
0.0
  0
LINE
  5
71
330
1F
100
AcDbEntity
  8
1
100
AcDbLine
 10
390.7871543693
 20
1167.1305591043
 30
0.0
 11
390.7871543693
 21
1607.1305591043
 31
0.0
  0
LINE
  5
72
330
1F
100
AcDbEntity
  8
1
100
AcDbLine
 10
1190.7871543693
 20
1607.1305591043
 30
0.0
 11
1190.7871543693
 21
1167.1305591043
 31
0.0
  0
LINE
  5
73
330
1F
100
AcDbEntity
  8
1
100
AcDbLine
 10
355.7871543693
 20
989.8305591043
 30
0.0
 11
1255.7871543693
 21
989.8305591043
 31
0.0
  0
LINE
  5
74
330
1F
100
AcDbEntity
  8
1
100
AcDbLine
 10
1255.7871543693
 20
986.6305591043
 30
0.0
 11
1255.7871543693
 21
989.8305591043
 31
0.0
  0
LINE
  5
75
330
1F
100
AcDbEntity
  8
1
100
AcDbLine
 10
355.7871543693
 20
986.6305591043
 30
0.0
 11
1255.7871543693
 21
986.6305591043
 31
0.0
  0
LINE
  5
76
330
1F
100
AcDbEntity
  8
1
100
AcDbLine
 10
355.7871543693
 20
986.6305591043
 30
0.0
 11
355.7871543693
 21
989.8305591043
 31
0.0
  0
LINE
  5
77
330
1F
100
AcDbEntity
  8
1
100
AcDbLine
 10
1255.7871543693
 20
1048.4305591043
 30
0.0
 11
355.7871543693
 21
1048.4305591043
 31
0.0
  0
LINE
  5
78
330
1F
100
AcDbEntity
  8
1
100
AcDbLine
 10
355.7871543693
 20
1048.4305591043
 30
0.0
 11
355.7871543693
 21
1051.6305591043
 31
0.0
  0
LINE
  5
79
330
1F
100
AcDbEntity
  8
1
100
AcDbLine
 10
1255.7871543693
 20
1051.6305591043
 30
0.0
 11
355.7871543693
 21
1051.6305591043
 31
0.0
  0
LINE
  5
7A
330
1F
100
AcDbEntity
  8
1
100
AcDbLine
 10
1255.7871543693
 20
1048.4305591043
 30
0.0
 11
1255.7871543693
 21
1051.6305591043
 31
0.0
  0
LINE
  5
7B
330
1F
100
AcDbEntity
  8
1
100
AcDbLine
 10
1218.9871543693
 20
989.8305591043
 30
0.0
 11
1218.9871543693
 21
1048.4305591043
 31
0.0
  0
LINE
  5
7C
330
1F
100
AcDbEntity
  8
1
100
AcDbLine
 10
392.5871543693
 20
989.8305591043
 30
0.0
 11
392.5871543693
 21
1048.4305591043
 31
0.0
  0
LINE
  5
7D
330
1F
100
AcDbEntity
  8
1
100
AcDbLine
 10
1125.7871543693
 20
1167.1305591043
 30
0.0
 11
1125.7871543693
 21
1162.6305591043
 31
0.0
  0
LINE
  5
7E
330
1F
100
AcDbEntity
  8
1
100
AcDbLine
 10
1225.7871543693
 20
1167.1305591043
 30
0.0
 11
1190.7871543693
 21
1167.1305591043
 31
0.0
  0
LINE
  5
7F
330
1F
100
AcDbEntity
  8
1
100
AcDbLine
 10
1225.7871543693
 20
1167.1305591043
 30
0.0
 11
1225.7871543693
 21
1162.6305591043
 31
0.0
  0
LINE
  5
80
330
1F
100
AcDbEntity
  8
1
100
AcDbLine
 10
1225.7871543693
 20
1162.6305591043
 30
0.0
 11
1125.7871543693
 21
1162.6305591043
 31
0.0
  0
LINE
  5
81
330
1F
100
AcDbEntity
  8
1
100
AcDbLine
 10
355.7871543693
 20
1167.1305591043
 30
0.0
 11
355.7871543693
 21
1162.6305591043
 31
0.0
  0
LINE
  5
82
330
1F
100
AcDbEntity
  8
1
100
AcDbLine
 10
390.7871543693
 20
1167.1305591043
 30
0.0
 11
355.7871543693
 21
1167.1305591043
 31
0.0
  0
LINE
  5
83
330
1F
100
AcDbEntity
  8
1
100
AcDbLine
 10
455.7871543693
 20
1162.6305591043
 30
0.0
 11
355.7871543693
 21
1162.6305591043
 31
0.0
  0
LINE
  5
84
330
1F
100
AcDbEntity
  8
1
100
AcDbLine
 10
455.7871543693
 20
1167.1305591043
 30
0.0
 11
455.7871543693
 21
1162.6305591043
 31
0.0
  0
LINE
  5
85
330
1F
100
AcDbEntity
  8
1
100
AcDbLine
 10
1255.7871543693
 20
1092.6305591043
 30
0.0
 11
1255.7871543693
 21
1087.6305591043
 31
0.0
  0
LINE
  5
86
330
1F
100
AcDbEntity
  8
1
100
AcDbLine
 10
1255.7871543693
 20
1092.6305591043
 30
0.0
 11
355.7871543693
 21
1092.6305591043
 31
0.0
  0
LINE
  5
87
330
1F
100
AcDbEntity
  8
1
100
AcDbLine
 10
355.7871543693
 20
1092.6305591043
 30
0.0
 11
355.7871543693
 21
1087.6305591043
 31
0.0
  0
LINE
  5
88
330
1F
100
AcDbEntity
  8
1
100
AcDbLine
 10
1255.7871543693
 20
1087.6305591043
 30
0.0
 11
355.7871543693
 21
1087.6305591043
 31
0.0
  0
LINE
  5
89
330
1F
100
AcDbEntity
  8
1
100
AcDbLine
 10
1255.7871543693
 20
1157.6305591043
 30
0.0
 11
355.7871543693
 21
1157.6305591043
 31
0.0
  0
LINE
  5
8A
330
1F
100
AcDbEntity
  8
1
100
AcDbLine
 10
1125.7871543693
 20
1162.6305591043
 30
0.0
 11
455.7871543693
 21
1162.6305591043
 31
0.0
  0
LINE
  5
8B
330
1F
100
AcDbEntity
  8
1
100
AcDbLine
 10
1255.7871543693
 20
1162.6305591043
 30
0.0
 11
1225.7871543693
 21
1162.6305591043
 31
0.0
  0
LINE
  5
8C
330
1F
100
AcDbEntity
  8
1
100
AcDbLine
 10
1255.7871543693
 20
1162.6305591043
 30
0.0
 11
1255.7871543693
 21
1157.6305591043
 31
0.0
  0
LINE
  5
8D
330
1F
100
AcDbEntity
  8
1
100
AcDbLine
 10
355.7871543693
 20
1162.6305591043
 30
0.0
 11
355.7871543693
 21
1157.6305591043
 31
0.0
  0
LINE
  5
8E
330
1F
100
AcDbEntity
  8
1
100
AcDbLine
 10
390.7871543693
 20
1157.6305591043
 30
0.0
 11
390.7871543693
 21
1092.6305591043
 31
0.0
  0
LINE
  5
8F
330
1F
100
AcDbEntity
  8
1
100
AcDbLine
 10
1220.7871543693
 20
1157.6305591043
 30
0.0
 11
1220.7871543693
 21
1092.6305591043
 31
0.0
  0
LINE
  5
90
330
1F
100
AcDbEntity
  8
1
100
AcDbLine
 10
946.2871543693
 20
1659.6305591043
 30
0.0
 11
946.2871543693
 21
1662.6305591043
 31
0.0
  0
LINE
  5
91
330
1F
100
AcDbEntity
  8
1
100
AcDbLine
 10
566.2871543693
 20
1659.6305591043
 30
0.0
 11
566.2871543693
 21
1662.6305591043
 31
0.0
  0
LINE
  5
92
330
1F
100
AcDbEntity
  8
1
100
AcDbLine
 10
946.2871543693
 20
1662.6305591043
 30
0.0
 11
566.2871543693
 21
1662.6305591043
 31
0.0
  0
LINE
  5
93
330
1F
100
AcDbEntity
  8
1
100
AcDbLine
 10
946.2871543693
 20
1659.6305591043
 30
0.0
 11
566.2871543693
 21
1659.6305591043
 31
0.0
  0
LINE
  5
94
330
1F
100
AcDbEntity
  8
1
100
AcDbLine
 10
919.6319573556
 20
1659.6305591043
 30
0.0
 11
913.2619976605
 21
1607.1305591043
 31
0.0
  0
LWPOLYLINE
  5
95
330
1F
100
AcDbEntity
  8
1
100
AcDbPolyline
 90
        3
 70
   128
 43
0.0
 10
710.8266016126
 20
1167.1305591043
 10
702.7043264724
 20
1163.7492518296
 10
699.8595375206
 20
1162.6305591043
  0
LWPOLYLINE
  5
96
330
1F
100
AcDbEntity
  8
1
100
AcDbPolyline
 90
        3
 70
   128
 43
0.0
 10
493.0934868926
 20
1162.6305591043
 10
491.3342778602
 20
1163.3901204297
 10
483.1630778485
 20
1167.1305591043
  0
ARC
  5
97
330
1F
100
AcDbEntity
  8
1
100
AcDbCircle
 10
591.7871543693
 20
1393.6305591043
 30
0.0
 40
251.2000000000003
100
AcDbArc
 50
180.0
 51
216.8546890681
  0
LINE
  5
98
330
1F
100
AcDbEntity
  8
1
100
AcDbLine
 10
340.5871543693
 20
1393.6305591043
 30
0.0
 11
340.5871543693
 21
1399.1305591043
 31
0.0
  0
ARC
  5
99
330
1F
100
AcDbEntity
  8
1
100
AcDbCircle
 10
549.2871543693
 20
1399.1305591043
 30
0.0
 40
208.7
100
AcDbArc
 50
139.4169103423
 51
180.0
  0
LWPOLYLINE
  5
9A
330
1F
100
AcDbEntity
  8
1
100
AcDbPolyline
 90
        3
 70
   128
 43
0.0
 10
532.2082199763
 20
1607.1305591043
 10
540.6626322436
 20
1607.6522788797
 10
549.2871543693
 20
1607.8305591043
  0
LINE
  5
9B
330
1F
100
AcDbEntity
  8
1
100
AcDbLine
 10
549.2871543693
 20
1607.8305591043
 30
0.0
 11
592.5871543693
 21
1607.8305591043
 31
0.0
  0
LINE
  5
9C
330
1F
100
AcDbEntity
  8
1
100
AcDbLine
 10
592.5871543693
 20
1607.8305591043
 30
0.0
 11
592.5871543693
 21
1659.6305591043
 31
0.0
  0
CIRCLE
  5
9D
330
1F
100
AcDbEntity
  8
0
  6
HIDDEN
 62
     7
370
    18
100
AcDbCircle
 10
1015.7871543693
 20
1314.6305591043
 30
0.0
 40
14.0
  0
ARC
  5
9E
330
1F
100
AcDbEntity
  8
0
  6
HIDDEN
 62
     7
370
    18
100
AcDbCircle
 10
1015.7871543693
 20
1314.6305591043
 30
0.0
 40
121.5
100
AcDbArc
 50
298.8696782224
 51
241.1303217776
  0
LINE
  5
9F
330
1F
100
AcDbEntity
  8
0
  6
HIDDEN
 62
     7
370
    18
100
AcDbLine
 10
1074.4496636917
 20
1208.2305591043
 30
0.0
 11
957.1246450469
 21
1208.2305591043
 31
0.0
  0
LINE
  5
A0
330
1F
100
AcDbEntity
  8
0
  6
HIDDEN
 62
     7
370
    18
100
AcDbLine
 10
1158.2871543693
 20
1202.6305591043
 30
0.0
 11
873.2871543693
 21
1202.6305591043
 31
0.0
  0
LINE
  5
A1
330
1F
100
AcDbEntity
  8
0
  6
HIDDEN
 62
     7
370
    18
100
AcDbLine
 10
1158.2871543693
 20
1162.6305591043
 30
0.0
 11
1158.2871543693
 21
1202.6305591043
 31
0.0
  0
LINE
  5
A2
330
1F
100
AcDbEntity
  8
0
  6
HIDDEN
 62
     7
370
    18
100
AcDbLine
 10
873.2871543693
 20
1167.1305591043
 30
0.0
 11
873.2871543693
 21
1202.6305591043
 31
0.0
  0
LINE
  5
A3
330
1F
100
AcDbEntity
  8
0
  6
HIDDEN
 62
     7
370
    18
100
AcDbLine
 10
1099.7871543693
 20
1213.8305591043
 30
0.0
 11
1083.6223222397
 21
1213.8305591043
 31
0.0
  0
LINE
  5
A4
330
1F
100
AcDbEntity
  8
0
  6
HIDDEN
 62
     7
370
    18
100
AcDbLine
 10
1099.7871543693
 20
1202.6305591043
 30
0.0
 11
1099.7871543693
 21
1213.8305591043
 31
0.0
  0
LINE
  5
A5
330
1F
100
AcDbEntity
  8
0
  6
HIDDEN
 62
     7
370
    18
100
AcDbLine
 10
931.7871543693
 20
1213.8305591043
 30
0.0
 11
931.7871543693
 21
1202.6305591043
 31
0.0
  0
LINE
  5
A6
330
1F
100
AcDbEntity
  8
0
  6
HIDDEN
 62
     7
370
    18
100
AcDbLine
 10
947.9519864989
 20
1213.8305591043
 30
0.0
 11
931.7871543693
 21
1213.8305591043
 31
0.0
  0
CIRCLE
  5
A7
330
1F
100
AcDbEntity
  8
0
  6
HIDDEN
 62
     7
370
    18
100
AcDbCircle
 10
567.7871543693
 20
1417.6305591043
 30
0.0
 40
75.00000000000016
  0
CIRCLE
  5
A8
330
1F
100
AcDbEntity
  8
0
  6
HIDDEN
 62
     7
370
    18
100
AcDbCircle
 10
1015.7871543693
 20
1314.6305591043
 30
0.0
 40
75.00000000000016
  0
LINE
  5
A9
330
1F
100
AcDbEntity
  8
0
  6
HIDDEN
 62
     7
370
    18
100
AcDbLine
 10
1215.7871543693
 20
986.6305591043
 30
0.0
 11
1215.7871543693
 21
1051.6305591043
 31
0.0
  0
LINE
  5
AA
330
1F
100
AcDbEntity
  8
0
  6
HIDDEN
 62
     7
370
    18
100
AcDbLine
 10
395.7871543693
 20
986.6305591043
 30
0.0
 11
395.7871543693
 21
1051.6305591043
 31
0.0
  0
LINE
  5
AB
330
1F
100
AcDbEntity
  8
0
  6
HIDDEN
 62
     7
370
    18
100
AcDbLine
 10
1215.7871543693
 20
1162.6305591043
 30
0.0
 11
1215.7871543693
 21
1087.6305591043
 31
0.0
  0
LINE
  5
AC
330
1F
100
AcDbEntity
  8
0
  6
HIDDEN
 62
     7
370
    18
100
AcDbLine
 10
395.7871543693
 20
1162.6305591043
 30
0.0
 11
395.7871543693
 21
1087.6305591043
 31
0.0
  0
LINE
  5
AD
330
1F
100
AcDbEntity
  8
0
  6
HIDDEN
 62
     7
370
    18
100
AcDbLine
 10
913.2619976605
 20
1607.1305591043
 30
0.0
 11
888.8088263344
 21
1405.5921575993
 31
0.0
  0
ARC
  5
AE
330
1F
100
AcDbEntity
  8
0
  6
HIDDEN
 62
     7
370
    18
100
AcDbCircle
 10
591.7871543693
 20
1441.6305591043
 30
0.0
 40
299.2000000000002
100
AcDbArc
 50
293.4444094743
 51
353.0819719458
  0
ARC
  5
AF
330
1F
100
AcDbEntity
  8
0
  6
HIDDEN
 62
     7
370
    18
100
AcDbCircle
 10
591.7871543693
 20
1441.6305591043
 30
0.0
 40
299.2
100
AcDbArc
 50
270.0
 51
291.1741862614
  0
ARC
  5
B0
330
1F
100
AcDbEntity
  8
0
  6
HIDDEN
 62
     7
370
    18
100
AcDbCircle
 10
591.7871543693
 20
1393.6305591043
 30
0.0
 40
251.2000000000003
100
AcDbArc
 50
246.865630956
 51
270.0
  0
ARC
  5
B1
330
1F
100
AcDbEntity
  8
0
  6
HIDDEN
 62
     7
370
    18
100
AcDbCircle
 10
591.7871543693
 20
1393.6305591043
 30
0.0
 40
251.2000000000004
100
AcDbArc
 50
216.8546890681
 51
244.3787186196
  0
ARC
  5
B2
330
1F
100
AcDbEntity
  8
0
  6
HIDDEN
 62
     7
370
    18
100
AcDbCircle
 10
549.2871543693
 20
1399.1305591043
 30
0.0
 40
208.7000000000002
100
AcDbArc
 50
94.6940411148
 51
139.4169103423
  0
ARC
  5
B3
330
1F
100
AcDbEntity
  8
0
  6
HIDDEN
 62
     7
370
    18
100
AcDbCircle
 10
549.2871543693
 20
1399.1305591043
 30
0.0
 40
207.5000000000001
100
AcDbArc
 50
90.0
 51
180.0
  0
LINE
  5
B4
330
1F
100
AcDbEntity
  8
0
  6
HIDDEN
 62
     7
370
    18
100
AcDbLine
 10
593.7871543693
 20
1606.6305591043
 30
0.0
 11
593.7871543693
 21
1662.6305591043
 31
0.0
  0
LINE
  5
B5
330
1F
100
AcDbEntity
  8
0
  6
HIDDEN
 62
     7
370
    18
100
AcDbLine
 10
549.2871543693
 20
1606.6305591043
 30
0.0
 11
593.7871543693
 21
1606.6305591043
 31
0.0
  0
LINE
  5
B6
330
1F
100
AcDbEntity
  8
0
  6
HIDDEN
 62
     7
370
    18
100
AcDbLine
 10
341.7871543693
 20
1393.6305591043
 30
0.0
 11
341.7871543693
 21
1399.1305591043
 31
0.0
  0
ARC
  5
B7
330
1F
100
AcDbEntity
  8
0
  6
HIDDEN
 62
     7
370
    18
100
AcDbCircle
 10
591.7871543693
 20
1393.6305591043
 30
0.0
 40
250.0000000000002
100
AcDbArc
 50
180.0
 51
270.0
  0
LINE
  5
B8
330
1F
100
AcDbEntity
  8
0
  6
HIDDEN
 62
     7
370
    18
100
AcDbLine
 10
918.7871543693
 20
1662.6305591043
 30
0.0
 11
887.6175629442
 21
1405.7366966427
 31
0.0
  0
ARC
  5
B9
330
1F
100
AcDbEntity
  8
0
  6
HIDDEN
 62
     7
370
    18
100
AcDbCircle
 10
591.7871543693
 20
1441.6305591043
 30
0.0
 40
298.0
100
AcDbArc
 50
270.0
 51
353.0819719458
  0
CIRCLE
  5
BA
330
1F
100
AcDbEntity
  8
0
  6
HIDDEN
 62
     7
370
    18
100
AcDbCircle
 10
567.7871543693
 20
1417.6305591043
 30
0.0
 40
157.5000000000002
  0
CIRCLE
  5
BB
330
1F
100
AcDbEntity
  8
0
  6
HIDDEN
 62
     7
370
    18
100
AcDbCircle
 10
567.7871543693
 20
1417.6305591043
 30
0.0
 40
182.4999999999998
  0
CIRCLE
  5
BC
330
1F
100
AcDbEntity
  8
0
  6
HIDDEN
 62
     7
370
    18
100
AcDbCircle
 10
567.7871543693
 20
1417.6305591043
 30
0.0
 40
159.8000000000002
  0
CIRCLE
  5
BD
330
1F
100
AcDbEntity
  8
0
  6
HIDDEN
 62
     7
370
    18
100
AcDbCircle
 10
689.763074124
 20
1539.6064788589
 30
0.0
 40
4.0
  0
CIRCLE
  5
BE
330
1F
100
AcDbEntity
  8
0
  6
HIDDEN
 62
     7
370
    18
100
AcDbCircle
 10
612.4334396495
 20
1584.2527641391
 30
0.0
 40
3.999999999999773
  0
CIRCLE
  5
BF
330
1F
100
AcDbEntity
  8
0
  6
HIDDEN
 62
     7
370
    18
100
AcDbCircle
 10
523.1408690891
 20
1584.2527641391
 30
0.0
 40
3.999999999999773
  0
CIRCLE
  5
C0
330
1F
100
AcDbEntity
  8
0
  6
HIDDEN
 62
     7
370
    18
100
AcDbCircle
 10
445.8112346146
 20
1539.6064788589
 30
0.0
 40
3.999999999999773
  0
CIRCLE
  5
C1
330
1F
100
AcDbEntity
  8
0
  6
HIDDEN
 62
     7
370
    18
100
AcDbCircle
 10
401.1649493344
 20
1462.2768443844
 30
0.0
 40
4.0
  0
CIRCLE
  5
C2
330
1F
100
AcDbEntity
  8
0
  6
HIDDEN
 62
     7
370
    18
100
AcDbCircle
 10
401.1649493344
 20
1372.9842738241
 30
0.0
 40
3.999999999999773
  0
CIRCLE
  5
C3
330
1F
100
AcDbEntity
  8
0
  6
HIDDEN
 62
     7
370
    18
100
AcDbCircle
 10
445.8112346146
 20
1295.6546393496
 30
0.0
 40
4.0
  0
CIRCLE
  5
C4
330
1F
100
AcDbEntity
  8
0
  6
HIDDEN
 62
     7
370
    18
100
AcDbCircle
 10
523.1408690891
 20
1251.0083540694
 30
0.0
 40
4.0
  0
CIRCLE
  5
C5
330
1F
100
AcDbEntity
  8
0
  6
HIDDEN
 62
     7
370
    18
100
AcDbCircle
 10
612.4334396495
 20
1251.0083540694
 30
0.0
 40
3.999999999999773
  0
CIRCLE
  5
C6
330
1F
100
AcDbEntity
  8
0
  6
HIDDEN
 62
     7
370
    18
100
AcDbCircle
 10
689.763074124
 20
1295.6546393496
 30
0.0
 40
4.0
  0
CIRCLE
  5
C7
330
1F
100
AcDbEntity
  8
0
  6
HIDDEN
 62
     7
370
    18
100
AcDbCircle
 10
734.4093594042
 20
1372.9842738241
 30
0.0
 40
3.999999999999773
  0
CIRCLE
  5
C8
330
1F
100
AcDbEntity
  8
0
  6
HIDDEN
 62
     7
370
    18
100
AcDbCircle
 10
734.4093594042
 20
1462.2768443844
 30
0.0
 40
4.0
  0
LINE
  5
C9
330
1F
100
AcDbEntity
  8
0
  6
HIDDEN
 62
     7
370
    18
100
AcDbLine
 10
1211.7871543693
 20
986.6305591043
 30
0.0
 11
1211.7871543693
 21
989.8305591043
 31
0.0
  0
LINE
  5
CA
330
1F
100
AcDbEntity
  8
0
  6
HIDDEN
 62
     7
370
    18
100
AcDbLine
 10
1199.7871543693
 20
989.8305591043
 30
0.0
 11
1199.7871543693
 21
986.6305591043
 31
0.0
  0
LINE
  5
CB
330
1F
100
AcDbEntity
  8
0
  6
HIDDEN
 62
     7
370
    18
100
AcDbLine
 10
811.7871543693
 20
986.6305591043
 30
0.0
 11
811.7871543693
 21
989.8305591043
 31
0.0
  0
LINE
  5
CC
330
1F
100
AcDbEntity
  8
0
  6
HIDDEN
 62
     7
370
    18
100
AcDbLine
 10
799.7871543693
 20
989.8305591043
 30
0.0
 11
799.7871543693
 21
986.6305591043
 31
0.0
  0
LINE
  5
CD
330
1F
100
AcDbEntity
  8
0
  6
HIDDEN
 62
     7
370
    18
100
AcDbLine
 10
411.7871543693
 20
986.6305591043
 30
0.0
 11
411.7871543693
 21
989.8305591043
 31
0.0
  0
LINE
  5
CE
330
1F
100
AcDbEntity
  8
0
  6
HIDDEN
 62
     7
370
    18
100
AcDbLine
 10
399.7871543693
 20
989.8305591043
 30
0.0
 11
399.7871543693
 21
986.6305591043
 31
0.0
  0
LINE
  5
CF
330
1F
100
AcDbEntity
  8
0
  6
HIDDEN
 62
     7
370
    18
100
AcDbLine
 10
572.2871543693
 20
1662.6305591043
 30
0.0
 11
572.2871543693
 21
1659.6305591043
 31
0.0
  0
LINE
  5
D0
330
1F
100
AcDbEntity
  8
0
  6
HIDDEN
 62
     7
370
    18
100
AcDbLine
 10
580.2871543693
 20
1659.6305591043
 30
0.0
 11
580.2871543693
 21
1662.6305591043
 31
0.0
  0
LINE
  5
D1
330
1F
100
AcDbEntity
  8
0
  6
HIDDEN
 62
     7
370
    18
100
AcDbLine
 10
652.2871543693
 20
1662.6305591043
 30
0.0
 11
652.2871543693
 21
1659.6305591043
 31
0.0
  0
LINE
  5
D2
330
1F
100
AcDbEntity
  8
0
  6
HIDDEN
 62
     7
370
    18
100
AcDbLine
 10
660.2871543693
 20
1659.6305591043
 30
0.0
 11
660.2871543693
 21
1662.6305591043
 31
0.0
  0
LINE
  5
D3
330
1F
100
AcDbEntity
  8
0
  6
HIDDEN
 62
     7
370
    18
100
AcDbLine
 10
752.2871543693
 20
1662.6305591043
 30
0.0
 11
752.2871543693
 21
1659.6305591043
 31
0.0
  0
LINE
  5
D4
330
1F
100
AcDbEntity
  8
0
  6
HIDDEN
 62
     7
370
    18
100
AcDbLine
 10
760.2871543693
 20
1659.6305591043
 30
0.0
 11
760.2871543693
 21
1662.6305591043
 31
0.0
  0
LINE
  5
D5
330
1F
100
AcDbEntity
  8
0
  6
HIDDEN
 62
     7
370
    18
100
AcDbLine
 10
852.2871543693
 20
1662.6305591043
 30
0.0
 11
852.2871543693
 21
1659.6305591043
 31
0.0
  0
LINE
  5
D6
330
1F
100
AcDbEntity
  8
0
  6
HIDDEN
 62
     7
370
    18
100
AcDbLine
 10
860.2871543693
 20
1659.6305591043
 30
0.0
 11
860.2871543693
 21
1662.6305591043
 31
0.0
  0
LINE
  5
D7
330
1F
100
AcDbEntity
  8
0
  6
HIDDEN
 62
     7
370
    18
100
AcDbLine
 10
932.2871543693
 20
1662.6305591043
 30
0.0
 11
932.2871543693
 21
1659.6305591043
 31
0.0
  0
LINE
  5
D8
330
1F
100
AcDbEntity
  8
0
  6
HIDDEN
 62
     7
370
    18
100
AcDbLine
 10
940.2871543693
 20
1659.6305591043
 30
0.0
 11
940.2871543693
 21
1662.6305591043
 31
0.0
  0
INSERT
  5
E4
330
1F
100
AcDbEntity
  8
2
100
AcDbBlockReference
  2
SW_CENTERMARKSYMBOL_0
 10
567.7871543693
 20
1417.6305591043
 30
0.0
  0
LINE
  5
E5
330
1F
100
AcDbEntity
  8
1
100
AcDbLine
 10
1821.8365547153
 20
1436.1305591043
 30
0.0
 11
1495.8365547153
 21
1436.1305591043
 31
0.0
  0
LINE
  5
E6
330
1F
100
AcDbEntity
  8
1
100
AcDbLine
 10
1459.3365547153
 20
1300.6305591043
 30
0.0
 11
1495.8365547153
 21
1300.6305591043
 31
0.0
  0
LINE
  5
E7
330
1F
100
AcDbEntity
  8
1
100
AcDbLine
 10
1495.8365547153
 20
1328.6305591043
 30
0.0
 11
1459.3365547153
 21
1328.6305591043
 31
0.0
  0
LINE
  5
E8
330
1F
100
AcDbEntity
  8
1
100
AcDbLine
 10
1819.8365547153
 20
1087.6305591043
 30
0.0
 11
1819.8365547153
 21
1051.6305591043
 31
0.0
  0
LINE
  5
E9
330
1F
100
AcDbEntity
  8
1
100
AcDbLine
 10
1854.8365547153
 20
1051.6305591043
 30
0.0
 11
1854.8365547153
 21
1087.6305591043
 31
0.0
  0
LINE
  5
EA
330
1F
100
AcDbEntity
  8
1
100
AcDbLine
 10
1459.8365547153
 20
1087.6305591043
 30
0.0
 11
1459.8365547153
 21
1051.6305591043
 31
0.0
  0
LINE
  5
EB
330
1F
100
AcDbEntity
  8
1
100
AcDbLine
 10
1494.8365547153
 20
1051.6305591043
 30
0.0
 11
1494.8365547153
 21
1087.6305591043
 31
0.0
  0
LINE
  5
EC
330
1F
100
AcDbEntity
  8
1
100
AcDbLine
 10
1869.3365547153
 20
1600.1305591043
 30
0.0
 11
1867.0365547153
 21
1600.1305591043
 31
0.0
  0
LINE
  5
ED
330
1F
100
AcDbEntity
  8
1
100
AcDbLine
 10
1867.0365547153
 20
1235.1305591043
 30
0.0
 11
1869.3365547153
 21
1235.1305591043
 31
0.0
  0
LINE
  5
EE
330
1F
100
AcDbEntity
  8
1
100
AcDbLine
 10
1818.3365547153
 20
1600.1305591043
 30
0.0
 11
1816.9365547153
 21
1600.1305591043
 31
0.0
  0
LINE
  5
EF
330
1F
100
AcDbEntity
  8
1
100
AcDbLine
 10
1867.0365547153
 20
1577.4305591043
 30
0.0
 11
1818.3365547153
 21
1577.4305591043
 31
0.0
  0
LINE
  5
F0
330
1F
100
AcDbEntity
  8
1
100
AcDbLine
 10
1821.8365547153
 20
1257.8305591043
 30
0.0
 11
1867.0365547153
 21
1257.8305591043
 31
0.0
  0
LINE
  5
F1
330
1F
100
AcDbEntity
  8
1
100
AcDbLine
 10
1505.8365547153
 20
1162.6305591043
 30
0.0
 11
1505.8365547153
 21
1202.6305591043
 31
0.0
  0
LINE
  5
F2
330
1F
100
AcDbEntity
  8
1
100
AcDbLine
 10
1765.8365547153
 20
1202.6305591043
 30
0.0
 11
1505.8365547153
 21
1202.6305591043
 31
0.0
  0
LINE
  5
F3
330
1F
100
AcDbEntity
  8
1
100
AcDbLine
 10
1765.8365547153
 20
1162.6305591043
 30
0.0
 11
1765.8365547153
 21
1202.6305591043
 31
0.0
  0
LINE
  5
F4
330
1F
100
AcDbEntity
  8
1
100
AcDbLine
 10
1821.8365547153
 20
1208.2305591043
 30
0.0
 11
1745.8365547153
 21
1208.2305591043
 31
0.0
  0
LINE
  5
F5
330
1F
100
AcDbEntity
  8
1
100
AcDbLine
 10
1525.8365547153
 20
1208.2305591043
 30
0.0
 11
1495.8365547153
 21
1208.2305591043
 31
0.0
  0
LINE
  5
F6
330
1F
100
AcDbEntity
  8
1
100
AcDbLine
 10
1495.8365547153
 20
1436.1305591043
 30
0.0
 11
1495.8365547153
 21
1208.2305591043
 31
0.0
  0
LINE
  5
F7
330
1F
100
AcDbEntity
  8
1
100
AcDbLine
 10
1821.8365547153
 20
1208.2305591043
 30
0.0
 11
1821.8365547153
 21
1436.1305591043
 31
0.0
  0
LINE
  5
F8
330
1F
100
AcDbEntity
  8
1
100
AcDbLine
 10
1525.8365547153
 20
1202.6305591043
 30
0.0
 11
1525.8365547153
 21
1213.8305591043
 31
0.0
  0
LINE
  5
F9
330
1F
100
AcDbEntity
  8
1
100
AcDbLine
 10
1525.8365547153
 20
1213.8305591043
 30
0.0
 11
1745.8365547153
 21
1213.8305591043
 31
0.0
  0
LINE
  5
FA
330
1F
100
AcDbEntity
  8
1
100
AcDbLine
 10
1745.8365547153
 20
1202.6305591043
 30
0.0
 11
1745.8365547153
 21
1213.8305591043
 31
0.0
  0
LINE
  5
FB
330
1F
100
AcDbEntity
  8
1
100
AcDbLine
 10
1337.3365547153
 20
1607.1305591043
 30
0.0
 11
1337.3365547153
 21
1167.1305591043
 31
0.0
  0
LINE
  5
FC
330
1F
100
AcDbEntity
  8
1
100
AcDbLine
 10
1357.3365547153
 20
1167.1305591043
 30
0.0
 11
1337.3365547153
 21
1167.1305591043
 31
0.0
  0
LINE
  5
FD
330
1F
100
AcDbEntity
  8
1
100
AcDbLine
 10
1459.3365547153
 20
1607.1305591043
 30
0.0
 11
1337.3365547153
 21
1607.1305591043
 31
0.0
  0
LINE
  5
FE
330
1F
100
AcDbEntity
  8
1
100
AcDbLine
 10
1459.3365547153
 20
1607.1305591043
 30
0.0
 11
1459.3365547153
 21
1167.1305591043
 31
0.0
  0
LINE
  5
FF
330
1F
100
AcDbEntity
  8
1
100
AcDbLine
 10
1857.3365547153
 20
986.6305591043
 30
0.0
 11
1857.3365547153
 21
989.8305591043
 31
0.0
  0
LINE
  5
100
330
1F
100
AcDbEntity
  8
1
100
AcDbLine
 10
1457.3365547153
 20
986.6305591043
 30
0.0
 11
1857.3365547153
 21
986.6305591043
 31
0.0
  0
LINE
  5
101
330
1F
100
AcDbEntity
  8
1
100
AcDbLine
 10
1457.3365547153
 20
986.6305591043
 30
0.0
 11
1457.3365547153
 21
989.8305591043
 31
0.0
  0
LINE
  5
102
330
1F
100
AcDbEntity
  8
1
100
AcDbLine
 10
1457.3365547153
 20
989.8305591043
 30
0.0
 11
1857.3365547153
 21
989.8305591043
 31
0.0
  0
LINE
  5
103
330
1F
100
AcDbEntity
  8
1
100
AcDbLine
 10
1857.3365547153
 20
1048.4305591043
 30
0.0
 11
1457.3365547153
 21
1048.4305591043
 31
0.0
  0
LINE
  5
104
330
1F
100
AcDbEntity
  8
1
100
AcDbLine
 10
1457.3365547153
 20
1048.4305591043
 30
0.0
 11
1457.3365547153
 21
1051.6305591043
 31
0.0
  0
LINE
  5
105
330
1F
100
AcDbEntity
  8
1
100
AcDbLine
 10
1857.3365547153
 20
1048.4305591043
 30
0.0
 11
1857.3365547153
 21
1051.6305591043
 31
0.0
  0
LINE
  5
106
330
1F
100
AcDbEntity
  8
1
100
AcDbLine
 10
1857.3365547153
 20
1051.6305591043
 30
0.0
 11
1457.3365547153
 21
1051.6305591043
 31
0.0
  0
LINE
  5
107
330
1F
100
AcDbEntity
  8
1
100
AcDbLine
 10
1494.1365547153
 20
989.8305591043
 30
0.0
 11
1494.1365547153
 21
1048.4305591043
 31
0.0
  0
LINE
  5
108
330
1F
100
AcDbEntity
  8
1
100
AcDbLine
 10
1820.5365547153
 20
989.8305591043
 30
0.0
 11
1820.5365547153
 21
1048.4305591043
 31
0.0
  0
LINE
  5
109
330
1F
100
AcDbEntity
  8
1
100
AcDbLine
 10
1857.3365547153
 20
1087.6305591043
 30
0.0
 11
1457.3365547153
 21
1087.6305591043
 31
0.0
  0
LINE
  5
10A
330
1F
100
AcDbEntity
  8
1
100
AcDbLine
 10
1457.3365547153
 20
1092.6305591043
 30
0.0
 11
1457.3365547153
 21
1087.6305591043
 31
0.0
  0
LINE
  5
10B
330
1F
100
AcDbEntity
  8
1
100
AcDbLine
 10
1857.3365547153
 20
1092.6305591043
 30
0.0
 11
1457.3365547153
 21
1092.6305591043
 31
0.0
  0
LINE
  5
10C
330
1F
100
AcDbEntity
  8
1
100
AcDbLine
 10
1857.3365547153
 20
1092.6305591043
 30
0.0
 11
1857.3365547153
 21
1087.6305591043
 31
0.0
  0
LINE
  5
10D
330
1F
100
AcDbEntity
  8
1
100
AcDbLine
 10
1457.3365547153
 20
1162.6305591043
 30
0.0
 11
1457.3365547153
 21
1157.6305591043
 31
0.0
  0
LINE
  5
10E
330
1F
100
AcDbEntity
  8
1
100
AcDbLine
 10
1857.3365547153
 20
1162.6305591043
 30
0.0
 11
1857.3365547153
 21
1157.6305591043
 31
0.0
  0
LINE
  5
10F
330
1F
100
AcDbEntity
  8
1
100
AcDbLine
 10
1857.3365547153
 20
1162.6305591043
 30
0.0
 11
1457.3365547153
 21
1162.6305591043
 31
0.0
  0
LINE
  5
110
330
1F
100
AcDbEntity
  8
1
100
AcDbLine
 10
1857.3365547153
 20
1157.6305591043
 30
0.0
 11
1457.3365547153
 21
1157.6305591043
 31
0.0
  0
LINE
  5
111
330
1F
100
AcDbEntity
  8
1
100
AcDbLine
 10
1457.3365547153
 20
1162.6305591043
 30
0.0
 11
1357.3365547153
 21
1162.6305591043
 31
0.0
  0
LINE
  5
112
330
1F
100
AcDbEntity
  8
1
100
AcDbLine
 10
1357.3365547153
 20
1167.1305591043
 30
0.0
 11
1357.3365547153
 21
1162.6305591043
 31
0.0
  0
LINE
  5
113
330
1F
100
AcDbEntity
  8
1
100
AcDbLine
 10
1487.3365547153
 20
1167.1305591043
 30
0.0
 11
1357.3365547153
 21
1167.1305591043
 31
0.0
  0
LINE
  5
114
330
1F
100
AcDbEntity
  8
1
100
AcDbLine
 10
1487.3365547153
 20
1167.1305591043
 30
0.0
 11
1487.3365547153
 21
1162.6305591043
 31
0.0
  0
LINE
  5
115
330
1F
100
AcDbEntity
  8
1
100
AcDbLine
 10
1492.3365547153
 20
1157.6305591043
 30
0.0
 11
1492.3365547153
 21
1092.6305591043
 31
0.0
  0
LINE
  5
116
330
1F
100
AcDbEntity
  8
1
100
AcDbLine
 10
1822.3365547153
 20
1157.6305591043
 30
0.0
 11
1822.3365547153
 21
1092.6305591043
 31
0.0
  0
LINE
  5
117
330
1F
100
AcDbEntity
  8
1
100
AcDbLine
 10
1842.3365547153
 20
1659.6305591043
 30
0.0
 11
1842.3365547153
 21
1662.6305591043
 31
0.0
  0
LINE
  5
118
330
1F
100
AcDbEntity
  8
1
100
AcDbLine
 10
1842.3365547153
 20
1659.6305591043
 30
0.0
 11
1552.3365547153
 21
1659.6305591043
 31
0.0
  0
LINE
  5
119
330
1F
100
AcDbEntity
  8
1
100
AcDbLine
 10
1552.3365547153
 20
1659.6305591043
 30
0.0
 11
1552.3365547153
 21
1662.6305591043
 31
0.0
  0
LINE
  5
11A
330
1F
100
AcDbEntity
  8
1
100
AcDbLine
 10
1842.3365547153
 20
1662.6305591043
 30
0.0
 11
1552.3365547153
 21
1662.6305591043
 31
0.0
  0
LINE
  5
11B
330
1F
100
AcDbEntity
  8
1
100
AcDbLine
 10
1577.7365547153
 20
1659.6305591043
 30
0.0
 11
1577.7365547153
 21
1436.1305591043
 31
0.0
  0
LINE
  5
11C
330
1F
100
AcDbEntity
  8
1
100
AcDbLine
 10
1816.9365547153
 20
1659.6305591043
 30
0.0
 11
1816.9365547153
 21
1436.1305591043
 31
0.0
  0
LINE
  5
11D
330
1F
100
AcDbEntity
  8
1
100
AcDbLine
 10
1816.9365547153
 20
1208.2305591043
 30
0.0
 11
1816.9365547153
 21
1162.6305591043
 31
0.0
  0
LINE
  5
11E
330
1F
100
AcDbEntity
  8
1
100
AcDbLine
 10
1867.0365547153
 20
1235.1305591043
 30
0.0
 11
1867.0365547153
 21
1600.1305591043
 31
0.0
  0
LINE
  5
11F
330
1F
100
AcDbEntity
  8
1
100
AcDbLine
 10
1869.3365547153
 20
1235.1305591043
 30
0.0
 11
1869.3365547153
 21
1600.1305591043
 31
0.0
  0
LINE
  5
120
330
1F
100
AcDbEntity
  8
1
100
AcDbLine
 10
1818.3365547153
 20
1600.1305591043
 30
0.0
 11
1818.3365547153
 21
1436.1305591043
 31
0.0
  0
LINE
  5
121
330
1F
100
AcDbEntity
  8
0
  6
HIDDEN
 62
     7
370
    18
100
AcDbLine
 10
1360.8365547153
 20
1389.6305591043
 30
0.0
 11
1360.8365547153
 21
1492.6305591043
 31
0.0
  0
LINE
  5
122
330
1F
100
AcDbEntity
  8
0
  6
HIDDEN
 62
     7
370
    18
100
AcDbLine
 10
1435.8365547153
 20
1389.6305591043
 30
0.0
 11
1435.8365547153
 21
1492.6305591043
 31
0.0
  0
LINE
  5
123
330
1F
100
AcDbEntity
  8
0
  6
HIDDEN
 62
     7
370
    18
100
AcDbLine
 10
1360.8365547153
 20
1350.1277981739
 30
0.0
 11
1360.8365547153
 21
1239.6305591043
 31
0.0
  0
LINE
  5
124
330
1F
100
AcDbEntity
  8
0
  6
HIDDEN
 62
     7
370
    18
100
AcDbLine
 10
1360.8365547153
 20
1389.6305591043
 30
0.0
 11
1360.8365547153
 21
1350.1277981739
 31
0.0
  0
LINE
  5
125
330
1F
100
AcDbEntity
  8
0
  6
HIDDEN
 62
     7
370
    18
100
AcDbLine
 10
1435.8365547153
 20
1350.1277981739
 30
0.0
 11
1435.8365547153
 21
1239.6305591043
 31
0.0
  0
LINE
  5
126
330
1F
100
AcDbEntity
  8
0
  6
HIDDEN
 62
     7
370
    18
100
AcDbLine
 10
1435.8365547153
 20
1389.6305591043
 30
0.0
 11
1435.8365547153
 21
1350.1277981739
 31
0.0
  0
LINE
  5
127
330
1F
100
AcDbEntity
  8
0
  6
HIDDEN
 62
     7
370
    18
100
AcDbLine
 10
1817.3365547153
 20
986.6305591043
 30
0.0
 11
1817.3365547153
 21
1051.6305591043
 31
0.0
  0
LINE
  5
128
330
1F
100
AcDbEntity
  8
0
  6
HIDDEN
 62
     7
370
    18
100
AcDbLine
 10
1497.3365547153
 20
986.6305591043
 30
0.0
 11
1497.3365547153
 21
1051.6305591043
 31
0.0
  0
LINE
  5
129
330
1F
100
AcDbEntity
  8
0
  6
HIDDEN
 62
     7
370
    18
100
AcDbLine
 10
1817.3365547153
 20
1162.6305591043
 30
0.0
 11
1817.3365547153
 21
1087.6305591043
 31
0.0
  0
LINE
  5
12A
330
1F
100
AcDbEntity
  8
0
  6
HIDDEN
 62
     7
370
    18
100
AcDbLine
 10
1497.3365547153
 20
1162.6305591043
 30
0.0
 11
1497.3365547153
 21
1087.6305591043
 31
0.0
  0
LINE
  5
12B
330
1F
100
AcDbEntity
  8
0
  6
HIDDEN
 62
     7
370
    18
100
AcDbLine
 10
1577.7365547153
 20
1436.1305591043
 30
0.0
 11
1577.7365547153
 21
1405.5921575993
 31
0.0
  0
LINE
  5
12C
330
1F
100
AcDbEntity
  8
0
  6
HIDDEN
 62
     7
370
    18
100
AcDbLine
 10
1816.9365547153
 20
1436.1305591043
 30
0.0
 11
1816.9365547153
 21
1405.5921575993
 31
0.0
  0
LINE
  5
12D
330
1F
100
AcDbEntity
  8
0
  6
HIDDEN
 62
     7
370
    18
100
AcDbLine
 10
1815.3365547153
 20
1662.6305591043
 30
0.0
 11
1815.3365547153
 21
1405.7366966427
 31
0.0
  0
LINE
  5
12E
330
1F
100
AcDbEntity
  8
0
  6
HIDDEN
 62
     7
370
    18
100
AcDbLine
 10
1579.3365547153
 20
1662.6305591043
 30
0.0
 11
1579.3365547153
 21
1405.7366966427
 31
0.0
  0
LINE
  5
12F
330
1F
100
AcDbEntity
  8
0
  6
HIDDEN
 62
     7
370
    18
100
AcDbLine
 10
1577.7365547153
 20
1142.4305591043
 30
0.0
 11
1816.9365547153
 21
1142.4305591043
 31
0.0
  0
LINE
  5
130
330
1F
100
AcDbEntity
  8
0
  6
HIDDEN
 62
     7
370
    18
100
AcDbLine
 10
1577.7365547153
 20
1405.5921575993
 30
0.0
 11
1577.7365547153
 21
1142.4305591043
 31
0.0
  0
LINE
  5
131
330
1F
100
AcDbEntity
  8
0
  6
HIDDEN
 62
     7
370
    18
100
AcDbLine
 10
1816.9365547153
 20
1405.5921575993
 30
0.0
 11
1816.9365547153
 21
1208.2305591043
 31
0.0
  0
LINE
  5
132
330
1F
100
AcDbEntity
  8
0
  6
HIDDEN
 62
     7
370
    18
100
AcDbLine
 10
1816.9365547153
 20
1162.6305591043
 30
0.0
 11
1816.9365547153
 21
1142.4305591043
 31
0.0
  0
LINE
  5
133
330
1F
100
AcDbEntity
  8
0
  6
HIDDEN
 62
     7
370
    18
100
AcDbLine
 10
1579.3365547153
 20
1143.6305591043
 30
0.0
 11
1815.3365547153
 21
1143.6305591043
 31
0.0
  0
LINE
  5
134
330
1F
100
AcDbEntity
  8
0
  6
HIDDEN
 62
     7
370
    18
100
AcDbLine
 10
1579.3365547153
 20
1405.7366966427
 30
0.0
 11
1579.3365547153
 21
1143.6305591043
 31
0.0
  0
LINE
  5
135
330
1F
100
AcDbEntity
  8
0
  6
HIDDEN
 62
     7
370
    18
100
AcDbLine
 10
1815.3365547153
 20
1405.7366966427
 30
0.0
 11
1815.3365547153
 21
1143.6305591043
 31
0.0
  0
LINE
  5
136
330
1F
100
AcDbEntity
  8
0
  6
HIDDEN
 62
     7
370
    18
100
AcDbLine
 10
1818.3365547153
 20
1436.1305591043
 30
0.0
 11
1818.3365547153
 21
1235.1305591043
 31
0.0
  0
LINE
  5
137
330
1F
100
AcDbEntity
  8
0
  6
HIDDEN
 62
     7
370
    18
100
AcDbLine
 10
1579.3365547153
 20
1606.6305591043
 30
0.0
 11
1815.3365547153
 21
1606.6305591043
 31
0.0
  0
LINE
  5
138
330
1F
100
AcDbEntity
  8
0
  6
HIDDEN
 62
     7
370
    18
100
AcDbLine
 10
1577.7365547153
 20
1607.8305591043
 30
0.0
 11
1816.9365547153
 21
1607.8305591043
 31
0.0
  0
LINE
  5
139
330
1F
100
AcDbEntity
  8
0
  6
HIDDEN
 62
     7
370
    18
100
AcDbLine
 10
1435.8365547153
 20
1300.6305591043
 30
0.0
 11
1459.3365547153
 21
1300.6305591043
 31
0.0
  0
LINE
  5
13A
330
1F
100
AcDbEntity
  8
0
  6
HIDDEN
 62
     7
370
    18
100
AcDbLine
 10
1459.3365547153
 20
1328.6305591043
 30
0.0
 11
1435.8365547153
 21
1328.6305591043
 31
0.0
  0
LINE
  5
13B
330
1F
100
AcDbEntity
  8
0
  6
HIDDEN
 62
     7
370
    18
100
AcDbLine
 10
1435.8365547153
 20
1492.6305591043
 30
0.0
 11
1360.8365547153
 21
1492.6305591043
 31
0.0
  0
LINE
  5
13C
330
1F
100
AcDbEntity
  8
0
  6
HIDDEN
 62
     7
370
    18
100
AcDbLine
 10
1360.8365547153
 20
1342.6305591043
 30
0.0
 11
1435.8365547153
 21
1342.6305591043
 31
0.0
  0
LINE
  5
13D
330
1F
100
AcDbEntity
  8
0
  6
HIDDEN
 62
     7
370
    18
100
AcDbLine
 10
1360.8365547153
 20
1239.6305591043
 30
0.0
 11
1435.8365547153
 21
1239.6305591043
 31
0.0
  0
LINE
  5
13E
330
1F
100
AcDbEntity
  8
0
  6
HIDDEN
 62
     7
370
    18
100
AcDbLine
 10
1435.8365547153
 20
1389.6305591043
 30
0.0
 11
1360.8365547153
 21
1389.6305591043
 31
0.0
  0
LINE
  5
13F
330
1F
100
AcDbEntity
  8
0
  6
HIDDEN
 62
     7
370
    18
100
AcDbLine
 10
1845.3365547153
 20
986.6305591043
 30
0.0
 11
1845.3365547153
 21
989.8305591043
 31
0.0
  0
LINE
  5
140
330
1F
100
AcDbEntity
  8
0
  6
HIDDEN
 62
     7
370
    18
100
AcDbLine
 10
1833.3365547153
 20
989.8305591043
 30
0.0
 11
1833.3365547153
 21
986.6305591043
 31
0.0
  0
LINE
  5
141
330
1F
100
AcDbEntity
  8
0
  6
HIDDEN
 62
     7
370
    18
100
AcDbLine
 10
1481.3365547153
 20
986.6305591043
 30
0.0
 11
1481.3365547153
 21
989.8305591043
 31
0.0
  0
LINE
  5
142
330
1F
100
AcDbEntity
  8
0
  6
HIDDEN
 62
     7
370
    18
100
AcDbLine
 10
1469.3365547153
 20
989.8305591043
 30
0.0
 11
1469.3365547153
 21
986.6305591043
 31
0.0
  0
LINE
  5
143
330
1F
100
AcDbEntity
  8
0
  6
HIDDEN
 62
     7
370
    18
100
AcDbLine
 10
1828.3365547153
 20
1662.6305591043
 30
0.0
 11
1828.3365547153
 21
1659.6305591043
 31
0.0
  0
LINE
  5
144
330
1F
100
AcDbEntity
  8
0
  6
HIDDEN
 62
     7
370
    18
100
AcDbLine
 10
1836.3365547153
 20
1659.6305591043
 30
0.0
 11
1836.3365547153
 21
1662.6305591043
 31
0.0
  0
LINE
  5
145
330
1F
100
AcDbEntity
  8
0
  6
HIDDEN
 62
     7
370
    18
100
AcDbLine
 10
1743.3365547153
 20
1662.6305591043
 30
0.0
 11
1743.3365547153
 21
1659.6305591043
 31
0.0
  0
LINE
  5
146
330
1F
100
AcDbEntity
  8
0
  6
HIDDEN
 62
     7
370
    18
100
AcDbLine
 10
1751.3365547153
 20
1659.6305591043
 30
0.0
 11
1751.3365547153
 21
1662.6305591043
 31
0.0
  0
LINE
  5
147
330
1F
100
AcDbEntity
  8
0
  6
HIDDEN
 62
     7
370
    18
100
AcDbLine
 10
1643.3365547153
 20
1662.6305591043
 30
0.0
 11
1643.3365547153
 21
1659.6305591043
 31
0.0
  0
LINE
  5
148
330
1F
100
AcDbEntity
  8
0
  6
HIDDEN
 62
     7
370
    18
100
AcDbLine
 10
1651.3365547153
 20
1659.6305591043
 30
0.0
 11
1651.3365547153
 21
1662.6305591043
 31
0.0
  0
LINE
  5
149
330
1F
100
AcDbEntity
  8
0
  6
HIDDEN
 62
     7
370
    18
100
AcDbLine
 10
1558.3365547153
 20
1662.6305591043
 30
0.0
 11
1558.3365547153
 21
1659.6305591043
 31
0.0
  0
LINE
  5
14A
330
1F
100
AcDbEntity
  8
0
  6
HIDDEN
 62
     7
370
    18
100
AcDbLine
 10
1566.3365547153
 20
1659.6305591043
 30
0.0
 11
1566.3365547153
 21
1662.6305591043
 31
0.0
  0
LINE
  5
14B
330
1F
100
AcDbEntity
  8
0
  6
HIDDEN
 62
     7
370
    18
100
AcDbLine
 10
1816.9365547153
 20
1235.1305591043
 30
0.0
 11
1818.3365547153
 21
1235.1305591043
 31
0.0
  0
LINE
  5
14C
330
1F
100
AcDbEntity
  8
0
  6
HIDDEN
 62
     7
370
    18
100
AcDbLine
 10
1869.3365547153
 20
1376.9842738241
 30
0.0
 11
1867.0365547153
 21
1376.9842738241
 31
0.0
  0
LINE
  5
14D
330
1F
100
AcDbEntity
  8
0
  6
HIDDEN
 62
     7
370
    18
100
AcDbLine
 10
1867.0365547153
 20
1368.9842738241
 30
0.0
 11
1869.3365547153
 21
1368.9842738241
 31
0.0
  0
LINE
  5
14E
330
1F
100
AcDbEntity
  8
0
  6
HIDDEN
 62
     7
370
    18
100
AcDbLine
 10
1869.3365547153
 20
1466.2768443844
 30
0.0
 11
1867.0365547153
 21
1466.2768443844
 31
0.0
  0
LINE
  5
14F
330
1F
100
AcDbEntity
  8
0
  6
HIDDEN
 62
     7
370
    18
100
AcDbLine
 10
1867.0365547153
 20
1458.2768443844
 30
0.0
 11
1869.3365547153
 21
1458.2768443844
 31
0.0
  0
LINE
  5
150
330
1F
100
AcDbEntity
  8
0
  6
HIDDEN
 62
     7
370
    18
100
AcDbLine
 10
1818.3365547153
 20
1257.8305591043
 30
0.0
 11
1821.8365547153
 21
1257.8305591043
 31
0.0
  0
LINE
  5
151
330
1F
100
AcDbEntity
  8
0
  6
HIDDEN
 62
     7
370
    18
100
AcDbLine
 10
1815.3365547153
 20
1260.1305591043
 30
0.0
 11
1869.3365547153
 21
1260.1305591043
 31
0.0
  0
LINE
  5
152
330
1F
100
AcDbEntity
  8
0
  6
HIDDEN
 62
     7
370
    18
100
AcDbLine
 10
1869.3365547153
 20
1575.1305591043
 30
0.0
 11
1815.3365547153
 21
1575.1305591043
 31
0.0
  0
LINE
  5
153
330
1F
100
AcDbEntity
  8
0
  6
HIDDEN
 62
     7
370
    18
100
AcDbLine
 10
1869.3365547153
 20
1299.6546393496
 30
0.0
 11
1867.0365547153
 21
1299.6546393496
 31
0.0
  0
LINE
  5
154
330
1F
100
AcDbEntity
  8
0
  6
HIDDEN
 62
     7
370
    18
100
AcDbLine
 10
1867.0365547153
 20
1291.6546393496
 30
0.0
 11
1869.3365547153
 21
1291.6546393496
 31
0.0
  0
LINE
  5
155
330
1F
100
AcDbEntity
  8
0
  6
HIDDEN
 62
     7
370
    18
100
AcDbLine
 10
1869.3365547153
 20
1543.6064788589
 30
0.0
 11
1867.0365547153
 21
1543.6064788589
 31
0.0
  0
LINE
  5
156
330
1F
100
AcDbEntity
  8
0
  6
HIDDEN
 62
     7
370
    18
100
AcDbLine
 10
1867.0365547153
 20
1535.6064788589
 30
0.0
 11
1869.3365547153
 21
1535.6064788589
 31
0.0
  0
LINE
  5
157
330
1F
100
AcDbEntity
  8
0
  6
HIDDEN
 62
     7
370
    18
100
AcDbLine
 10
1869.3365547153
 20
1255.0083540694
 30
0.0
 11
1867.0365547153
 21
1255.0083540694
 31
0.0
  0
LINE
  5
158
330
1F
100
AcDbEntity
  8
0
  6
HIDDEN
 62
     7
370
    18
100
AcDbLine
 10
1867.0365547153
 20
1247.0083540694
 30
0.0
 11
1869.3365547153
 21
1247.0083540694
 31
0.0
  0
LINE
  5
159
330
1F
100
AcDbEntity
  8
0
  6
HIDDEN
 62
     7
370
    18
100
AcDbLine
 10
1869.3365547153
 20
1588.2527641391
 30
0.0
 11
1867.0365547153
 21
1588.2527641391
 31
0.0
  0
LINE
  5
15A
330
1F
100
AcDbEntity
  8
0
  6
HIDDEN
 62
     7
370
    18
100
AcDbLine
 10
1867.0365547153
 20
1580.2527641391
 30
0.0
 11
1869.3365547153
 21
1580.2527641391
 31
0.0
  0
LINE
  5
15B
330
1F
100
AcDbEntity
  8
2
100
AcDbLine
 10
1343.8824952305
 20
1417.6305591043
 30
0.0
 11
1856.6173287958
 21
1417.6305591043
 31
0.0
  0
LINE
  5
15C
330
1F
100
AcDbEntity
  8
2
100
AcDbLine
 10
1697.3365547153
 20
1650.9377969039
 30
0.0
 11
1697.3365547153
 21
1145.5294403846
 31
0.0
  0
LINE
  5
15D
330
1F
100
AcDbEntity
  8
1
100
AcDbLine
 10
1137.2871543693
 20
2105.7198300902
 30
0.0
 11
1137.2871543693
 21
2431.7198300902
 31
0.0
  0
LINE
  5
15E
330
1F
100
AcDbEntity
  8
1
100
AcDbLine
 10
894.2871543693
 20
2162.2198300902
 30
0.0
 11
894.2871543693
 21
2105.7198300902
 31
0.0
  0
LINE
  5
15F
330
1F
100
AcDbEntity
  8
1
100
AcDbLine
 10
1029.7871543693
 20
2069.2198300902
 30
0.0
 11
1029.7871543693
 21
2105.7198300902
 31
0.0
  0
LINE
  5
160
330
1F
100
AcDbEntity
  8
1
100
AcDbLine
 10
1001.7871543693
 20
2105.7198300902
 30
0.0
 11
1001.7871543693
 21
2069.2198300902
 31
0.0
  0
LINE
  5
161
330
1F
100
AcDbEntity
  8
1
100
AcDbLine
 10
385.2871543693
 20
2479.2198300902
 30
0.0
 11
385.2871543693
 21
2476.9198300902
 31
0.0
  0
LINE
  5
162
330
1F
100
AcDbEntity
  8
1
100
AcDbLine
 10
750.2871543693
 20
2476.9198300902
 30
0.0
 11
750.2871543693
 21
2479.2198300902
 31
0.0
  0
LINE
  5
163
330
1F
100
AcDbEntity
  8
1
100
AcDbLine
 10
385.2871543693
 20
2428.2198300902
 30
0.0
 11
385.2871543693
 21
2426.8198300902
 31
0.0
  0
LINE
  5
164
330
1F
100
AcDbEntity
  8
1
100
AcDbLine
 10
407.9871543693
 20
2476.9198300902
 30
0.0
 11
407.9871543693
 21
2428.2198300902
 31
0.0
  0
LINE
  5
165
330
1F
100
AcDbEntity
  8
1
100
AcDbLine
 10
727.5871543693
 20
2452.2198300902
 30
0.0
 11
727.5871543693
 21
2476.9198300902
 31
0.0
  0
LINE
  5
166
330
1F
100
AcDbEntity
  8
1
100
AcDbLine
 10
1137.2871543693
 20
2431.7198300902
 30
0.0
 11
946.2871543693
 21
2431.7198300902
 31
0.0
  0
LINE
  5
167
330
1F
100
AcDbEntity
  8
1
100
AcDbLine
 10
894.2871543693
 20
2105.7198300902
 30
0.0
 11
1137.2871543693
 21
2105.7198300902
 31
0.0
  0
LINE
  5
168
330
1F
100
AcDbEntity
  8
1
100
AcDbLine
 10
1137.2871543693
 20
2375.7198300902
 30
0.0
 11
1158.2871543693
 21
2375.7198300902
 31
0.0
  0
LINE
  5
169
330
1F
100
AcDbEntity
  8
1
100
AcDbLine
 10
1158.2871543693
 20
2115.7198300902
 30
0.0
 11
1137.2871543693
 21
2115.7198300902
 31
0.0
  0
LINE
  5
16A
330
1F
100
AcDbEntity
  8
1
100
AcDbLine
 10
894.2871543693
 20
2115.7198300902
 30
0.0
 11
873.2871543693
 21
2115.7198300902
 31
0.0
  0
LINE
  5
16B
330
1F
100
AcDbEntity
  8
1
100
AcDbLine
 10
873.2871543693
 20
2115.7198300902
 30
0.0
 11
873.2871543693
 21
2162.2198300902
 31
0.0
  0
LINE
  5
16C
330
1F
100
AcDbEntity
  8
1
100
AcDbLine
 10
1158.2871543693
 20
2375.7198300902
 30
0.0
 11
1158.2871543693
 21
2115.7198300902
 31
0.0
  0
LINE
  5
16D
330
1F
100
AcDbEntity
  8
1
100
AcDbLine
 10
390.7871543693
 20
2069.2198300902
 30
0.0
 11
390.7871543693
 21
1947.2198300902
 31
0.0
  0
LINE
  5
16E
330
1F
100
AcDbEntity
  8
1
100
AcDbLine
 10
390.7871543693
 20
2069.2198300902
 30
0.0
 11
1190.7871543693
 21
2069.2198300902
 31
0.0
  0
LINE
  5
16F
330
1F
100
AcDbEntity
  8
1
100
AcDbLine
 10
390.7871543693
 20
1947.2198300902
 30
0.0
 11
1190.7871543693
 21
1947.2198300902
 31
0.0
  0
LINE
  5
170
330
1F
100
AcDbEntity
  8
1
100
AcDbLine
 10
1190.7871543693
 20
2069.2198300902
 30
0.0
 11
1190.7871543693
 21
1947.2198300902
 31
0.0
  0
LINE
  5
171
330
1F
100
AcDbEntity
  8
1
100
AcDbLine
 10
1225.7871543693
 20
1967.2198300902
 30
0.0
 11
1190.7871543693
 21
1967.2198300902
 31
0.0
  0
LINE
  5
172
330
1F
100
AcDbEntity
  8
1
100
AcDbLine
 10
1125.7871543693
 20
2069.2198300902
 30
0.0
 11
1125.7871543693
 21
2097.2198300902
 31
0.0
  0
LINE
  5
173
330
1F
100
AcDbEntity
  8
1
100
AcDbLine
 10
1125.7871543693
 20
2097.2198300902
 30
0.0
 11
1225.7871543693
 21
2097.2198300902
 31
0.0
  0
LINE
  5
174
330
1F
100
AcDbEntity
  8
1
100
AcDbLine
 10
1225.7871543693
 20
2097.2198300902
 30
0.0
 11
1225.7871543693
 21
1967.2198300902
 31
0.0
  0
LINE
  5
175
330
1F
100
AcDbEntity
  8
1
100
AcDbLine
 10
390.7871543693
 20
1967.2198300902
 30
0.0
 11
355.7871543693
 21
1967.2198300902
 31
0.0
  0
LINE
  5
176
330
1F
100
AcDbEntity
  8
1
100
AcDbLine
 10
355.7871543693
 20
2097.2198300902
 30
0.0
 11
455.7871543693
 21
2097.2198300902
 31
0.0
  0
LINE
  5
177
330
1F
100
AcDbEntity
  8
1
100
AcDbLine
 10
455.7871543693
 20
2097.2198300902
 30
0.0
 11
455.7871543693
 21
2069.2198300902
 31
0.0
  0
LINE
  5
178
330
1F
100
AcDbEntity
  8
1
100
AcDbLine
 10
355.7871543693
 20
1967.2198300902
 30
0.0
 11
355.7871543693
 21
2097.2198300902
 31
0.0
  0
LINE
  5
179
330
1F
100
AcDbEntity
  8
1
100
AcDbLine
 10
1255.7871543693
 20
2467.2198300902
 30
0.0
 11
1255.7871543693
 21
2067.2198300902
 31
0.0
  0
LINE
  5
17A
330
1F
100
AcDbEntity
  8
1
100
AcDbLine
 10
1255.7871543693
 20
2067.2198300902
 30
0.0
 11
1225.7871543693
 21
2067.2198300902
 31
0.0
  0
LINE
  5
17B
330
1F
100
AcDbEntity
  8
1
100
AcDbLine
 10
1137.2871543693
 20
2427.2198300902
 30
0.0
 11
1215.7871543693
 21
2427.2198300902
 31
0.0
  0
LINE
  5
17C
330
1F
100
AcDbEntity
  8
1
100
AcDbLine
 10
395.7871543693
 20
2107.2198300902
 30
0.0
 11
395.7871543693
 21
2187.6198300902
 31
0.0
  0
LINE
  5
17D
330
1F
100
AcDbEntity
  8
1
100
AcDbLine
 10
1215.7871543693
 20
2107.2198300902
 30
0.0
 11
1137.2871543693
 21
2107.2198300902
 31
0.0
  0
LINE
  5
17E
330
1F
100
AcDbEntity
  8
1
100
AcDbLine
 10
894.2871543693
 20
2107.2198300902
 30
0.0
 11
395.7871543693
 21
2107.2198300902
 31
0.0
  0
LINE
  5
17F
330
1F
100
AcDbEntity
  8
1
100
AcDbLine
 10
1215.7871543693
 20
2427.2198300902
 30
0.0
 11
1215.7871543693
 21
2107.2198300902
 31
0.0
  0
LINE
  5
180
330
1F
100
AcDbEntity
  8
1
100
AcDbLine
 10
355.7871543693
 20
2467.2198300902
 30
0.0
 11
407.9871543693
 21
2467.2198300902
 31
0.0
  0
LINE
  5
181
330
1F
100
AcDbEntity
  8
1
100
AcDbLine
 10
727.5871543693
 20
2467.2198300902
 30
0.0
 11
1255.7871543693
 21
2467.2198300902
 31
0.0
  0
LINE
  5
182
330
1F
100
AcDbEntity
  8
1
100
AcDbLine
 10
355.7871543693
 20
2097.2198300902
 30
0.0
 11
355.7871543693
 21
2187.6198300902
 31
0.0
  0
LINE
  5
183
330
1F
100
AcDbEntity
  8
1
100
AcDbLine
 10
355.7871543693
 20
2426.8198300902
 30
0.0
 11
355.7871543693
 21
2467.2198300902
 31
0.0
  0
CIRCLE
  5
184
330
1F
100
AcDbEntity
  8
1
100
AcDbCircle
 10
936.2871543693
 20
2172.2198300902
 30
0.0
 40
4.0
  0
CIRCLE
  5
185
330
1F
100
AcDbEntity
  8
1
100
AcDbCircle
 10
856.2871543693
 20
2172.2198300902
 30
0.0
 40
4.0
  0
CIRCLE
  5
186
330
1F
100
AcDbEntity
  8
1
100
AcDbCircle
 10
756.2871543693
 20
2172.2198300902
 30
0.0
 40
4.0
  0
CIRCLE
  5
187
330
1F
100
AcDbEntity
  8
1
100
AcDbCircle
 10
936.2871543693
 20
2257.2198300902
 30
0.0
 40
4.0
  0
CIRCLE
  5
188
330
1F
100
AcDbEntity
  8
1
100
AcDbCircle
 10
936.2871543693
 20
2357.2198300902
 30
0.0
 40
4.0
  0
CIRCLE
  5
189
330
1F
100
AcDbEntity
  8
1
100
AcDbCircle
 10
756.2871543693
 20
2442.2198300902
 30
0.0
 40
4.0
  0
CIRCLE
  5
18A
330
1F
100
AcDbEntity
  8
1
100
AcDbCircle
 10
856.2871543693
 20
2442.2198300902
 30
0.0
 40
4.0
  0
CIRCLE
  5
18B
330
1F
100
AcDbEntity
  8
1
100
AcDbCircle
 10
936.2871543693
 20
2442.2198300902
 30
0.0
 40
4.0
  0
CIRCLE
  5
18C
330
1F
100
AcDbEntity
  8
1
100
AcDbCircle
 10
576.2871543693
 20
2442.2198300902
 30
0.0
 40
4.000000000000455
  0
CIRCLE
  5
18D
330
1F
100
AcDbEntity
  8
1
100
AcDbCircle
 10
656.2871543693
 20
2442.2198300902
 30
0.0
 40
4.0
  0
CIRCLE
  5
18E
330
1F
100
AcDbEntity
  8
1
100
AcDbCircle
 10
576.2871543693
 20
2357.2198300902
 30
0.0
 40
4.0
  0
CIRCLE
  5
18F
330
1F
100
AcDbEntity
  8
1
100
AcDbCircle
 10
576.2871543693
 20
2257.2198300902
 30
0.0
 40
4.0
  0
CIRCLE
  5
190
330
1F
100
AcDbEntity
  8
1
100
AcDbCircle
 10
656.2871543693
 20
2172.2198300902
 30
0.0
 40
4.0
  0
LINE
  5
191
330
1F
100
AcDbEntity
  8
1
100
AcDbLine
 10
566.2871543693
 20
2162.2198300902
 30
0.0
 11
566.2871543693
 21
2452.2198300902
 31
0.0
  0
LINE
  5
192
330
1F
100
AcDbEntity
  8
1
100
AcDbLine
 10
566.2871543693
 20
2452.2198300902
 30
0.0
 11
946.2871543693
 21
2452.2198300902
 31
0.0
  0
LINE
  5
193
330
1F
100
AcDbEntity
  8
1
100
AcDbLine
 10
946.2871543693
 20
2452.2198300902
 30
0.0
 11
946.2871543693
 21
2162.2198300902
 31
0.0
  0
LINE
  5
194
330
1F
100
AcDbEntity
  8
1
100
AcDbLine
 10
946.2871543693
 20
2162.2198300902
 30
0.0
 11
566.2871543693
 21
2162.2198300902
 31
0.0
  0
LINE
  5
195
330
1F
100
AcDbEntity
  8
1
100
AcDbLine
 10
593.7871543693
 20
2189.2198300902
 30
0.0
 11
593.7871543693
 21
2425.2198300902
 31
0.0
  0
LINE
  5
196
330
1F
100
AcDbEntity
  8
1
100
AcDbLine
 10
593.7871543693
 20
2189.2198300902
 30
0.0
 11
918.7871543693
 21
2189.2198300902
 31
0.0
  0
LINE
  5
197
330
1F
100
AcDbEntity
  8
1
100
AcDbLine
 10
918.7871543693
 20
2189.2198300902
 30
0.0
 11
918.7871543693
 21
2425.2198300902
 31
0.0
  0
LINE
  5
198
330
1F
100
AcDbEntity
  8
1
100
AcDbLine
 10
593.7871543693
 20
2425.2198300902
 30
0.0
 11
918.7871543693
 21
2425.2198300902
 31
0.0
  0
CIRCLE
  5
199
330
1F
100
AcDbEntity
  8
1
100
AcDbCircle
 10
576.2871543693
 20
2172.2198300902
 30
0.0
 40
4.0
  0
LINE
  5
19A
330
1F
100
AcDbEntity
  8
1
100
AcDbLine
 10
549.2871543693
 20
2187.6198300902
 30
0.0
 11
566.2871543693
 21
2187.6198300902
 31
0.0
  0
LINE
  5
19B
330
1F
100
AcDbEntity
  8
1
100
AcDbLine
 10
549.2871543693
 20
2426.8198300902
 30
0.0
 11
566.2871543693
 21
2426.8198300902
 31
0.0
  0
LINE
  5
19C
330
1F
100
AcDbEntity
  8
1
100
AcDbLine
 10
340.5871543693
 20
2187.6198300902
 30
0.0
 11
340.5871543693
 21
2426.8198300902
 31
0.0
  0
LINE
  5
19D
330
1F
100
AcDbEntity
  8
1
100
AcDbLine
 10
340.5871543693
 20
2187.6198300902
 30
0.0
 11
549.2871543693
 21
2187.6198300902
 31
0.0
  0
LINE
  5
19E
330
1F
100
AcDbEntity
  8
1
100
AcDbLine
 10
340.5871543693
 20
2426.8198300902
 30
0.0
 11
549.2871543693
 21
2426.8198300902
 31
0.0
  0
LINE
  5
19F
330
1F
100
AcDbEntity
  8
1
100
AcDbLine
 10
750.2871543693
 20
2476.9198300902
 30
0.0
 11
385.2871543693
 21
2476.9198300902
 31
0.0
  0
LINE
  5
1A0
330
1F
100
AcDbEntity
  8
1
100
AcDbLine
 10
750.2871543693
 20
2479.2198300902
 30
0.0
 11
385.2871543693
 21
2479.2198300902
 31
0.0
  0
LINE
  5
1A1
330
1F
100
AcDbEntity
  8
1
100
AcDbLine
 10
385.2871543693
 20
2428.2198300902
 30
0.0
 11
566.2871543693
 21
2428.2198300902
 31
0.0
  0
LINE
  5
1A2
330
1F
100
AcDbEntity
  8
0
  6
HIDDEN
 62
     7
370
    18
100
AcDbLine
 10
947.9519864989
 20
2135.7198300902
 30
0.0
 11
957.1246450469
 21
2135.7198300902
 31
0.0
  0
LINE
  5
1A3
330
1F
100
AcDbEntity
  8
0
  6
HIDDEN
 62
     7
370
    18
100
AcDbLine
 10
947.9519864989
 20
2135.7198300902
 30
0.0
 11
947.9519864989
 21
2355.7198300902
 31
0.0
  0
LINE
  5
1A4
330
1F
100
AcDbEntity
  8
0
  6
HIDDEN
 62
     7
370
    18
100
AcDbLine
 10
947.9519864989
 20
2355.7198300902
 30
0.0
 11
957.1246450469
 21
2355.7198300902
 31
0.0
  0
LINE
  5
1A5
330
1F
100
AcDbEntity
  8
0
  6
HIDDEN
 62
     7
370
    18
100
AcDbLine
 10
957.1246450469
 20
2431.7198300902
 30
0.0
 11
957.1246450469
 21
2355.7198300902
 31
0.0
  0
LINE
  5
1A6
330
1F
100
AcDbEntity
  8
0
  6
HIDDEN
 62
     7
370
    18
100
AcDbLine
 10
946.2871543693
 20
2431.7198300902
 30
0.0
 11
894.2871543693
 21
2431.7198300902
 31
0.0
  0
LINE
  5
1A7
330
1F
100
AcDbEntity
  8
0
  6
HIDDEN
 62
     7
370
    18
100
AcDbLine
 10
1074.4496636917
 20
2431.7198300902
 30
0.0
 11
1074.4496636917
 21
2355.7198300902
 31
0.0
  0
LINE
  5
1A8
330
1F
100
AcDbEntity
  8
0
  6
HIDDEN
 62
     7
370
    18
100
AcDbLine
 10
1074.4496636917
 20
2355.7198300902
 30
0.0
 11
1083.6223222397
 21
2355.7198300902
 31
0.0
  0
LINE
  5
1A9
330
1F
100
AcDbEntity
  8
0
  6
HIDDEN
 62
     7
370
    18
100
AcDbLine
 10
1083.6223222397
 20
2355.7198300902
 30
0.0
 11
1083.6223222397
 21
2135.7198300902
 31
0.0
  0
LINE
  5
1AA
330
1F
100
AcDbEntity
  8
0
  6
HIDDEN
 62
     7
370
    18
100
AcDbLine
 10
1074.4496636917
 20
2135.7198300902
 30
0.0
 11
1083.6223222397
 21
2135.7198300902
 31
0.0
  0
LINE
  5
1AB
330
1F
100
AcDbEntity
  8
0
  6
HIDDEN
 62
     7
370
    18
100
AcDbLine
 10
1074.4496636917
 20
2135.7198300902
 30
0.0
 11
1074.4496636917
 21
2105.7198300902
 31
0.0
  0
LINE
  5
1AC
330
1F
100
AcDbEntity
  8
0
  6
HIDDEN
 62
     7
370
    18
100
AcDbLine
 10
957.1246450469
 20
2135.7198300902
 30
0.0
 11
957.1246450469
 21
2105.7198300902
 31
0.0
  0
LINE
  5
1AD
330
1F
100
AcDbEntity
  8
0
  6
HIDDEN
 62
     7
370
    18
100
AcDbLine
 10
931.7871543693
 20
2135.7198300902
 30
0.0
 11
931.7871543693
 21
2355.7198300902
 31
0.0
  0
LINE
  5
1AE
330
1F
100
AcDbEntity
  8
0
  6
HIDDEN
 62
     7
370
    18
100
AcDbLine
 10
947.9519864989
 20
2355.7198300902
 30
0.0
 11
931.7871543693
 21
2355.7198300902
 31
0.0
  0
LINE
  5
1AF
330
1F
100
AcDbEntity
  8
0
  6
HIDDEN
 62
     7
370
    18
100
AcDbLine
 10
947.9519864989
 20
2135.7198300902
 30
0.0
 11
931.7871543693
 21
2135.7198300902
 31
0.0
  0
LINE
  5
1B0
330
1F
100
AcDbEntity
  8
0
  6
HIDDEN
 62
     7
370
    18
100
AcDbLine
 10
1099.7871543693
 20
2135.7198300902
 30
0.0
 11
1099.7871543693
 21
2355.7198300902
 31
0.0
  0
LINE
  5
1B1
330
1F
100
AcDbEntity
  8
0
  6
HIDDEN
 62
     7
370
    18
100
AcDbLine
 10
1099.7871543693
 20
2135.7198300902
 30
0.0
 11
1083.6223222397
 21
2135.7198300902
 31
0.0
  0
LINE
  5
1B2
330
1F
100
AcDbEntity
  8
0
  6
HIDDEN
 62
     7
370
    18
100
AcDbLine
 10
1099.7871543693
 20
2355.7198300902
 30
0.0
 11
1083.6223222397
 21
2355.7198300902
 31
0.0
  0
LINE
  5
1B3
330
1F
100
AcDbEntity
  8
0
  6
HIDDEN
 62
     7
370
    18
100
AcDbLine
 10
957.1246450469
 20
2355.7198300902
 30
0.0
 11
1074.4496636917
 21
2355.7198300902
 31
0.0
  0
LINE
  5
1B4
330
1F
100
AcDbEntity
  8
0
  6
HIDDEN
 62
     7
370
    18
100
AcDbLine
 10
957.1246450469
 20
2135.7198300902
 30
0.0
 11
1074.4496636917
 21
2135.7198300902
 31
0.0
  0
LINE
  5
1B5
330
1F
100
AcDbEntity
  8
0
  6
HIDDEN
 62
     7
370
    18
100
AcDbLine
 10
873.2871543693
 20
2375.7198300902
 30
0.0
 11
1137.2871543693
 21
2375.7198300902
 31
0.0
  0
LINE
  5
1B6
330
1F
100
AcDbEntity
  8
0
  6
HIDDEN
 62
     7
370
    18
100
AcDbLine
 10
1137.2871543693
 20
2115.7198300902
 30
0.0
 11
894.2871543693
 21
2115.7198300902
 31
0.0
  0
LINE
  5
1B7
330
1F
100
AcDbEntity
  8
0
  6
HIDDEN
 62
     7
370
    18
100
AcDbLine
 10
873.2871543693
 20
2162.2198300902
 30
0.0
 11
873.2871543693
 21
2375.7198300902
 31
0.0
  0
LINE
  5
1B8
330
1F
100
AcDbEntity
  8
0
  6
HIDDEN
 62
     7
370
    18
100
AcDbLine
 10
642.7871543693
 20
2045.7198300902
 30
0.0
 11
492.7871543693
 21
2045.7198300902
 31
0.0
  0
LINE
  5
1B9
330
1F
100
AcDbEntity
  8
0
  6
HIDDEN
 62
     7
370
    18
100
AcDbLine
 10
642.7871543693
 20
1970.7198300902
 30
0.0
 11
492.7871543693
 21
1970.7198300902
 31
0.0
  0
LINE
  5
1BA
330
1F
100
AcDbEntity
  8
0
  6
HIDDEN
 62
     7
370
    18
100
AcDbLine
 10
1081.8548924752
 20
1970.7198300902
 30
0.0
 11
1090.7871543693
 21
1970.7198300902
 31
0.0
  0
LINE
  5
1BB
330
1F
100
AcDbEntity
  8
0
  6
HIDDEN
 62
     7
370
    18
100
AcDbLine
 10
940.7871543693
 20
1970.7198300902
 30
0.0
 11
1081.8548924752
 21
1970.7198300902
 31
0.0
  0
LINE
  5
1BC
330
1F
100
AcDbEntity
  8
0
  6
HIDDEN
 62
     7
370
    18
100
AcDbLine
 10
1081.8548924752
 20
2045.7198300902
 30
0.0
 11
1090.7871543693
 21
2045.7198300902
 31
0.0
  0
LINE
  5
1BD
330
1F
100
AcDbEntity
  8
0
  6
HIDDEN
 62
     7
370
    18
100
AcDbLine
 10
940.7871543693
 20
2045.7198300902
 30
0.0
 11
1081.8548924752
 21
2045.7198300902
 31
0.0
  0
LINE
  5
1BE
330
1F
100
AcDbEntity
  8
0
  6
HIDDEN
 62
     7
370
    18
100
AcDbLine
 10
392.5871543693
 20
2430.4198300902
 30
0.0
 11
1218.9871543693
 21
2430.4198300902
 31
0.0
  0
LINE
  5
1BF
330
1F
100
AcDbEntity
  8
0
  6
HIDDEN
 62
     7
370
    18
100
AcDbLine
 10
1218.9871543693
 20
2430.4198300902
 30
0.0
 11
1218.9871543693
 21
2104.0198300903
 31
0.0
  0
LINE
  5
1C0
330
1F
100
AcDbEntity
  8
0
  6
HIDDEN
 62
     7
370
    18
100
AcDbLine
 10
392.5871543693
 20
2104.0198300903
 30
0.0
 11
392.5871543693
 21
2430.4198300902
 31
0.0
  0
LINE
  5
1C1
330
1F
100
AcDbEntity
  8
0
  6
HIDDEN
 62
     7
370
    18
100
AcDbLine
 10
1218.9871543693
 20
2104.0198300903
 30
0.0
 11
392.5871543693
 21
2104.0198300903
 31
0.0
  0
CIRCLE
  5
1C2
330
1F
100
AcDbEntity
  8
0
  6
HIDDEN
 62
     7
370
    18
100
AcDbCircle
 10
1205.7871543693
 20
2085.2198300902
 30
0.0
 40
5.999999999999545
  0
CIRCLE
  5
1C3
330
1F
100
AcDbEntity
  8
0
  6
HIDDEN
 62
     7
370
    18
100
AcDbCircle
 10
1205.7871543693
 20
2449.2198300902
 30
0.0
 40
6.000000000000455
  0
CIRCLE
  5
1C4
330
1F
100
AcDbEntity
  8
0
  6
HIDDEN
 62
     7
370
    18
100
AcDbCircle
 10
805.7871543693
 20
2449.2198300902
 30
0.0
 40
6.000000000000455
  0
CIRCLE
  5
1C5
330
1F
100
AcDbEntity
  8
0
  6
HIDDEN
 62
     7
370
    18
100
AcDbCircle
 10
805.7871543693
 20
2085.2198300902
 30
0.0
 40
5.999999999999545
  0
CIRCLE
  5
1C6
330
1F
100
AcDbEntity
  8
0
  6
HIDDEN
 62
     7
370
    18
100
AcDbCircle
 10
405.7871543693
 20
2085.2198300902
 30
0.0
 40
5.999999999999545
  0
CIRCLE
  5
1C7
330
1F
100
AcDbEntity
  8
0
  6
HIDDEN
 62
     7
370
    18
100
AcDbCircle
 10
405.7871543693
 20
2449.2198300902
 30
0.0
 40
6.000000000000455
  0
LINE
  5
1C8
330
1F
100
AcDbEntity
  8
0
  6
HIDDEN
 62
     7
370
    18
100
AcDbLine
 10
1190.7871543693
 20
1967.2198300902
 30
0.0
 11
1125.7871543693
 21
1967.2198300902
 31
0.0
  0
LINE
  5
1C9
330
1F
100
AcDbEntity
  8
0
  6
HIDDEN
 62
     7
370
    18
100
AcDbLine
 10
1125.7871543693
 20
1967.2198300902
 30
0.0
 11
1125.7871543693
 21
2069.2198300902
 31
0.0
  0
LINE
  5
1CA
330
1F
100
AcDbEntity
  8
0
  6
HIDDEN
 62
     7
370
    18
100
AcDbLine
 10
455.7871543693
 20
1967.2198300902
 30
0.0
 11
390.7871543693
 21
1967.2198300902
 31
0.0
  0
LINE
  5
1CB
330
1F
100
AcDbEntity
  8
0
  6
HIDDEN
 62
     7
370
    18
100
AcDbLine
 10
455.7871543693
 20
2069.2198300902
 30
0.0
 11
455.7871543693
 21
1967.2198300902
 31
0.0
  0
LINE
  5
1CC
330
1F
100
AcDbEntity
  8
0
  6
HIDDEN
 62
     7
370
    18
100
AcDbLine
 10
1125.7871543693
 20
2067.2198300902
 30
0.0
 11
455.7871543693
 21
2067.2198300902
 31
0.0
  0
LINE
  5
1CD
330
1F
100
AcDbEntity
  8
0
  6
HIDDEN
 62
     7
370
    18
100
AcDbLine
 10
395.7871543693
 20
2427.2198300902
 30
0.0
 11
1137.2871543693
 21
2427.2198300902
 31
0.0
  0
LINE
  5
1CE
330
1F
100
AcDbEntity
  8
0
  6
HIDDEN
 62
     7
370
    18
100
AcDbLine
 10
395.7871543693
 20
2187.6198300902
 30
0.0
 11
395.7871543693
 21
2427.2198300902
 31
0.0
  0
LINE
  5
1CF
330
1F
100
AcDbEntity
  8
0
  6
HIDDEN
 62
     7
370
    18
100
AcDbLine
 10
1137.2871543693
 20
2107.2198300902
 30
0.0
 11
894.2871543693
 21
2107.2198300902
 31
0.0
  0
LINE
  5
1D0
330
1F
100
AcDbEntity
  8
0
  6
HIDDEN
 62
     7
370
    18
100
AcDbLine
 10
407.9871543693
 20
2467.2198300902
 30
0.0
 11
727.5871543693
 21
2467.2198300902
 31
0.0
  0
LINE
  5
1D1
330
1F
100
AcDbEntity
  8
0
  6
HIDDEN
 62
     7
370
    18
100
AcDbLine
 10
355.7871543693
 20
2187.6198300902
 30
0.0
 11
355.7871543693
 21
2426.8198300902
 31
0.0
  0
LINE
  5
1D2
330
1F
100
AcDbEntity
  8
0
  6
HIDDEN
 62
     7
370
    18
100
AcDbLine
 10
455.7871543693
 20
2067.2198300902
 30
0.0
 11
355.7871543693
 21
2067.2198300902
 31
0.0
  0
LINE
  5
1D3
330
1F
100
AcDbEntity
  8
0
  6
HIDDEN
 62
     7
370
    18
100
AcDbLine
 10
1225.7871543693
 20
2067.2198300902
 30
0.0
 11
1125.7871543693
 21
2067.2198300902
 31
0.0
  0
LINE
  5
1D4
330
1F
100
AcDbEntity
  8
0
  6
HIDDEN
 62
     7
370
    18
100
AcDbLine
 10
390.7871543693
 20
2432.2198300902
 30
0.0
 11
1220.7871543693
 21
2432.2198300902
 31
0.0
  0
LINE
  5
1D5
330
1F
100
AcDbEntity
  8
0
  6
HIDDEN
 62
     7
370
    18
100
AcDbLine
 10
1220.7871543693
 20
2432.2198300902
 30
0.0
 11
1220.7871543693
 21
2102.2198300902
 31
0.0
  0
LINE
  5
1D6
330
1F
100
AcDbEntity
  8
0
  6
HIDDEN
 62
     7
370
    18
100
AcDbLine
 10
390.7871543693
 20
2102.2198300902
 30
0.0
 11
390.7871543693
 21
2432.2198300902
 31
0.0
  0
LINE
  5
1D7
330
1F
100
AcDbEntity
  8
0
  6
HIDDEN
 62
     7
370
    18
100
AcDbLine
 10
1220.7871543693
 20
2102.2198300902
 30
0.0
 11
390.7871543693
 21
2102.2198300902
 31
0.0
  0
CIRCLE
  5
1D8
330
1F
100
AcDbEntity
  8
0
  6
HIDDEN
 62
     7
370
    18
100
AcDbCircle
 10
1215.7871543693
 20
2447.2198300902
 30
0.0
 40
17.5
  0
CIRCLE
  5
1D9
330
1F
100
AcDbEntity
  8
0
  6
HIDDEN
 62
     7
370
    18
100
AcDbCircle
 10
395.7871543693
 20
2447.2198300902
 30
0.0
 40
17.5
  0
CIRCLE
  5
1DA
330
1F
100
AcDbEntity
  8
0
  6
HIDDEN
 62
     7
370
    18
100
AcDbCircle
 10
395.7871543693
 20
2087.2198300902
 30
0.0
 40
17.49999999999955
  0
CIRCLE
  5
1DB
330
1F
100
AcDbEntity
  8
0
  6
HIDDEN
 62
     7
370
    18
100
AcDbCircle
 10
1215.7871543693
 20
2087.2198300902
 30
0.0
 40
17.49999999999955
  0
LINE
  5
1DC
330
1F
100
AcDbEntity
  8
0
  6
HIDDEN
 62
     7
370
    18
100
AcDbLine
 10
919.6319573556
 20
2426.8198300902
 30
0.0
 11
592.5871543693
 21
2426.8198300902
 31
0.0
  0
LINE
  5
1DD
330
1F
100
AcDbEntity
  8
0
  6
HIDDEN
 62
     7
370
    18
100
AcDbLine
 10
592.5871543693
 20
2187.6198300902
 30
0.0
 11
592.5871543693
 21
2426.8198300902
 31
0.0
  0
LINE
  5
1DE
330
1F
100
AcDbEntity
  8
0
  6
HIDDEN
 62
     7
370
    18
100
AcDbLine
 10
919.6319573556
 20
2426.8198300902
 30
0.0
 11
919.6319573556
 21
2187.6198300902
 31
0.0
  0
LINE
  5
1DF
330
1F
100
AcDbEntity
  8
0
  6
HIDDEN
 62
     7
370
    18
100
AcDbLine
 10
919.6319573556
 20
2187.6198300902
 30
0.0
 11
592.5871543693
 21
2187.6198300902
 31
0.0
  0
LINE
  5
1E0
330
1F
100
AcDbEntity
  8
0
  6
HIDDEN
 62
     7
370
    18
100
AcDbLine
 10
566.2871543693
 20
2187.6198300902
 30
0.0
 11
592.5871543693
 21
2187.6198300902
 31
0.0
  0
LINE
  5
1E1
330
1F
100
AcDbEntity
  8
0
  6
HIDDEN
 62
     7
370
    18
100
AcDbLine
 10
566.2871543693
 20
2426.8198300902
 30
0.0
 11
592.5871543693
 21
2426.8198300902
 31
0.0
  0
LINE
  5
1E2
330
1F
100
AcDbEntity
  8
0
  6
HIDDEN
 62
     7
370
    18
100
AcDbLine
 10
549.2871543693
 20
2189.2198300902
 30
0.0
 11
593.7871543693
 21
2189.2198300902
 31
0.0
  0
LINE
  5
1E3
330
1F
100
AcDbEntity
  8
0
  6
HIDDEN
 62
     7
370
    18
100
AcDbLine
 10
549.2871543693
 20
2425.2198300902
 30
0.0
 11
593.7871543693
 21
2425.2198300902
 31
0.0
  0
LINE
  5
1E4
330
1F
100
AcDbEntity
  8
0
  6
HIDDEN
 62
     7
370
    18
100
AcDbLine
 10
341.7871543693
 20
2189.2198300902
 30
0.0
 11
341.7871543693
 21
2425.2198300902
 31
0.0
  0
LINE
  5
1E5
330
1F
100
AcDbEntity
  8
0
  6
HIDDEN
 62
     7
370
    18
100
AcDbLine
 10
341.7871543693
 20
2189.2198300902
 30
0.0
 11
549.2871543693
 21
2189.2198300902
 31
0.0
  0
LINE
  5
1E6
330
1F
100
AcDbEntity
  8
0
  6
HIDDEN
 62
     7
370
    18
100
AcDbLine
 10
341.7871543693
 20
2425.2198300902
 30
0.0
 11
549.2871543693
 21
2425.2198300902
 31
0.0
  0
LINE
  5
1E7
330
1F
100
AcDbEntity
  8
0
  6
HIDDEN
 62
     7
370
    18
100
AcDbLine
 10
566.2871543693
 20
2428.2198300902
 30
0.0
 11
750.2871543693
 21
2428.2198300902
 31
0.0
  0
LINE
  5
1E8
330
1F
100
AcDbEntity
  8
0
  6
HIDDEN
 62
     7
370
    18
100
AcDbLine
 10
894.2871543693
 20
2431.7198300902
 30
0.0
 11
894.2871543693
 21
2162.2198300902
 31
0.0
  0
LINE
  5
1E9
330
1F
100
AcDbEntity
  8
0
  6
HIDDEN
 62
     7
370
    18
100
AcDbLine
 10
1029.7871543693
 20
2045.7198300902
 30
0.0
 11
1029.7871543693
 21
2069.2198300902
 31
0.0
  0
LINE
  5
1EA
330
1F
100
AcDbEntity
  8
0
  6
HIDDEN
 62
     7
370
    18
100
AcDbLine
 10
1001.7871543693
 20
2069.2198300902
 30
0.0
 11
1001.7871543693
 21
2045.7198300902
 31
0.0
  0
LINE
  5
1EB
330
1F
100
AcDbEntity
  8
0
  6
HIDDEN
 62
     7
370
    18
100
AcDbLine
 10
492.7871543693
 20
2045.7198300902
 30
0.0
 11
492.7871543693
 21
1970.7198300902
 31
0.0
  0
LINE
  5
1EC
330
1F
100
AcDbEntity
  8
0
  6
HIDDEN
 62
     7
370
    18
100
AcDbLine
 10
642.7871543693
 20
1970.7198300902
 30
0.0
 11
642.7871543693
 21
2045.7198300902
 31
0.0
  0
LINE
  5
1ED
330
1F
100
AcDbEntity
  8
0
  6
HIDDEN
 62
     7
370
    18
100
AcDbLine
 10
1090.7871543693
 20
1970.7198300902
 30
0.0
 11
1090.7871543693
 21
2045.7198300902
 31
0.0
  0
LINE
  5
1EE
330
1F
100
AcDbEntity
  8
0
  6
HIDDEN
 62
     7
370
    18
100
AcDbLine
 10
940.7871543693
 20
2045.7198300902
 30
0.0
 11
940.7871543693
 21
1970.7198300902
 31
0.0
  0
LINE
  5
1EF
330
1F
100
AcDbEntity
  8
0
  6
HIDDEN
 62
     7
370
    18
100
AcDbLine
 10
750.2871543693
 20
2426.8198300902
 30
0.0
 11
750.2871543693
 21
2428.2198300902
 31
0.0
  0
LINE
  5
1F0
330
1F
100
AcDbEntity
  8
0
  6
HIDDEN
 62
     7
370
    18
100
AcDbLine
 10
519.1408690891
 20
2479.2198300902
 30
0.0
 11
519.1408690891
 21
2476.9198300902
 31
0.0
  0
LINE
  5
1F1
330
1F
100
AcDbEntity
  8
0
  6
HIDDEN
 62
     7
370
    18
100
AcDbLine
 10
527.1408690891
 20
2476.9198300902
 30
0.0
 11
527.1408690891
 21
2479.2198300902
 31
0.0
  0
LINE
  5
1F2
330
1F
100
AcDbEntity
  8
0
  6
HIDDEN
 62
     7
370
    18
100
AcDbLine
 10
608.4334396495
 20
2479.2198300902
 30
0.0
 11
608.4334396495
 21
2476.9198300902
 31
0.0
  0
LINE
  5
1F3
330
1F
100
AcDbEntity
  8
0
  6
HIDDEN
 62
     7
370
    18
100
AcDbLine
 10
616.4334396495
 20
2476.9198300902
 30
0.0
 11
616.4334396495
 21
2479.2198300902
 31
0.0
  0
LINE
  5
1F4
330
1F
100
AcDbEntity
  8
0
  6
HIDDEN
 62
     7
370
    18
100
AcDbLine
 10
727.5871543693
 20
2428.2198300902
 30
0.0
 11
727.5871543693
 21
2452.2198300902
 31
0.0
  0
LINE
  5
1F5
330
1F
100
AcDbEntity
  8
0
  6
HIDDEN
 62
     7
370
    18
100
AcDbLine
 10
725.2871543693
 20
2425.2198300902
 30
0.0
 11
725.2871543693
 21
2479.2198300902
 31
0.0
  0
LINE
  5
1F6
330
1F
100
AcDbEntity
  8
0
  6
HIDDEN
 62
     7
370
    18
100
AcDbLine
 10
410.2871543693
 20
2479.2198300902
 30
0.0
 11
410.2871543693
 21
2425.2198300902
 31
0.0
  0
LINE
  5
1F7
330
1F
100
AcDbEntity
  8
0
  6
HIDDEN
 62
     7
370
    18
100
AcDbLine
 10
685.763074124
 20
2479.2198300902
 30
0.0
 11
685.763074124
 21
2476.9198300902
 31
0.0
  0
LINE
  5
1F8
330
1F
100
AcDbEntity
  8
0
  6
HIDDEN
 62
     7
370
    18
100
AcDbLine
 10
693.763074124
 20
2476.9198300902
 30
0.0
 11
693.763074124
 21
2479.2198300902
 31
0.0
  0
LINE
  5
1F9
330
1F
100
AcDbEntity
  8
0
  6
HIDDEN
 62
     7
370
    18
100
AcDbLine
 10
441.8112346146
 20
2479.2198300902
 30
0.0
 11
441.8112346146
 21
2476.9198300902
 31
0.0
  0
LINE
  5
1FA
330
1F
100
AcDbEntity
  8
0
  6
HIDDEN
 62
     7
370
    18
100
AcDbLine
 10
449.8112346146
 20
2476.9198300902
 30
0.0
 11
449.8112346146
 21
2479.2198300902
 31
0.0
  0
LINE
  5
1FB
330
1F
100
AcDbEntity
  8
0
  6
HIDDEN
 62
     7
370
    18
100
AcDbLine
 10
397.1649493344
 20
2479.2198300902
 30
0.0
 11
397.1649493344
 21
2476.9198300902
 31
0.0
  0
LINE
  5
1FC
330
1F
100
AcDbEntity
  8
0
  6
HIDDEN
 62
     7
370
    18
100
AcDbLine
 10
405.1649493344
 20
2476.9198300902
 30
0.0
 11
405.1649493344
 21
2479.2198300902
 31
0.0
  0
LINE
  5
1FD
330
1F
100
AcDbEntity
  8
0
  6
HIDDEN
 62
     7
370
    18
100
AcDbLine
 10
730.4093594042
 20
2479.2198300902
 30
0.0
 11
730.4093594042
 21
2476.9198300902
 31
0.0
  0
LINE
  5
1FE
330
1F
100
AcDbEntity
  8
0
  6
HIDDEN
 62
     7
370
    18
100
AcDbLine
 10
738.4093594042
 20
2476.9198300902
 30
0.0
 11
738.4093594042
 21
2479.2198300902
 31
0.0
  0
CIRCLE
  5
1FF
330
1F
100
AcDbEntity
  8
基礎穴
100
AcDbCircle
 10
405.7871543693
 20
2085.2198300902
 30
0.0
 40
5.999999999999969
  0
CIRCLE
  5
200
330
1F
100
AcDbEntity
  8
基礎穴
100
AcDbCircle
 10
805.7871543693
 20
2085.2198300902
 30
0.0
 40
6.000000000000132
  0
CIRCLE
  5
201
330
1F
100
AcDbEntity
  8
基礎穴
100
AcDbCircle
 10
1205.7871543693
 20
2085.2198300902
 30
0.0
 40
6.000000000000132
  0
CIRCLE
  5
202
330
1F
100
AcDbEntity
  8
基礎穴
100
AcDbCircle
 10
1205.7871543693
 20
2449.2198300902
 30
0.0
 40
6.000000000000132
  0
CIRCLE
  5
203
330
1F
100
AcDbEntity
  8
基礎穴
100
AcDbCircle
 10
805.7871543693
 20
2449.2198300902
 30
0.0
 40
6.000000000000132
  0
CIRCLE
  5
204
330
1F
100
AcDbEntity
  8
基礎穴
100
AcDbCircle
 10
405.7871543693
 20
2449.2198300902
 30
0.0
 40
5.999999999999969
  0
LINE
  5
205
330
1F
100
AcDbEntity
  8
2
100
AcDbLine
 10
756.2871543693
 20
2462.0911920061
 30
0.0
 11
756.2871543693
 21
2142.2198300902
 31
0.0
  0
LINE
  5
206
330
1F
100
AcDbEntity
  8
2
100
AcDbLine
 10
1158.2871543693
 20
2307.2198300902
 30
0.0
 11
348.9537917066
 21
2307.2198300902
 31
0.0
  0
LINE
  5
207
330
1F
100
AcDbEntity
  8
2
100
AcDbLine
 10
567.7871543693
 20
1957.2859566748
 30
0.0
 11
567.7871543693
 21
2468.3944594481
 31
0.0
  0
ENDSEC
  0
SECTION
  2
OBJECTS
  0
DICTIONARY
  5
C
330
0
100
AcDbDictionary
281
     1
  3
ACAD_GROUP
350
D
  3
ACAD_LAYOUT
350
1A
  3
ACAD_MLINESTYLE
350
17
  3
ACAD_PLOTSETTINGS
350
19
  3
ACAD_PLOTSTYLENAME
350
E
  3
ACAD_SCALELIST
350
47
  3
DWGPROPS
350
208
  0
DICTIONARY
  5
D
102
{ACAD_REACTORS
330
C
102
}
330
C
100
AcDbDictionary
281
     1
  0
DICTIONARY
  5
1A
102
{ACAD_REACTORS
330
C
102
}
330
C
100
AcDbDictionary
281
     1
  3
Layout1
350
1E
  3
Layout2
350
26
  3
Model
350
22
  0
DICTIONARY
  5
17
102
{ACAD_REACTORS
330
C
102
}
330
C
100
AcDbDictionary
281
     1
  3
Standard
350
18
  0
DICTIONARY
  5
19
102
{ACAD_REACTORS
330
C
102
}
330
C
100
AcDbDictionary
281
     1
  0
ACDBDICTIONARYWDFLT
  5
E
102
{ACAD_REACTORS
330
C
102
}
330
C
100
AcDbDictionary
281
     1
  3
Normal
350
F
100
AcDbDictionaryWithDefault
340
F
  0
DICTIONARY
  5
47
102
{ACAD_REACTORS
330
C
102
}
330
C
100
AcDbDictionary
281
     1
  3
A0
350
48
  3
A1
350
49
  3
A2
350
4A
  3
A3
350
4B
  3
A4
350
4C
  3
A5
350
4D
  3
A6
350
4E
  3
A7
350
4F
  3
A8
350
50
  3
A9
350
51
  3
B0
350
52
  3
B1
350
53
  3
B2
350
54
  3
B3
350
55
  3
B4
350
56
  3
B5
350
57
  3
B6
350
58
  0
XRECORD
  5
208
102
{ACAD_REACTORS
330
C
102
}
330
C
100
AcDbXrecord
280
     1
  1
DWGPROPS COOKIE
  2

  3

  4

  6

  7

  8
yuta.kunimatsu
  9

300
=
301
=
302
=
303
=
304
=
305
=
306
=
307
=
308
=
309
=
 40
0.0
 41
2460115.246359873
 42
2460115.246360301
  1

 90
        0
  0
LAYOUT
  5
1E
102
{ACAD_REACTORS
330
1A
102
}
330
1A
100
AcDbPlotSettings
  1

  2
none_device
  4

  6

 40
0.0
 41
0.0
 42
0.0
 43
0.0
 44
0.0
 45
0.0
 46
0.0
 47
0.0
 48
0.0
 49
0.0
140
0.0
141
0.0
142
1.0
143
1.0
 70
   688
 72
     1
 73
     0
 74
     5
  7

 75
    16
147
1.0
148
0.0
149
0.0
100
AcDbLayout
  1
Layout1
 70
     1
 71
     1
 10
0.0
 20
0.0
 11
420.0
 21
297.0
 12
0.0
 22
0.0
 32
0.0
 14
1.0000000000E+20
 24
1.0000000000E+20
 34
1.0000000000E+20
 15
-1.0000000000E+20
 25
-1.0000000000E+20
 35
-1.0000000000E+20
146
0.0
 13
0.0
 23
0.0
 33
0.0
 16
1.0
 26
0.0
 36
0.0
 17
0.0
 27
1.0
 37
0.0
 76
     0
330
1B
  0
LAYOUT
  5
26
102
{ACAD_REACTORS
330
1A
102
}
330
1A
100
AcDbPlotSettings
  1

  2
none_device
  4

  6

 40
0.0
 41
0.0
 42
0.0
 43
0.0
 44
0.0
 45
0.0
 46
0.0
 47
0.0
 48
0.0
 49
0.0
140
0.0
141
0.0
142
1.0
143
1.0
 70
   688
 72
     1
 73
     0
 74
     5
  7

 75
    16
147
1.0
148
0.0
149
0.0
100
AcDbLayout
  1
Layout2
 70
     1
 71
     2
 10
0.0
 20
0.0
 11
0.0
 21
0.0
 12
0.0
 22
0.0
 32
0.0
 14
0.0
 24
0.0
 34
0.0
 15
0.0
 25
0.0
 35
0.0
146
0.0
 13
0.0
 23
0.0
 33
0.0
 16
1.0
 26
0.0
 36
0.0
 17
0.0
 27
1.0
 37
0.0
 76
     0
330
23
  0
LAYOUT
  5
22
102
{ACAD_REACTORS
330
1A
102
}
330
1A
100
AcDbPlotSettings
  1

  2
none_device
  4
Letter_(8.50_x_11.00_Inches)
  6

 40
6.35
 41
6.35
 42
6.35000508
 43
6.35000508
 44
215.9
 45
279.4
 46
0.0
 47
0.0
 48
0.0
 49
0.0
140
0.0
141
0.0
142
1.0
143
1.0
 70
  1712
 72
     1
 73
     0
 74
     0
  7

 75
     0
147
1.0
148
0.0
149
0.0
100
AcDbLayout
  1
Model
 70
     1
 71
     0
 10
0.0
 20
0.0
 11
2100.0
 21
2970.0
 12
0.0
 22
0.0
 32
0.0
 14
0.0
 24
0.0
 34
0.0
 15
2100.0
 25
2970.0
 35
0.0
146
0.0
 13
0.0
 23
0.0
 33
0.0
 16
1.0
 26
0.0
 36
0.0
 17
0.0
 27
1.0
 37
0.0
 76
     0
330
1F
331
29
  0
MLINESTYLE
  5
18
102
{ACAD_REACTORS
330
17
102
}
330
17
100
AcDbMlineStyle
  2
Standard
 70
     0
  3

 62
   256
 51
90.0
 52
90.0
 71
     2
 49
0.5
 62
   256
  6
BYLAYER
 49
-0.5
 62
   256
  6
BYLAYER
  0
ACDBPLACEHOLDER
  5
F
102
{ACAD_REACTORS
330
E
102
}
330
E
  0
SCALE
  5
48
102
{ACAD_REACTORS
330
47
102
}
330
47
100
AcDbScale
 70
     0
300
1:1
140
1.0
141
1.0
290
     1
  0
SCALE
  5
49
102
{ACAD_REACTORS
330
47
102
}
330
47
100
AcDbScale
 70
     0
300
1:2
140
1.0
141
2.0
290
     0
  0
SCALE
  5
4A
102
{ACAD_REACTORS
330
47
102
}
330
47
100
AcDbScale
 70
     0
300
1:4
140
1.0
141
4.0
290
     0
  0
SCALE
  5
4B
102
{ACAD_REACTORS
330
47
102
}
330
47
100
AcDbScale
 70
     0
300
1:5
140
1.0
141
5.0
290
     0
  0
SCALE
  5
4C
102
{ACAD_REACTORS
330
47
102
}
330
47
100
AcDbScale
 70
     0
300
1:8
140
1.0
141
8.0
290
     0
  0
SCALE
  5
4D
102
{ACAD_REACTORS
330
47
102
}
330
47
100
AcDbScale
 70
     0
300
1:10
140
1.0
141
10.0
290
     0
  0
SCALE
  5
4E
102
{ACAD_REACTORS
330
47
102
}
330
47
100
AcDbScale
 70
     0
300
1:16
140
1.0
141
16.0
290
     0
  0
SCALE
  5
4F
102
{ACAD_REACTORS
330
47
102
}
330
47
100
AcDbScale
 70
     0
300
1:20
140
1.0
141
20.0
290
     0
  0
SCALE
  5
50
102
{ACAD_REACTORS
330
47
102
}
330
47
100
AcDbScale
 70
     0
300
1:30
140
1.0
141
30.0
290
     0
  0
SCALE
  5
51
102
{ACAD_REACTORS
330
47
102
}
330
47
100
AcDbScale
 70
     0
300
1:40
140
1.0
141
40.0
290
     0
  0
SCALE
  5
52
102
{ACAD_REACTORS
330
47
102
}
330
47
100
AcDbScale
 70
     0
300
1:50
140
1.0
141
50.0
290
     0
  0
SCALE
  5
53
102
{ACAD_REACTORS
330
47
102
}
330
47
100
AcDbScale
 70
     0
300
1:100
140
1.0
141
100.0
290
     0
  0
SCALE
  5
54
102
{ACAD_REACTORS
330
47
102
}
330
47
100
AcDbScale
 70
     0
300
2:1
140
2.0
141
1.0
290
     0
  0
SCALE
  5
55
102
{ACAD_REACTORS
330
47
102
}
330
47
100
AcDbScale
 70
     0
300
4:1
140
4.0
141
1.0
290
     0
  0
SCALE
  5
56
102
{ACAD_REACTORS
330
47
102
}
330
47
100
AcDbScale
 70
     0
300
8:1
140
8.0
141
1.0
290
     0
  0
SCALE
  5
57
102
{ACAD_REACTORS
330
47
102
}
330
47
100
AcDbScale
 70
     0
300
10:1
140
10.0
141
1.0
290
     0
  0
SCALE
  5
58
102
{ACAD_REACTORS
330
47
102
}
330
47
100
AcDbScale
 70
     0
300
100:1
140
100.0
141
1.0
290
     0
  0
ENDSEC
  0
EOF
